  0
SECTION
  2
HEADER
  9
$ACADVER
  1
AC1009
  9
$INSBASE
 10
0.0
 20
0.0
 30
0.0
  9
$EXTMIN
 10
0.0
 20
-2.960436562073669
 30
0.0
  9
$EXTMAX
 10
290.89478870355032
 20
225.54904653481421
 30
0.0
  9
$LIMMIN
 10
0.0
 20
0.0
  9
$LIMMAX
 10
375.0
 20
270.0
  9
$ORTHOMODE
 70
     1
  9
$REGENMODE
 70
     1
  9
$FILLMODE
 70
     1
  9
$QTEXTMODE
 70
     0
  9
$MIRRTEXT
 70
     0
  9
$DRAGMODE
 70
     2
  9
$LTSCALE
 40
10.0
  9
$OSMODE
 70
    55
  9
$ATTMODE
 70
     1
  9
$TEXTSIZE
 40
0.2
  9
$TRACEWID
 40
0.05
  9
$TEXTSTYLE
  7
STANDARD
  9
$CLAYER
  8
0
  9
$CELTYPE
  6
BYLAYER
  9
$CECOLOR
 62
   256
  9
$DIMSCALE
 40
1.0
  9
$DIMASZ
 40
3.0
  9
$DIMEXO
 40
2.0
  9
$DIMDLI
 40
0.38
  9
$DIMRND
 40
0.0
  9
$DIMDLE
 40
0.0
  9
$DIMEXE
 40
2.0
  9
$DIMTP
 40
0.0
  9
$DIMTM
 40
0.0
  9
$DIMTXT
 40
3.2000000000000002
  9
$DIMCEN
 40
0.0
  9
$DIMTSZ
 40
0.0
  9
$DIMTOL
 70
     0
  9
$DIMLIM
 70
     0
  9
$DIMTIH
 70
     0
  9
$DIMTOH
 70
     0
  9
$DIMSE1
 70
     0
  9
$DIMSE2
 70
     0
  9
$DIMTAD
 70
     1
  9
$DIMZIN
 70
     0
  9
$DIMBLK
  1

  9
$DIMASO
 70
     1
  9
$DIMSHO
 70
     0
  9
$DIMPOST
  1

  9
$DIMAPOST
  1

  9
$DIMALT
 70
     0
  9
$DIMALTD
 70
     2
  9
$DIMALTF
 40
25.399999999999999
  9
$DIMLFAC
 40
1.0
  9
$DIMTOFL
 70
     1
  9
$DIMTVP
 40
1.6000000000000001
  9
$DIMTIX
 70
     1
  9
$DIMSOXD
 70
     0
  9
$DIMSAH
 70
     0
  9
$DIMBLK1
  1

  9
$DIMBLK2
  1

  9
$DIMSTYLE
  2
STANDARD
  9
$DIMCLRD
 70
     0
  9
$DIMCLRE
 70
     0
  9
$DIMCLRT
 70
     0
  9
$DIMTFAC
 40
1.0
  9
$DIMGAP
 40
0.09
  9
$LUNITS
 70
     2
  9
$LUPREC
 70
     4
  9
$SKETCHINC
 40
0.1
  9
$FILLETRAD
 40
0.0
  9
$AUNITS
 70
     0
  9
$AUPREC
 70
     4
  9
$MENU
  1
E:\r13\win\SUPPORT\ACAD
  9
$ELEVATION
 40
0.0
  9
$PELEVATION
 40
0.0
  9
$THICKNESS
 40
0.0
  9
$LIMCHECK
 70
     0
  9
$BLIPMODE
 70
     0
  9
$CHAMFERA
 40
0.0
  9
$CHAMFERB
 40
0.0
  9
$SKPOLY
 70
     0
  9
$TDCREATE
 40
2449839.796041667
  9
$TDUPDATE
 40
2456598.5923498031
  9
$TDINDWG
 40
0.0001520602
  9
$TDUSRTIMER
 40
0.0001520602
  9
$USRTIMER
 70
     1
  9
$ANGBASE
 50
0.0
  9
$ANGDIR
 70
     0
  9
$PDMODE
 70
     0
  9
$PDSIZE
 40
0.0
  9
$PLINEWID
 40
0.0
  9
$COORDS
 70
     1
  9
$SPLFRAME
 70
     0
  9
$SPLINETYPE
 70
     6
  9
$SPLINESEGS
 70
     8
  9
$ATTDIA
 70
     0
  9
$ATTREQ
 70
     1
  9
$HANDLING
 70
     1
  9
$HANDSEED
  5
2BA
  9
$SURFTAB1
 70
     6
  9
$SURFTAB2
 70
     6
  9
$SURFTYPE
 70
     6
  9
$SURFU
 70
     6
  9
$SURFV
 70
     6
  9
$UCSNAME
  2

  9
$UCSORG
 10
0.0
 20
0.0
 30
0.0
  9
$UCSXDIR
 10
1.0
 20
0.0
 30
0.0
  9
$UCSYDIR
 10
0.0
 20
1.0
 30
0.0
  9
$PUCSNAME
  2

  9
$PUCSORG
 10
0.0
 20
0.0
 30
0.0
  9
$PUCSXDIR
 10
1.0
 20
0.0
 30
0.0
  9
$PUCSYDIR
 10
0.0
 20
1.0
 30
0.0
  9
$USERI1
 70
     0
  9
$USERI2
 70
     1
  9
$USERI3
 70
     1
  9
$USERI4
 70
     0
  9
$USERI5
 70
     0
  9
$USERR1
 40
0.0
  9
$USERR2
 40
0.0
  9
$USERR3
 40
0.0
  9
$USERR4
 40
0.0
  9
$USERR5
 40
0.0
  9
$WORLDVIEW
 70
     1
  9
$SHADEDGE
 70
     3
  9
$SHADEDIF
 70
    70
  9
$TILEMODE
 70
     1
  9
$MAXACTVP
 70
    16
  9
$PLIMCHECK
 70
     0
  9
$PEXTMIN
 10
1.0000000000000000E+020
 20
1.0000000000000000E+020
 30
1.0000000000000000E+020
  9
$PEXTMAX
 10
-1.0000000000000000E+020
 20
-1.0000000000000000E+020
 30
-1.0000000000000000E+020
  9
$PLIMMIN
 10
0.0
 20
0.0
  9
$PLIMMAX
 10
12.0
 20
9.0
  9
$UNITMODE
 70
     0
  9
$VISRETAIN
 70
     0
  9
$PLINEGEN
 70
     0
  9
$PSLTSCALE
 70
     0
  0
ENDSEC
  0
SECTION
  2
TABLES
  0
TABLE
  2
VPORT
 70
     1
  0
VPORT
  2
*ACTIVE
 70
     0
 10
0.0
 20
0.0
 11
1.0
 21
1.0
 12
187.49427839065231
 22
194.785247995265
 13
0.0
 23
0.0
 14
10.0
 24
10.0
 15
10.0
 25
10.0
 16
0.0
 26
0.0
 36
1.0
 17
0.0
 27
0.0
 37
0.0
 40
399.3463374158577
 41
1.7807262569832401
 42
50.0
 43
0.0
 44
0.0
 50
0.0
 51
0.0
 71
     0
 72
   500
 73
     1
 74
     0
 75
     0
 76
     0
 77
     0
 78
     2
  0
ENDTAB
  0
TABLE
  2
LTYPE
 70
     4
  0
LTYPE
  2
CONTINUOUS
 70
     0
  3
Solid Line
 72
    65
 73
     0
 40
0.0
  0
LTYPE
  2
CENTER
 70
     0
  3
____ _ ____ _ ____ _ ____ _ ____ _ ____ _ ____
 72
    65
 73
     4
 40
2.0
 49
1.25
 49
-0.25
 49
0.25
 49
-0.25
  0
LTYPE
  2
HIDDEN
 70
     0
  3
_ _ _ _ _ _ _ _ _ _ _ _ _ _ _ _ _ _ _ _ _ _ _
 72
    65
 73
     2
 40
0.375
 49
0.25
 49
-0.125
  0
LTYPE
  2
PHANTOM2
 70
     0
  3
___ _ _ ___ _ _ ___ _ _ ___ _ _
 72
    65
 73
     6
 40
1.25
 49
0.625
 49
-0.125
 49
0.125
 49
-0.125
 49
0.125
 49
-0.125
  0
ENDTAB
  0
TABLE
  2
LAYER
 70
     4
  0
LAYER
  2
0
 70
     0
 62
     7
  6
CONTINUOUS
  0
LAYER
  2
1
 70
     0
 62
     1
  6
CENTER
  0
LAYER
  2
2
 70
     0
 62
     2
  6
HIDDEN
  0
LAYER
  2
3
 70
     0
 62
     3
  6
CONTINUOUS
  0
ENDTAB
  0
TABLE
  2
STYLE
 70
     2
  0
STYLE
  2
STANDARD
 70
     0
 40
0.0
 41
1.0
 50
0.0
 71
     0
 42
0.2
  3
TXT
  4
BIGFONT
  0
STYLE
  2
STANDARD1
 70
     0
 40
0.0
 41
1.0
 50
0.0
 71
     0
 42
3.0
  3
txt
  4

  0
ENDTAB
  0
TABLE
  2
VIEW
 70
     1
  0
VIEW
  2
ALL
 70
     0
 40
179.5384664489153
 10
135.0
 20
89.769233224457665
 41
0.0
 11
0.0
 21
0.0
 31
1.0
 12
0.0
 22
0.0
 32
0.0
 42
0.0
 43
0.0
 44
0.0
 50
0.0
 71
     0
  0
ENDTAB
  0
TABLE
  2
UCS
 70
     0
  0
ENDTAB
  0
TABLE
  2
APPID
 70
     3
  0
APPID
  2
ACAD
 70
     0
  0
APPID
  2
ACAD_MLEADERVER
 70
     0
  0
APPID
  2
ACAD_NAV_VCDISPLAY
 70
     0
  0
ENDTAB
  0
TABLE
  2
DIMSTYLE
 70
     1
  0
DIMSTYLE
  2
STANDARD
 70
     0
  3

  4

  5

  6

  7

 40
1.0
 41
0.18
 42
0.0625
 43
0.38
 44
0.18
 45
0.0
 46
0.0
 47
0.0
 48
0.0
140
0.18
141
0.09
142
0.0
143
25.399999999999999
144
1.0
145
0.0
146
1.0
147
0.09
 71
     0
 72
     0
 73
     1
 74
     1
 75
     0
 76
     0
 77
     0
 78
     0
170
     0
171
     2
172
     0
173
     0
174
     0
175
     0
176
     0
177
     0
178
     0
  0
ENDTAB
  0
ENDSEC
  0
SECTION
  2
BLOCKS
  0
BLOCK
  8
0
  2
$MODEL_SPACE
 70
     0
 10
0.0
 20
0.0
 30
0.0
  3
$MODEL_SPACE
  1

  0
ENDBLK
  5
139
  8
0
  0
BLOCK
 67
     1
  8
0
  2
$PAPER_SPACE
 70
     0
 10
0.0
 20
0.0
 30
0.0
  3
$PAPER_SPACE
  1

  0
ENDBLK
  5
137
 67
     1
  8
0
  0
ENDSEC
  0
SECTION
  2
ENTITIES
  0
ARC
  5
36
  8
2
 10
181.93571638601361
 20
115.433984960854
 30
0.0
 40
4.0
 50
90.0
 51
179.99999999999989
  0
ARC
  5
37
  8
2
 10
195.93571638601361
 20
115.433984960854
 30
0.0
 40
4.0
 50
0.0
 51
90.0
  0
LINE
  5
38
  8
2
 10
191.43571638601361
 20
129.43398496085399
 30
0.0
 11
191.43571638601361
 21
132.43398496085399
 31
0.0
  0
LINE
  5
39
  8
2
 10
186.43571638601361
 20
129.43398496085399
 30
0.0
 11
186.43571638601361
 21
132.43398496085399
 31
0.0
  0
LINE
  5
3A
  8
2
 10
186.43571638601361
 20
132.43398496085399
 30
0.0
 11
191.43571638601361
 21
132.43398496085399
 31
0.0
  0
LINE
  5
3B
  8
2
 10
181.93571638601361
 20
119.433984960854
 30
0.0
 11
195.93571638601361
 21
119.433984960854
 31
0.0
  0
LINE
  5
3C
  8
2
 10
193.3357163860137
 20
119.433984960854
 30
0.0
 11
193.3357163860137
 21
124.433984960854
 31
0.0
  0
LINE
  5
3D
  8
2
 10
184.53571638601349
 20
124.433984960854
 30
0.0
 11
184.53571638601349
 21
119.433984960854
 31
0.0
  0
LINE
  5
3E
  8
2
 10
275.89478870355032
 20
143.43398496085399
 30
0.0
 11
275.89478870355032
 21
135.43398496085399
 31
0.0
  0
LINE
  5
3F
  8
2
 10
192.9043433526106
 20
206.5490465348141
 30
0.0
 11
184.96708941941671
 21
206.5490465348141
 31
0.0
  0
LINE
  5
40
  8
2
 10
192.9043433526106
 20
206.5490465348141
 30
0.0
 11
194.06282328555429
 21
196.5490465348141
 31
0.0
  0
LINE
  5
41
  8
2
 10
194.06282328555429
 20
216.5490465348141
 30
0.0
 11
192.9043433526106
 21
206.5490465348141
 31
0.0
  0
LINE
  5
42
  8
2
 10
184.96708941941671
 20
206.5490465348141
 30
0.0
 11
183.80860948647299
 21
216.5490465348141
 31
0.0
  0
LINE
  5
43
  8
2
 10
183.80860948647299
 20
196.5490465348141
 30
0.0
 11
184.96708941941671
 21
206.5490465348141
 31
0.0
  0
LINE
  5
44
  8
2
 10
182.43571638601361
 20
216.5490465348141
 30
0.0
 11
182.43571638601361
 21
196.5490465348141
 31
0.0
  0
LINE
  5
45
  8
2
 10
195.43571638601361
 20
216.5490465348141
 30
0.0
 11
195.43571638601361
 21
196.5490465348141
 31
0.0
  0
LINE
  5
46
  8
2
 10
273.39478870355032
 20
132.43398496085399
 30
0.0
 11
278.39478870355032
 21
132.43398496085399
 31
0.0
  0
LINE
  5
47
  8
2
 10
273.39478870355032
 20
129.43398496085399
 30
0.0
 11
273.39478870355032
 21
132.43398496085399
 31
0.0
  0
LINE
  5
48
  8
2
 10
278.39478870355032
 20
129.43398496085399
 30
0.0
 11
278.39478870355032
 21
132.43398496085399
 31
0.0
  0
LINE
  5
49
  8
2
 10
271.49478870355023
 20
124.433984960854
 30
0.0
 11
271.49478870355023
 21
119.433984960854
 31
0.0
  0
LINE
  5
4A
  8
2
 10
280.29478870355041
 20
119.433984960854
 30
0.0
 11
280.29478870355041
 21
124.433984960854
 31
0.0
  0
ARC
  5
4B
  8
2
 10
268.89478870355032
 20
115.433984960854
 30
0.0
 40
4.0
 50
90.0
 51
179.99999999999989
  0
ARC
  5
4C
  8
2
 10
282.89478870355032
 20
115.433984960854
 30
0.0
 40
4.0
 50
0.0
 51
90.0
  0
LINE
  5
4D
  8
2
 10
268.89478870355032
 20
119.433984960854
 30
0.0
 11
282.89478870355032
 21
119.433984960854
 31
0.0
  0
ARC
  5
4E
  8
0
 10
275.89478870355032
 20
82.634098591907801
 30
0.0
 40
40.799886368946332
 50
75.812332044958183
 51
104.1876679550417
  0
ARC
  5
4F
  8
0
 10
188.93571638601361
 20
82.634098591907801
 30
0.0
 40
40.799886368946332
 50
75.812332044958183
 51
104.1876679550417
  0
LINE
  5
50
  8
1
 10
260.89478870355032
 20
139.43398496085399
 30
0.0
 11
290.89478870355032
 21
139.43398496085399
 31
0.0
  0
ARC
  5
51
  8
2
 10
275.89478870355032
 20
187.43398496085399
 30
0.0
 40
44.0
 50
256.86344121305513
 51
283.13655878694487
  0
LINE
  5
52
  8
2
 10
275.89478870355032
 20
135.43398496085399
 30
0.0
 11
285.89478870355032
 21
134.43398496085399
 31
0.0
  0
LINE
  5
53
  8
2
 10
265.89478870355032
 20
134.43398496085399
 30
0.0
 11
275.89478870355032
 21
135.43398496085399
 31
0.0
  0
LINE
  5
54
  8
2
 10
285.89478870355032
 20
139.93398496085399
 30
0.0
 11
265.89478870355032
 21
139.93398496085399
 31
0.0
  0
LINE
  5
55
  8
1
 10
203.9357163860137
 20
139.43398496085399
 30
0.0
 11
173.93571638601361
 21
139.43398496085399
 31
0.0
  0
LINE
  5
56
  8
0
 10
182.43571638601361
 20
139.93398496085399
 30
0.0
 11
182.43571638601361
 21
134.43398496085399
 31
0.0
  0
LINE
  5
57
  8
0
 10
195.43571638601361
 20
139.93398496085399
 30
0.0
 11
195.43571638601361
 21
134.43398496085399
 31
0.0
  0
ARC
  5
58
  8
0
 10
188.93571638601361
 20
139.43398496085399
 30
0.0
 40
5.1514294287429427
 50
5.5699224038445569
 51
174.4300775961554
  0
ARC
  5
59
  8
0
 10
188.93571638601361
 20
139.43398496085399
 30
0.0
 40
4.0
 50
7.1807557814582808
 51
172.81924421854171
  0
LINE
  5
5A
  8
0
 10
195.43571638601361
 20
139.93398496085399
 30
0.0
 11
192.90434335261
 21
139.93398496085399
 31
0.0
  0
LINE
  5
5B
  8
0
 10
195.43571638601361
 20
134.43398496085399
 30
0.0
 11
182.43571638601361
 21
134.43398496085399
 31
0.0
  0
LINE
  5
5C
  8
0
 10
195.43571638601361
 20
135.43398496085399
 30
0.0
 11
182.43571638601361
 21
135.43398496085399
 31
0.0
  0
ARC
  5
5D
  8
0
 10
283.39478870355032
 20
144.93398496085399
 30
0.0
 40
2.5
 50
0.0
 51
90.0
  0
ARC
  5
5E
  8
0
 10
268.39478870355032
 20
144.93398496085399
 30
0.0
 40
2.5
 50
90.0
 51
179.99999999999989
  0
LINE
  5
5F
  8
0
 10
261.89478870355032
 20
109.433984960854
 30
0.0
 11
289.89478870355032
 21
109.433984960854
 31
0.0
  0
LINE
  5
60
  8
0
 10
289.89478870355032
 20
109.433984960854
 30
0.0
 11
289.89478870355032
 21
119.433984960854
 31
0.0
  0
LINE
  5
61
  8
0
 10
261.89478870355032
 20
119.433984960854
 30
0.0
 11
261.89478870355032
 21
109.433984960854
 31
0.0
  0
ARC
  5
62
  8
0
 10
265.89478870355032
 20
119.433984960854
 30
0.0
 40
4.0
 50
90.0
 51
179.99999999999989
  0
ARC
  5
63
  8
0
 10
285.89478870355032
 20
119.433984960854
 30
0.0
 40
4.0
 50
0.0
 51
90.0
  0
LINE
  5
64
  8
0
 10
285.8947887035506
 20
122.1895119726188
 30
0.0
 11
285.89478870355032
 21
144.93398496085399
 31
0.0
  0
LINE
  5
65
  8
0
 10
283.39478870355032
 20
147.43398496085399
 30
0.0
 11
268.39478870355032
 21
147.43398496085399
 31
0.0
  0
LINE
  5
66
  8
0
 10
265.89478870355032
 20
144.93398496085399
 30
0.0
 11
265.89478870355009
 21
122.1895119726188
 31
0.0
  0
ARC
  5
67
  8
0
 10
181.93571638601361
 20
144.43398496085399
 30
0.0
 40
3.0
 50
90.0
 51
179.99999999999989
  0
ARC
  5
68
  8
0
 10
195.93571638601361
 20
144.43398496085399
 30
0.0
 40
3.0
 50
0.0
 51
90.0
  0
LINE
  5
69
  8
0
 10
178.93571638601361
 20
144.43398496085399
 30
0.0
 11
178.93571638601361
 21
122.1895119726188
 31
0.0
  0
LINE
  5
6A
  8
0
 10
195.93571638601361
 20
147.43398496085399
 30
0.0
 11
181.93571638601361
 21
147.43398496085399
 31
0.0
  0
LINE
  5
6B
  8
0
 10
198.93571638601361
 20
122.1895119726188
 30
0.0
 11
198.93571638601361
 21
144.43398496085399
 31
0.0
  0
ARC
  5
6C
  8
0
 10
198.93571638601361
 20
119.433984960854
 30
0.0
 40
4.0
 50
0.0
 51
90.0
  0
ARC
  5
6D
  8
0
 10
178.93571638601361
 20
119.433984960854
 30
0.0
 40
4.0
 50
90.0
 51
179.99999999999989
  0
LINE
  5
6E
  8
0
 10
174.93571638601361
 20
119.433984960854
 30
0.0
 11
174.93571638601361
 21
109.433984960854
 31
0.0
  0
LINE
  5
6F
  8
0
 10
202.93571638601361
 20
109.433984960854
 30
0.0
 11
202.93571638601361
 21
119.433984960854
 31
0.0
  0
LINE
  5
70
  8
0
 10
174.93571638601361
 20
109.433984960854
 30
0.0
 11
202.93571638601361
 21
109.433984960854
 31
0.0
  0
ARC
  5
71
  8
0
 10
195.93571638601361
 20
199.5490465348141
 30
0.0
 40
3.0
 50
269.99999999999989
 51
0.0
  0
ARC
  5
72
  8
0
 10
181.93571638601361
 20
199.5490465348141
 30
0.0
 40
3.0
 50
180.0
 51
269.99999999999989
  0
ARC
  5
73
  8
0
 10
181.93571638601361
 20
213.54904653481421
 30
0.0
 40
3.0
 50
90.0
 51
179.99999999999989
  0
ARC
  5
74
  8
0
 10
195.93571638601361
 20
213.54904653481421
 30
0.0
 40
3.0
 50
0.0
 51
90.0
  0
LINE
  5
75
  8
0
 10
195.93571638601361
 20
196.5490465348141
 30
0.0
 11
181.93571638601361
 21
196.5490465348141
 31
0.0
  0
LINE
  5
76
  8
0
 10
178.93571638601361
 20
199.5490465348141
 30
0.0
 11
178.93571638601361
 21
213.54904653481421
 31
0.0
  0
LINE
  5
77
  8
0
 10
181.93571638601361
 20
216.5490465348141
 30
0.0
 11
195.93571638601361
 21
216.5490465348141
 31
0.0
  0
LINE
  5
78
  8
0
 10
198.93571638601361
 20
213.54904653481421
 30
0.0
 11
198.93571638601361
 21
199.5490465348141
 31
0.0
  0
CIRCLE
  5
79
  8
0
 10
188.93571638601361
 20
206.5490465348141
 30
0.0
 40
14.0
  0
CIRCLE
  5
7A
  8
0
 10
188.93571638601361
 20
56.454181049836222
 30
0.0
 40
14.0
  0
CIRCLE
  5
7B
  8
0
 10
188.93571638601361
 20
56.454181049836222
 30
0.0
 40
11.0
  0
CIRCLE
  5
7C
  8
0
 10
188.93571638601361
 20
56.454181049836222
 30
0.0
 40
4.4000000000000004
  0
CIRCLE
  5
7D
  8
3
 10
188.93571638601361
 20
56.454181049836222
 30
0.0
 40
3.0
  0
CIRCLE
  5
7E
  8
0
 10
188.93571638601361
 20
56.454181049836222
 30
0.0
 40
2.458499999999999
  0
LINE
  5
7F
  8
1
 10
207.93571638601361
 20
56.454181049836222
 30
0.0
 11
169.93571638601361
 21
56.454181049836222
 31
0.0
  0
LINE
  5
80
  8
1
 10
188.93571638601361
 20
75.454181049836222
 30
0.0
 11
188.93571638601361
 21
37.454181049836222
 31
0.0
  0
LINE
  5
81
  8
1
 10
207.93571638601361
 20
206.5490465348141
 30
0.0
 11
169.93571638601361
 21
206.5490465348141
 31
0.0
  0
LINE
  5
82
  8
1
 10
188.93571638601361
 20
225.54904653481421
 30
0.0
 11
188.93571638601361
 21
187.5490465348141
 31
0.0
  0
LINE
  5
83
  8
0
 10
184.96708941941719
 20
139.93398496085399
 30
0.0
 11
182.43571638601361
 21
139.93398496085399
 31
0.0
  0
LINE
  5
84
  8
1
 10
188.93571638601361
 20
104.433984960854
 30
0.0
 11
188.93571638601361
 21
152.43398496085399
 31
0.0
  0
LINE
  5
85
  8
1
 10
275.89478870355032
 20
104.433984960854
 30
0.0
 11
275.89478870355032
 21
152.43398496085399
 31
0.0
  0
LINE
  5
86
  8
2
 10
183.1622136941173
 20
128.92966794654961
 30
0.0
 11
184.03571638601409
 21
129.43398496085399
 31
0.0
  0
ARC
  5
87
  8
2
 10
184.60558936709131
 20
126.8204271855063
 30
0.0
 40
2.5558227484274911
 50
55.615752532026022
 51
115.61575253066
  0
ARC
  5
88
  8
2
 10
188.93571638602529
 20
119.8228319213756
 30
0.0
 40
9.5534180125581827
 50
72.412046225972574
 51
107.5879537741755
  0
ARC
  5
89
  8
2
 10
188.93571638602529
 20
134.04513800033229
 30
0.0
 40
9.5534180125581827
 50
252.4120462258245
 51
287.58795377402748
  0
ARC
  5
8A
  8
2
 10
184.60558936709131
 20
127.04754273620161
 30
0.0
 40
2.5558227484274911
 50
244.38424746934001
 51
304.38424746797409
  0
LINE
  5
8B
  8
2
 10
183.1622136941173
 20
124.9383019751584
 30
0.0
 11
184.03571638601409
 21
124.433984960854
 31
0.0
  0
LINE
  5
8C
  8
2
 10
183.16221369411741
 20
128.92966794654961
 30
0.0
 11
183.1622136941173
 21
124.9383019751584
 31
0.0
  0
LINE
  5
8D
  8
2
 10
186.0489650400653
 20
128.92966794654109
 30
0.0
 11
186.0489650400653
 21
124.93830197516741
 31
0.0
  0
LINE
  5
8E
  8
2
 10
191.82246773196181
 20
128.92966794654109
 30
0.0
 11
191.82246773196181
 21
124.93830197516741
 31
0.0
  0
LINE
  5
8F
  8
2
 10
194.70921907790969
 20
128.92966794654961
 30
0.0
 11
194.70921907790981
 21
124.9383019751584
 31
0.0
  0
LINE
  5
90
  8
2
 10
194.70921907790981
 20
124.9383019751584
 30
0.0
 11
193.83571638601299
 21
124.433984960854
 31
0.0
  0
ARC
  5
91
  8
2
 10
193.26584340493579
 20
127.04754273620161
 30
0.0
 40
2.5558227484274911
 50
235.61575253202599
 51
295.61575253066002
  0
ARC
  5
92
  8
2
 10
193.26584340493579
 20
126.8204271855063
 30
0.0
 40
2.5558227484274911
 50
64.384247469339996
 51
124.38424746797391
  0
LINE
  5
93
  8
2
 10
194.70921907790981
 20
128.92966794654961
 30
0.0
 11
193.83571638601299
 21
129.43398496085399
 31
0.0
  0
LINE
  5
94
  8
2
 10
193.83571638601299
 20
129.43398496085399
 30
0.0
 11
184.03571638601409
 21
129.43398496085399
 31
0.0
  0
LINE
  5
95
  8
2
 10
184.03571638601409
 20
124.433984960854
 30
0.0
 11
193.83571638601299
 21
124.433984960854
 31
0.0
  0
LINE
  5
96
  8
2
 10
270.99478870355227
 20
124.433984960854
 30
0.0
 11
280.79478870354848
 21
124.433984960854
 31
0.0
  0
LINE
  5
97
  8
2
 10
270.99478870355227
 20
129.43398496085399
 30
0.0
 11
280.79478870354848
 21
129.43398496085399
 31
0.0
  0
ARC
  5
98
  8
2
 10
278.39478870355032
 20
122.15536367603509
 30
0.0
 40
7.2208862578987887
 50
69.743841999626213
 51
110.2561580003737
  0
LINE
  5
99
  8
2
 10
280.89478870355032
 20
129.37624993393391
 30
0.0
 11
280.79478870354848
 21
129.43398496085399
 31
0.0
  0
LINE
  5
9A
  8
2
 10
280.89478870355032
 20
124.491719987774
 30
0.0
 11
280.79478870354848
 21
124.433984960854
 31
0.0
  0
ARC
  5
9B
  8
2
 10
278.39478870355032
 20
131.71260624567279
 30
0.0
 40
7.2208862578987887
 50
249.7438419996262
 51
290.25615800037377
  0
LINE
  5
9C
  8
2
 10
280.89478870355032
 20
129.37624993393391
 30
0.0
 11
280.89478870355032
 21
124.491719987774
 31
0.0
  0
LINE
  5
9D
  8
2
 10
270.89478870355038
 20
129.37624993393391
 30
0.0
 11
270.89478870355038
 21
124.491719987774
 31
0.0
  0
ARC
  5
9E
  8
2
 10
273.39478870355032
 20
131.71260624567279
 30
0.0
 40
7.2208862578987887
 50
249.7438419996262
 51
290.25615800037377
  0
LINE
  5
9F
  8
2
 10
270.89478870355038
 20
124.491719987774
 30
0.0
 11
270.99478870355227
 21
124.433984960854
 31
0.0
  0
LINE
  5
A0
  8
2
 10
270.89478870355038
 20
129.37624993393391
 30
0.0
 11
270.99478870355227
 21
129.43398496085399
 31
0.0
  0
ARC
  5
A1
  8
2
 10
273.39478870355032
 20
122.15536367603509
 30
0.0
 40
7.2208862578987887
 50
69.743841999626241
 51
110.2561580003738
  0
LINE
  5
A2
  8
2
 10
275.89478870355032
 20
128.9296679465487
 30
0.0
 11
275.89478870355032
 21
124.93830197515901
 31
0.0
  0
LINE
  5
A3
  8
2
 10
102.8804124243818
 20
128.9296679465487
 30
0.0
 11
102.8804124243818
 21
124.93830197515901
 31
0.0
  0
ARC
  5
A4
  8
2
 10
105.3804124243818
 20
122.15536367603509
 30
0.0
 40
7.2208862578987887
 50
69.743841999626241
 51
110.2561580003738
  0
LINE
  5
A5
  8
2
 10
107.8804124243818
 20
129.37624993393391
 30
0.0
 11
107.7804124243799
 21
129.43398496085399
 31
0.0
  0
LINE
  5
A6
  8
2
 10
107.8804124243818
 20
124.491719987774
 30
0.0
 11
107.7804124243799
 21
124.433984960854
 31
0.0
  0
ARC
  5
A7
  8
2
 10
105.3804124243818
 20
131.71260624567279
 30
0.0
 40
7.2208862578987887
 50
249.74384199962631
 51
290.25615800037389
  0
LINE
  5
A8
  8
2
 10
107.8804124243818
 20
129.37624993393391
 30
0.0
 11
107.8804124243818
 21
124.491719987774
 31
0.0
  0
LINE
  5
A9
  8
2
 10
97.880412424381817
 20
129.37624993393391
 30
0.0
 11
97.880412424381817
 21
124.491719987774
 31
0.0
  0
ARC
  5
AA
  8
2
 10
100.3804124243818
 20
131.71260624567279
 30
0.0
 40
7.2208862578987887
 50
249.7438419996262
 51
290.25615800037377
  0
LINE
  5
AB
  8
2
 10
97.880412424381817
 20
124.491719987774
 30
0.0
 11
97.980412424383715
 21
124.433984960854
 31
0.0
  0
LINE
  5
AC
  8
2
 10
97.880412424381817
 20
129.37624993393391
 30
0.0
 11
97.980412424383715
 21
129.43398496085399
 31
0.0
  0
ARC
  5
AD
  8
2
 10
100.3804124243818
 20
122.15536367603509
 30
0.0
 40
7.2208862578987887
 50
69.743841999626255
 51
110.2561580003738
  0
LINE
  5
AE
  8
2
 10
107.7804124243799
 20
129.43398496085399
 30
0.0
 11
97.980412424383715
 21
129.43398496085399
 31
0.0
  0
LINE
  5
AF
  8
2
 10
107.7804124243799
 20
124.433984960854
 30
0.0
 11
97.980412424383715
 21
124.433984960854
 31
0.0
  0
LINE
  5
B0
  8
1
 10
102.8804124243818
 20
104.433984960854
 30
0.0
 11
102.8804124243818
 21
152.43398496085399
 31
0.0
  0
LINE
  5
B1
  8
0
 10
112.8804124243818
 20
144.93398496085399
 30
0.0
 11
112.880412424382
 21
122.1895119726188
 31
0.0
  0
LINE
  5
B2
  8
0
 10
95.380412424381831
 20
147.43398496085399
 30
0.0
 11
110.3804124243818
 21
147.43398496085399
 31
0.0
  0
LINE
  5
B3
  8
0
 10
92.880412424381589
 20
122.1895119726188
 30
0.0
 11
92.880412424381831
 21
144.93398496085399
 31
0.0
  0
ARC
  5
B4
  8
0
 10
92.880412424381831
 20
119.433984960854
 30
0.0
 40
4.0
 50
90.000000000000028
 51
180.0
  0
ARC
  5
B5
  8
0
 10
112.8804124243818
 20
119.433984960854
 30
0.0
 40
4.0
 50
0.0000000000000763
 51
90.000000000000028
  0
LINE
  5
B6
  8
0
 10
116.8804124243818
 20
119.433984960854
 30
0.0
 11
116.8804124243818
 21
109.433984960854
 31
0.0
  0
LINE
  5
B7
  8
0
 10
88.880412424381817
 20
109.433984960854
 30
0.0
 11
88.880412424381817
 21
119.433984960854
 31
0.0
  0
LINE
  5
B8
  8
0
 10
116.8804124243818
 20
109.433984960854
 30
0.0
 11
88.880412424381817
 21
109.433984960854
 31
0.0
  0
ARC
  5
B9
  8
0
 10
110.3804124243818
 20
144.93398496085399
 30
0.0
 40
2.5
 50
0.0000000000000763
 51
90.000000000000028
  0
ARC
  5
BA
  8
0
 10
95.380412424381831
 20
144.93398496085399
 30
0.0
 40
2.5
 50
90.000000000000028
 51
180.0
  0
LINE
  5
BB
  8
2
 10
92.880412424381831
 20
139.93398496085399
 30
0.0
 11
112.8804124243818
 21
139.93398496085399
 31
0.0
  0
LINE
  5
BC
  8
2
 10
112.8804124243818
 20
134.43398496085399
 30
0.0
 11
102.8804124243818
 21
135.43398496085399
 31
0.0
  0
LINE
  5
BD
  8
2
 10
102.8804124243818
 20
135.43398496085399
 30
0.0
 11
92.880412424381831
 21
134.43398496085399
 31
0.0
  0
ARC
  5
BE
  8
2
 10
102.8804124243818
 20
187.43398496085399
 30
0.0
 40
44.0
 50
256.86344121305518
 51
283.13655878694487
  0
LINE
  5
BF
  8
1
 10
117.8804124243818
 20
139.43398496085399
 30
0.0
 11
87.880412424381831
 21
139.43398496085399
 31
0.0
  0
ARC
  5
C0
  8
0
 10
102.8804124243818
 20
82.634098591907801
 30
0.0
 40
40.799886368946332
 50
75.812332044958268
 51
104.1876679550418
  0
LINE
  5
C1
  8
2
 10
109.8804124243818
 20
119.433984960854
 30
0.0
 11
95.880412424381831
 21
119.433984960854
 31
0.0
  0
ARC
  5
C2
  8
2
 10
95.880412424381831
 20
115.433984960854
 30
0.0
 40
4.0
 50
90.000000000000028
 51
180.0
  0
ARC
  5
C3
  8
2
 10
109.8804124243818
 20
115.433984960854
 30
0.0
 40
4.0
 50
0.0000000000000763
 51
90.000000000000028
  0
LINE
  5
C4
  8
2
 10
98.48041242438174
 20
119.433984960854
 30
0.0
 11
98.48041242438174
 21
124.433984960854
 31
0.0
  0
LINE
  5
C5
  8
2
 10
107.28041242438189
 20
124.433984960854
 30
0.0
 11
107.28041242438189
 21
119.433984960854
 31
0.0
  0
LINE
  5
C6
  8
2
 10
100.3804124243818
 20
129.43398496085399
 30
0.0
 11
100.3804124243818
 21
132.43398496085399
 31
0.0
  0
LINE
  5
C7
  8
2
 10
105.3804124243818
 20
129.43398496085399
 30
0.0
 11
105.3804124243818
 21
132.43398496085399
 31
0.0
  0
LINE
  5
C8
  8
2
 10
105.3804124243818
 20
132.43398496085399
 30
0.0
 11
100.3804124243818
 21
132.43398496085399
 31
0.0
  0
LINE
  5
C9
  8
2
 10
102.8804124243818
 20
143.43398496085399
 30
0.0
 11
102.8804124243818
 21
135.43398496085399
 31
0.0
  0
LINE
  5
CA
  8
2
 10
199.93571638601361
 20
115.433984960854
 30
0.0
 11
199.93571638601361
 21
109.433984960854
 31
0.0
  0
LINE
  5
CB
  8
2
 10
177.93571638601361
 20
115.433984960854
 30
0.0
 11
177.93571638601361
 21
109.433984960854
 31
0.0
  0
LINE
  5
CC
  8
2
 10
91.880412424381788
 20
115.433984960854
 30
0.0
 11
91.880412424381788
 21
109.433984960854
 31
0.0
  0
LINE
  5
CD
  8
2
 10
113.8804124243818
 20
115.433984960854
 30
0.0
 11
113.8804124243818
 21
109.433984960854
 31
0.0
  0
LINE
  5
CE
  8
2
 10
264.89478870355038
 20
115.433984960854
 30
0.0
 11
264.89478870355038
 21
109.433984960854
 31
0.0
  0
LINE
  5
CF
  8
2
 10
286.89478870355032
 20
115.433984960854
 30
0.0
 11
286.89478870355032
 21
109.433984960854
 31
0.0
  0
TEXT
  5
223
  8
0
 62
     3
 10
0.0
 20
0.0
 30
0.0
 40
10.0
  1
RDG38
  7
STANDARD1
  0
ENDSEC
  0
EOF
