  0
SECTION
  2
HEADER
  9
$ACADVER
  1
AC1009
  9
$INSBASE
 10
0.0
 20
0.0
 30
0.0
  9
$EXTMIN
 10
0.0
 20
-2.960436562073669
 30
0.0
  9
$EXTMAX
 10
124.9277054778503
 20
141.1308250896906
 30
0.0
  9
$LIMMIN
 10
0.0
 20
0.0
  9
$LIMMAX
 10
187.5
 20
135.0
  9
$ORTHOMODE
 70
     1
  9
$REGENMODE
 70
     1
  9
$FILLMODE
 70
     1
  9
$QTEXTMODE
 70
     0
  9
$MIRRTEXT
 70
     0
  9
$DRAGMODE
 70
     2
  9
$LTSCALE
 40
5.0
  9
$OSMODE
 70
    55
  9
$ATTMODE
 70
     1
  9
$TEXTSIZE
 40
0.06
  9
$TRACEWID
 40
0.05
  9
$TEXTSTYLE
  7
STANDARD
  9
$CLAYER
  8
0
  9
$CELTYPE
  6
BYLAYER
  9
$CECOLOR
 62
   256
  9
$DIMSCALE
 40
0.5
  9
$DIMASZ
 40
3.0
  9
$DIMEXO
 40
2.0
  9
$DIMDLI
 40
10.0
  9
$DIMRND
 40
0.0
  9
$DIMDLE
 40
0.0
  9
$DIMEXE
 40
2.0
  9
$DIMTP
 40
0.0
  9
$DIMTM
 40
0.0
  9
$DIMTXT
 40
3.0
  9
$DIMCEN
 40
0.0
  9
$DIMTSZ
 40
0.0
  9
$DIMTOL
 70
     0
  9
$DIMLIM
 70
     0
  9
$DIMTIH
 70
     0
  9
$DIMTOH
 70
     0
  9
$DIMSE1
 70
     0
  9
$DIMSE2
 70
     0
  9
$DIMTAD
 70
     1
  9
$DIMZIN
 70
     8
  9
$DIMBLK
  1

  9
$DIMASO
 70
     0
  9
$DIMSHO
 70
     0
  9
$DIMPOST
  1

  9
$DIMAPOST
  1

  9
$DIMALT
 70
     0
  9
$DIMALTD
 70
     2
  9
$DIMALTF
 40
25.399999999999999
  9
$DIMLFAC
 40
1.0
  9
$DIMTOFL
 70
     1
  9
$DIMTVP
 40
1.6000000000000001
  9
$DIMTIX
 70
     1
  9
$DIMSOXD
 70
     0
  9
$DIMSAH
 70
     0
  9
$DIMBLK1
  1

  9
$DIMBLK2
  1

  9
$DIMSTYLE
  2
STANDARD
  9
$DIMCLRD
 70
     0
  9
$DIMCLRE
 70
     0
  9
$DIMCLRT
 70
     0
  9
$DIMTFAC
 40
1.0
  9
$DIMGAP
 40
0.09
  9
$LUNITS
 70
     2
  9
$LUPREC
 70
     4
  9
$SKETCHINC
 40
0.1
  9
$FILLETRAD
 40
0.4
  9
$AUNITS
 70
     0
  9
$AUPREC
 70
     4
  9
$MENU
  1
E:\r13\win\SUPPORT\ACAD
  9
$ELEVATION
 40
0.0
  9
$PELEVATION
 40
0.0
  9
$THICKNESS
 40
0.0
  9
$LIMCHECK
 70
     0
  9
$BLIPMODE
 70
     0
  9
$CHAMFERA
 40
0.0
  9
$CHAMFERB
 40
0.0
  9
$SKPOLY
 70
     0
  9
$TDCREATE
 40
2449840.5914699072
  9
$TDUPDATE
 40
2456598.5924530909
  9
$TDINDWG
 40
0.1457235301
  9
$TDUSRTIMER
 40
0.1457235301
  9
$USRTIMER
 70
     1
  9
$ANGBASE
 50
0.0
  9
$ANGDIR
 70
     0
  9
$PDMODE
 70
     0
  9
$PDSIZE
 40
0.0
  9
$PLINEWID
 40
0.0
  9
$COORDS
 70
     1
  9
$SPLFRAME
 70
     0
  9
$SPLINETYPE
 70
     6
  9
$SPLINESEGS
 70
     8
  9
$ATTDIA
 70
     0
  9
$ATTREQ
 70
     1
  9
$HANDLING
 70
     1
  9
$HANDSEED
  5
C17
  9
$SURFTAB1
 70
     6
  9
$SURFTAB2
 70
     6
  9
$SURFTYPE
 70
     6
  9
$SURFU
 70
     6
  9
$SURFV
 70
     6
  9
$UCSNAME
  2

  9
$UCSORG
 10
0.0
 20
0.0
 30
0.0
  9
$UCSXDIR
 10
1.0
 20
0.0
 30
0.0
  9
$UCSYDIR
 10
0.0
 20
1.0
 30
0.0
  9
$PUCSNAME
  2

  9
$PUCSORG
 10
0.0
 20
0.0
 30
0.0
  9
$PUCSXDIR
 10
1.0
 20
0.0
 30
0.0
  9
$PUCSYDIR
 10
0.0
 20
1.0
 30
0.0
  9
$USERI1
 70
     3
  9
$USERI2
 70
     1
  9
$USERI3
 70
     0
  9
$USERI4
 70
     0
  9
$USERI5
 70
     0
  9
$USERR1
 40
0.5
  9
$USERR2
 40
3.0
  9
$USERR3
 40
3.0
  9
$USERR4
 40
3.0
  9
$USERR5
 40
10.0
  9
$WORLDVIEW
 70
     1
  9
$SHADEDGE
 70
     3
  9
$SHADEDIF
 70
    70
  9
$TILEMODE
 70
     1
  9
$MAXACTVP
 70
    16
  9
$PLIMCHECK
 70
     0
  9
$PEXTMIN
 10
1.0000000000000000E+020
 20
1.0000000000000000E+020
 30
1.0000000000000000E+020
  9
$PEXTMAX
 10
-1.0000000000000000E+020
 20
-1.0000000000000000E+020
 30
-1.0000000000000000E+020
  9
$PLIMMIN
 10
0.0
 20
0.0
  9
$PLIMMAX
 10
12.0
 20
9.0
  9
$UNITMODE
 70
     0
  9
$VISRETAIN
 70
     0
  9
$PLINEGEN
 70
     0
  9
$PSLTSCALE
 70
     0
  0
ENDSEC
  0
SECTION
  2
TABLES
  0
TABLE
  2
VPORT
 70
     1
  0
VPORT
  2
*ACTIVE
 70
     0
 10
0.0
 20
0.0
 11
1.0
 21
1.0
 12
93.747139195326127
 22
101.4300313941087
 13
0.0
 23
0.0
 14
5.0
 24
5.0
 15
10.0
 25
10.0
 16
0.0
 26
0.0
 36
1.0
 17
0.0
 27
0.0
 37
0.0
 40
210.810861387231
 41
1.7807262569832401
 42
50.0
 43
0.0
 44
0.0
 50
0.0
 51
0.0
 71
     0
 72
   100
 73
     1
 74
     0
 75
     0
 76
     0
 77
     0
 78
     0
  0
ENDTAB
  0
TABLE
  2
LTYPE
 70
     4
  0
LTYPE
  2
CONTINUOUS
 70
     0
  3
Solid Line
 72
    65
 73
     0
 40
0.0
  0
LTYPE
  2
CENTER
 70
     0
  3
____ _ ____ _ ____ _ ____ _ ____ _ ____ _ ____
 72
    65
 73
     4
 40
2.0
 49
1.25
 49
-0.25
 49
0.25
 49
-0.25
  0
LTYPE
  2
HIDDEN
 70
     0
  3
_ _ _ _ _ _ _ _ _ _ _ _ _ _ _ _ _ _ _ _ _ _ _
 72
    65
 73
     2
 40
0.375
 49
0.25
 49
-0.125
  0
LTYPE
  2
PHANTOM2
 70
     0
  3
___ _ _ ___ _ _ ___ _ _ ___ _ _
 72
    65
 73
     6
 40
1.25
 49
0.625
 49
-0.125
 49
0.125
 49
-0.125
 49
0.125
 49
-0.125
  0
ENDTAB
  0
TABLE
  2
LAYER
 70
     4
  0
LAYER
  2
0
 70
     0
 62
     7
  6
CONTINUOUS
  0
LAYER
  2
1
 70
     0
 62
     1
  6
CENTER
  0
LAYER
  2
2
 70
     0
 62
     2
  6
HIDDEN
  0
LAYER
  2
3
 70
     0
 62
     3
  6
CONTINUOUS
  0
ENDTAB
  0
TABLE
  2
STYLE
 70
     2
  0
STYLE
  2
STANDARD
 70
     0
 40
0.0
 41
1.0
 50
0.0
 71
     0
 42
0.06
  3
TXT
  4
BIGFONT
  0
STYLE
  2
STANDARD1
 70
     0
 40
0.0
 41
1.0
 50
0.0
 71
     0
 42
3.0
  3
txt
  4

  0
ENDTAB
  0
TABLE
  2
VIEW
 70
     2
  0
VIEW
  2
OLE1
 70
     0
 40
24.514257897662329
 10
44.901529473115893
 20
103.25177669290009
 41
34.172454060781448
 11
0.0
 21
0.0
 31
1.0
 12
0.0
 22
0.0
 32
0.0
 42
50.0
 43
0.0
 44
0.0
 50
0.0
 71
     0
  0
VIEW
  2
OLE2
 70
     0
 40
111.8251716252055
 10
23.153306359535989
 20
84.753742215946431
 41
155.8823667497492
 11
0.0
 21
0.0
 31
1.0
 12
0.0
 22
0.0
 32
0.0
 42
50.0
 43
0.0
 44
0.0
 50
0.0
 71
     0
  0
ENDTAB
  0
TABLE
  2
UCS
 70
     0
  0
ENDTAB
  0
TABLE
  2
APPID
 70
     3
  0
APPID
  2
ACAD
 70
     0
  0
APPID
  2
ACAD_MLEADERVER
 70
     0
  0
APPID
  2
ACAD_NAV_VCDISPLAY
 70
     0
  0
ENDTAB
  0
TABLE
  2
DIMSTYLE
 70
     1
  0
DIMSTYLE
  2
STANDARD
 70
     0
  3

  4

  5

  6

  7

 40
1.0
 41
0.18
 42
0.0625
 43
0.38
 44
0.18
 45
0.0
 46
0.0
 47
0.0
 48
0.0
140
0.18
141
0.09
142
0.0
143
25.399999999999999
144
1.0
145
0.0
146
1.0
147
0.09
 71
     0
 72
     0
 73
     1
 74
     1
 75
     0
 76
     0
 77
     0
 78
     0
170
     0
171
     2
172
     0
173
     0
174
     0
175
     0
176
     0
177
     0
178
     0
  0
ENDTAB
  0
ENDSEC
  0
SECTION
  2
BLOCKS
  0
BLOCK
  8
0
  2
$MODEL_SPACE
 70
     0
 10
0.0
 20
0.0
 30
0.0
  3
$MODEL_SPACE
  1

  0
ENDBLK
  5
E6
  8
0
  0
BLOCK
 67
     1
  8
0
  2
$PAPER_SPACE
 70
     0
 10
0.0
 20
0.0
 30
0.0
  3
$PAPER_SPACE
  1

  0
ENDBLK
  5
E4
 67
     1
  8
0
  0
ENDSEC
  0
SECTION
  2
ENTITIES
  0
CIRCLE
  5
6D4
  8
0
 10
67.479657467722035
 20
92.214284648264226
 30
0.0
 40
5.1927088306586171
  0
CIRCLE
  5
6D5
  8
0
 10
67.479657467722035
 20
92.214284648264226
 30
0.0
 40
4.0
  0
ARC
  5
6D8
  8
0
 10
67.479657467722035
 20
92.214284648264226
 30
0.0
 40
12.0
 50
338.0941883403126
 51
201.9058116596874
  0
LINE
  5
6D9
  8
0
 10
59.479657467722006
 20
60.214284648264268
 30
0.0
 11
59.479657467722006
 21
56.214284648264261
 31
0.0
  0
LINE
  5
6DA
  8
0
 10
75.479657467722006
 20
56.214284648264261
 30
0.0
 11
75.479657467722006
 21
60.214284648264268
 31
0.0
  0
LINE
  5
6DB
  8
0
 10
73.979657467722006
 20
60.214284648264268
 30
0.0
 11
73.979657467722006
 21
76.214284648264254
 31
0.0
  0
LINE
  5
6DC
  8
0
 10
60.979657467721999
 20
76.214284648264254
 30
0.0
 11
60.979657467721999
 21
60.214284648264268
 31
0.0
  0
LINE
  5
6DD
  8
0
 10
73.979657467722006
 20
76.214284648264254
 30
0.0
 11
78.613238459802005
 21
87.737301926296723
 31
0.0
  0
LINE
  5
6DE
  8
0
 10
56.346076475642057
 20
87.737301926296723
 30
0.0
 11
60.979657467721999
 21
76.214284648264254
 31
0.0
  0
LINE
  5
6DF
  8
2
 10
70.938157467722021
 20
73.41751874227198
 30
0.0
 11
67.479657467722006
 21
75.414284648264257
 31
0.0
  0
LINE
  5
6E0
  8
2
 10
67.479657467722006
 20
75.414284648264257
 30
0.0
 11
64.02115746772202
 21
73.41751874227198
 31
0.0
  0
LINE
  5
6E1
  8
2
 10
70.938157467722021
 20
56.75578464826426
 30
0.0
 11
70.938157467722021
 21
73.41751874227198
 31
0.0
  0
LINE
  5
6E2
  8
2
 10
64.02115746772202
 20
73.41751874227198
 30
0.0
 11
64.021157467721991
 21
56.75578464826426
 31
0.0
  0
LINE
  5
6E3
  8
2
 10
71.479657467722006
 20
56.214284648264261
 30
0.0
 11
70.938157467722021
 21
56.75578464826426
 31
0.0
  0
LINE
  5
6E4
  8
2
 10
64.021157467721991
 20
56.75578464826426
 30
0.0
 11
63.47965746772207
 21
56.214284648264332
 31
0.0
  0
LINE
  5
6E6
  8
0
 10
59.479657467722006
 20
60.214284648264773
 30
0.0
 11
75.479657467722006
 21
60.214284648263749
 31
0.0
  0
LINE
  5
6E7
  8
0
 10
59.479657467722006
 20
56.21428464826478
 30
0.0
 11
75.479657467722006
 21
56.214284648263757
 31
0.0
  0
LINE
  5
6E9
  8
0
 10
77.663302478581556
 20
87.737301926296098
 30
0.0
 11
78.613238459802005
 21
87.737301926296055
 31
0.0
  0
LINE
  5
6EA
  8
0
 10
73.979657467722006
 20
76.21428464826387
 30
0.0
 11
60.979657467721999
 21
76.214284648264666
 31
0.0
  0
LINE
  5
6EB
  8
0
 10
57.296012456862456
 20
87.737301926297334
 30
0.0
 11
56.346076475642057
 21
87.737301926297405
 31
0.0
  0
POLYLINE
  5
6EC
  8
0
 66
     1
 10
0.0
 20
0.0
 30
0.0
  0
VERTEX
  5
ADB
  8
0
 10
72.170073227545458
 20
76.214284648264254
 30
0.0
  0
VERTEX
  5
ADC
  8
0
 10
72.903911150328454
 20
77.57676469454448
 30
0.0
  0
VERTEX
  5
ADD
  8
0
 10
74.546615989600582
 20
80.884738681944228
 30
0.0
  0
VERTEX
  5
ADE
  8
0
 10
76.513557173718766
 20
85.148633916507592
 30
0.0
  0
VERTEX
  5
ADF
  8
0
 10
77.663302478581841
 20
87.737301926297405
 30
0.0
  0
SEQEND
  5
AE0
  8
0
  0
POLYLINE
  5
6ED
  8
0
 66
     1
 10
0.0
 20
0.0
 30
0.0
  0
VERTEX
  5
AE1
  8
0
 10
57.296012456862172
 20
87.737301926297405
 30
0.0
  0
VERTEX
  5
AE2
  8
0
 10
58.445757761725247
 20
85.148633916507592
 30
0.0
  0
VERTEX
  5
AE3
  8
0
 10
60.412698945843431
 20
80.884738681944228
 30
0.0
  0
VERTEX
  5
AE4
  8
0
 10
62.055403785115573
 20
77.57676469454448
 30
0.0
  0
VERTEX
  5
AE5
  8
0
 10
62.789241707898611
 20
76.214284648264254
 30
0.0
  0
SEQEND
  5
AE6
  8
0
  0
ARC
  5
6EF
  8
0
 10
67.479657467722035
 20
92.214284648264226
 30
0.0
 40
11.124297730643489
 50
336.26851937946759
 51
203.73148062053241
  0
LINE
  5
6F1
  8
0
 10
71.35264081392944
 20
60.214284648264268
 30
0.0
 11
71.35264081392944
 21
56.214284648264261
 31
0.0
  0
LINE
  5
6F2
  8
0
 10
63.606674121514573
 20
56.214284648264261
 30
0.0
 11
63.606674121514573
 21
60.214284648264268
 31
0.0
  0
POLYLINE
  5
6F3
  8
0
 66
     1
 10
0.0
 20
0.0
 30
0.0
  0
VERTEX
  5
AE7
  8
0
 10
62.789241707898611
 20
76.214284648264254
 30
0.0
  0
VERTEX
  5
AE8
  8
0
 10
62.995405690561967
 20
75.730218130514984
 30
0.0
  0
VERTEX
  5
AE9
  8
0
 10
63.247265427388982
 20
75.193634997538993
 30
0.0
  0
VERTEX
  5
AEA
  8
0
 10
63.321377874192883
 20
75.046089605678802
 30
0.0
  0
VERTEX
  5
AEB
  8
0
 10
63.396416961310052
 20
74.901166962327764
 30
0.0
  0
VERTEX
  5
AEC
  8
0
 10
63.434278777363943
 20
74.829699286523081
 30
0.0
  0
VERTEX
  5
AED
  8
0
 10
63.47236596686276
 20
74.758899362371508
 30
0.0
  0
VERTEX
  5
AEE
  8
0
 10
63.549207966204847
 20
74.619318509039786
 30
0.0
  0
VERTEX
  5
AEF
  8
0
 10
63.626925835693669
 20
74.48245550684176
 30
0.0
  0
VERTEX
  5
AF0
  8
0
 10
63.705502256505497
 20
74.348340854634628
 30
0.0
  0
VERTEX
  5
AF1
  8
0
 10
63.784919718495189
 20
74.217004438826905
 30
0.0
  0
VERTEX
  5
AF2
  8
0
 10
63.865160524098201
 20
74.088475526718995
 30
0.0
  0
VERTEX
  5
AF3
  8
0
 10
63.905584099987891
 20
74.025272859688485
 30
0.0
  0
VERTEX
  5
AF4
  8
0
 10
63.94620679227404
 20
73.962782759980726
 30
0.0
  0
VERTEX
  5
AF5
  8
0
 10
64.02804046249139
 20
73.839954148269044
 30
0.0
  0
VERTEX
  5
AF6
  8
0
 10
64.110643298752336
 20
73.720017062986145
 30
0.0
  0
VERTEX
  5
AF7
  8
0
 10
64.152227408419947
 20
73.661141220291896
 30
0.0
  0
VERTEX
  5
AF8
  8
0
 10
64.193996893656276
 20
73.602998231179996
 30
0.0
  0
VERTEX
  5
AF9
  8
0
 10
64.278082672502023
 20
73.488923729588478
 30
0.0
  0
VERTEX
  5
AFA
  8
0
 10
64.362881897426675
 20
73.377818978828387
 30
0.0
  0
VERTEX
  5
AFB
  8
0
 10
64.405543152998916
 20
73.323388023147643
 30
0.0
  0
VERTEX
  5
AFC
  8
0
 10
64.448375671581687
 20
73.269708737730483
 30
0.0
  0
VERTEX
  5
AFD
  8
0
 10
64.534544943343292
 20
73.1646170978225
 30
0.0
  0
VERTEX
  5
AFE
  8
0
 10
64.621370510558592
 20
73.062567477960116
 30
0.0
  0
VERTEX
  5
AFF
  8
0
 10
64.708833024824173
 20
72.963582619108664
 30
0.0
  0
VERTEX
  5
B00
  8
0
 10
64.796912995798039
 20
72.867684579275135
 30
0.0
  0
VERTEX
  5
B01
  8
0
 10
64.885590795542697
 20
72.774894728592997
 30
0.0
  0
VERTEX
  5
B02
  8
0
 10
64.930147710925596
 20
72.729671863084789
 30
0.0
  0
VERTEX
  5
B03
  8
0
 10
64.974846662899154
 20
72.685233744559767
 30
0.0
  0
VERTEX
  5
B04
  8
0
 10
65.064660707890482
 20
72.598721607429482
 30
0.0
  0
VERTEX
  5
B05
  8
0
 10
65.155012916154419
 20
72.515377595760015
 30
0.0
  0
VERTEX
  5
B06
  8
0
 10
65.245883153402929
 20
72.435220282117101
 30
0.0
  0
VERTEX
  5
B07
  8
0
 10
65.337251169909393
 20
72.358267528935542
 30
0.0
  0
VERTEX
  5
B08
  8
0
 10
65.429096605020902
 20
72.284536484538705
 30
0.0
  0
VERTEX
  5
B09
  8
0
 10
65.475191962634256
 20
72.248884265777193
 30
0.0
  0
VERTEX
  5
B0A
  8
0
 10
65.521398991695605
 20
72.214043579317391
 30
0.0
  0
VERTEX
  5
B0B
  8
0
 10
65.614137761063375
 20
72.14680452206791
 30
0.0
  0
VERTEX
  5
B0C
  8
0
 10
65.707292247009718
 20
72.082834296492024
 30
0.0
  0
VERTEX
  5
B0D
  8
0
 10
65.800841690780942
 20
72.022147157857674
 30
0.0
  0
VERTEX
  5
B0E
  8
0
 10
65.894765245610017
 20
71.964756629822446
 30
0.0
  0
VERTEX
  5
B0F
  8
0
 10
65.989041981362163
 20
71.91067550141976
 30
0.0
  0
VERTEX
  5
B10
  8
0
 10
66.036306229768854
 20
71.884879757075126
 30
0.0
  0
VERTEX
  5
B11
  8
0
 10
66.083650889198964
 20
71.859915824209125
 30
0.0
  0
VERTEX
  5
B12
  8
0
 10
66.178570886260104
 20
71.8124889095903
 30
0.0
  0
VERTEX
  5
B13
  8
0
 10
66.273780820361424
 20
71.768405326282974
 30
0.0
  0
VERTEX
  5
B14
  8
0
 10
66.369259474708457
 20
71.727674897971283
 30
0.0
  0
VERTEX
  5
B15
  8
0
 10
66.464985572624641
 20
71.690306701114892
 30
0.0
  0
VERTEX
  5
B16
  8
0
 10
66.560937782292513
 20
71.656309062926212
 30
0.0
  0
VERTEX
  5
B17
  8
0
 10
66.608991998932353
 20
71.640576600253794
 30
0.0
  0
VERTEX
  5
B18
  8
0
 10
66.657094721507292
 20
71.625689559514868
 30
0.0
  0
VERTEX
  5
B19
  8
0
 10
66.753434962441816
 20
71.598455014199502
 30
0.0
  0
VERTEX
  5
B1A
  8
0
 10
66.849937036421693
 20
71.574611495986872
 30
0.0
  0
VERTEX
  5
B1B
  8
0
 10
66.946579438709108
 20
71.554164318219946
 30
0.0
  0
VERTEX
  5
B1C
  8
0
 10
67.043340633295287
 20
71.537118037393512
 30
0.0
  0
VERTEX
  5
B1D
  8
0
 10
67.140199057699476
 20
71.52347645213878
 30
0.0
  0
VERTEX
  5
B1E
  8
0
 10
67.188657986752077
 20
71.517933399983022
 30
0.0
  0
VERTEX
  5
B1F
  8
0
 10
67.23713312777403
 20
71.513242602377105
 30
0.0
  0
VERTEX
  5
B20
  8
0
 10
67.334121242514286
 20
71.506418768642462
 30
0.0
  0
VERTEX
  5
B21
  8
0
 10
67.431141788872026
 20
71.503006471573215
 30
0.0
  0
VERTEX
  5
B22
  8
0
 10
67.479657467722006
 20
71.502579916616767
 30
0.0
  0
VERTEX
  5
B23
  8
0
 10
67.528173146572016
 20
71.503006471573215
 30
0.0
  0
VERTEX
  5
B24
  8
0
 10
67.62519369292977
 20
71.506418768642462
 30
0.0
  0
VERTEX
  5
B25
  8
0
 10
67.722181807669983
 20
71.513242602377105
 30
0.0
  0
VERTEX
  5
B26
  8
0
 10
67.770656948691965
 20
71.517933399983022
 30
0.0
  0
VERTEX
  5
B27
  8
0
 10
67.819115877744537
 20
71.52347645213878
 30
0.0
  0
VERTEX
  5
B28
  8
0
 10
67.915974302148754
 20
71.537118037393512
 30
0.0
  0
VERTEX
  5
B29
  8
0
 10
68.012735496734933
 20
71.554164318219946
 30
0.0
  0
VERTEX
  5
B2A
  8
0
 10
68.109377899022377
 20
71.574611495986872
 30
0.0
  0
VERTEX
  5
B2B
  8
0
 10
68.205879973002183
 20
71.598455014199502
 30
0.0
  0
VERTEX
  5
B2C
  8
0
 10
68.302220213936764
 20
71.625689559514868
 30
0.0
  0
VERTEX
  5
B2D
  8
0
 10
68.350322936511702
 20
71.640576600253794
 30
0.0
  0
VERTEX
  5
B2E
  8
0
 10
68.398377153151543
 20
71.656309062926212
 30
0.0
  0
VERTEX
  5
B2F
  8
0
 10
68.494329362819371
 20
71.690306701114892
 30
0.0
  0
VERTEX
  5
B30
  8
0
 10
68.590055460735584
 20
71.727674897971283
 30
0.0
  0
VERTEX
  5
B31
  8
0
 10
68.685534115082646
 20
71.768405326282974
 30
0.0
  0
VERTEX
  5
B32
  8
0
 10
68.780744049183909
 20
71.8124889095903
 30
0.0
  0
VERTEX
  5
B33
  8
0
 10
68.875664046245049
 20
71.859915824209125
 30
0.0
  0
VERTEX
  5
B34
  8
0
 10
68.923008705675215
 20
71.884879757075126
 30
0.0
  0
VERTEX
  5
B35
  8
0
 10
68.970272954081906
 20
71.91067550141976
 30
0.0
  0
VERTEX
  5
B36
  8
0
 10
69.064549689833996
 20
71.964756629822446
 30
0.0
  0
VERTEX
  5
B37
  8
0
 10
69.158473244663071
 20
72.022147157857674
 30
0.0
  0
VERTEX
  5
B38
  8
0
 10
69.252022688434295
 20
72.082834296492024
 30
0.0
  0
VERTEX
  5
B39
  8
0
 10
69.345177174380694
 20
72.14680452206791
 30
0.0
  0
VERTEX
  5
B3A
  8
0
 10
69.437915943748465
 20
72.214043579317391
 30
0.0
  0
VERTEX
  5
B3B
  8
0
 10
69.484122972809814
 20
72.248884265777193
 30
0.0
  0
VERTEX
  5
B3C
  8
0
 10
69.530218330423111
 20
72.284536484538705
 30
0.0
  0
VERTEX
  5
B3D
  8
0
 10
69.622063765534676
 20
72.358267528935542
 30
0.0
  0
VERTEX
  5
B3E
  8
0
 10
69.713431782041141
 20
72.435220282117101
 30
0.0
  0
VERTEX
  5
B3F
  8
0
 10
69.804302019289651
 20
72.515377595760015
 30
0.0
  0
VERTEX
  5
B40
  8
0
 10
69.894654227553531
 20
72.598721607429482
 30
0.0
  0
VERTEX
  5
B41
  8
0
 10
69.984468272544916
 20
72.685233744559767
 30
0.0
  0
VERTEX
  5
B42
  8
0
 10
70.029167224518403
 20
72.729671863084789
 30
0.0
  0
VERTEX
  5
B43
  8
0
 10
70.073724139901344
 20
72.774894728592997
 30
0.0
  0
VERTEX
  5
B44
  8
0
 10
70.162401939645974
 20
72.867684579275135
 30
0.0
  0
VERTEX
  5
B45
  8
0
 10
70.250481910619825
 20
72.963582619108664
 30
0.0
  0
VERTEX
  5
B46
  8
0
 10
70.33794442488545
 20
73.062567477960116
 30
0.0
  0
VERTEX
  5
B47
  8
0
 10
70.424769992100721
 20
73.1646170978225
 30
0.0
  0
VERTEX
  5
B48
  8
0
 10
70.510939263862383
 20
73.269708737730483
 30
0.0
  0
VERTEX
  5
B49
  8
0
 10
70.553771782445097
 20
73.323388023147643
 30
0.0
  0
VERTEX
  5
B4A
  8
0
 10
70.596433038017324
 20
73.377818978828387
 30
0.0
  0
VERTEX
  5
B4B
  8
0
 10
70.681232262942046
 20
73.488923729588478
 30
0.0
  0
VERTEX
  5
B4C
  8
0
 10
70.765318041787737
 20
73.602998231179996
 30
0.0
  0
VERTEX
  5
B4D
  8
0
 10
70.807087527024066
 20
73.661141220291896
 30
0.0
  0
VERTEX
  5
B4E
  8
0
 10
70.848671636691734
 20
73.720017062986145
 30
0.0
  0
VERTEX
  5
B4F
  8
0
 10
70.931274472952651
 20
73.839954148269044
 30
0.0
  0
VERTEX
  5
B50
  8
0
 10
71.013108143169973
 20
73.962782759980726
 30
0.0
  0
VERTEX
  5
B51
  8
0
 10
71.053730835456179
 20
74.025272859688485
 30
0.0
  0
VERTEX
  5
B52
  8
0
 10
71.094154411345855
 20
74.088475526718995
 30
0.0
  0
VERTEX
  5
B53
  8
0
 10
71.174395216948824
 20
74.217004438826905
 30
0.0
  0
VERTEX
  5
B54
  8
0
 10
71.253812678938573
 20
74.348340854634628
 30
0.0
  0
VERTEX
  5
B55
  8
0
 10
71.332389099750372
 20
74.48245550684176
 30
0.0
  0
VERTEX
  5
B56
  8
0
 10
71.410106969239166
 20
74.619318509039786
 30
0.0
  0
VERTEX
  5
B57
  8
0
 10
71.486948968581316
 20
74.758899362371508
 30
0.0
  0
VERTEX
  5
B58
  8
0
 10
71.525036158080127
 20
74.829699286523081
 30
0.0
  0
VERTEX
  5
B59
  8
0
 10
71.562897974133989
 20
74.901166962327764
 30
0.0
  0
VERTEX
  5
B5A
  8
0
 10
71.637937061251165
 20
75.046089605678802
 30
0.0
  0
VERTEX
  5
B5B
  8
0
 10
71.712049508055031
 20
75.193634997538993
 30
0.0
  0
VERTEX
  5
B5C
  8
0
 10
71.963909244882075
 20
75.730218130514984
 30
0.0
  0
VERTEX
  5
B5D
  8
0
 10
72.170073227545458
 20
76.214284648264254
 30
0.0
  0
SEQEND
  5
B5E
  8
0
  0
LINE
  5
6F5
  8
2
 10
70.938157467722021
 20
73.41751874227198
 30
0.0
 11
64.02115746772202
 21
73.41751874227198
 31
0.0
  0
LINE
  5
6F7
  8
2
 10
70.938157467722021
 20
56.75578464826426
 30
0.0
 11
64.021157467721991
 21
56.75578464826426
 31
0.0
  0
CIRCLE
  5
6F8
  8
0
 10
67.479657467722035
 20
92.214284648264226
 30
0.0
 40
6.535612060090469
  0
LINE
  5
6F9
  8
2
 10
71.479657467722006
 20
56.214284648264261
 30
0.0
 11
71.479657467722006
 21
72.214284648264268
 31
0.0
  0
LINE
  5
6FA
  8
2
 10
71.479657467722006
 20
72.214284648264268
 30
0.0
 11
63.479657467721999
 21
72.214284648264268
 31
0.0
  0
LINE
  5
6FB
  8
2
 10
63.479657467721999
 20
56.214284648264261
 30
0.0
 11
63.479657467721999
 21
72.214284648264268
 31
0.0
  0
LINE
  5
6FC
  8
1
 10
67.479657467722006
 20
107.0688998572593
 30
0.0
 11
67.479657467721822
 21
53.359669439269162
 31
0.0
  0
LINE
  5
6FD
  8
1
 10
52.625042258726907
 20
92.214284648264226
 30
0.0
 11
82.334272676717106
 21
92.214284648264226
 31
0.0
  0
POLYLINE
  5
706
  8
0
 66
     1
 10
0.0
 20
0.0
 30
0.0
  0
VERTEX
  5
B5F
  8
0
 10
69.979560187533835
 20
137.70289575917701
 30
0.0
  0
VERTEX
  5
B60
  8
0
 10
69.894654227553559
 20
137.7376112164296
 30
0.0
  0
VERTEX
  5
B61
  8
0
 10
69.804302019289651
 20
137.77298865046521
 30
0.0
  0
VERTEX
  5
B62
  8
0
 10
69.713431782041141
 20
137.8070134114416
 30
0.0
  0
VERTEX
  5
B63
  8
0
 10
69.622063765534676
 20
137.83967791720519
 30
0.0
  0
VERTEX
  5
B64
  8
0
 10
69.530218330423125
 20
137.87097488872439
 30
0.0
  0
VERTEX
  5
B65
  8
0
 10
69.484122972809814
 20
137.88610835773071
 30
0.0
  0
VERTEX
  5
B66
  8
0
 10
69.437915943748465
 20
137.90089735171239
 30
0.0
  0
VERTEX
  5
B67
  8
0
 10
69.345177174380694
 20
137.92943863818039
 30
0.0
  0
VERTEX
  5
B68
  8
0
 10
69.252022688434323
 20
137.9565923879247
 30
0.0
  0
VERTEX
  5
B69
  8
0
 10
69.158473244663099
 20
137.98235254994279
 30
0.0
  0
VERTEX
  5
B6A
  8
0
 10
69.064549689834024
 20
138.00671338378271
 30
0.0
  0
VERTEX
  5
B6B
  8
0
 10
68.970272954081906
 20
138.02966946082179
 30
0.0
  0
VERTEX
  5
B6C
  8
0
 10
68.923008705675215
 20
138.04061910466149
 30
0.0
  0
VERTEX
  5
B6D
  8
0
 10
68.875664046245063
 20
138.05121566547669
 30
0.0
  0
VERTEX
  5
B6E
  8
0
 10
68.780744049183923
 20
138.07134719634291
 30
0.0
  0
VERTEX
  5
B6F
  8
0
 10
68.685534115082646
 20
138.09005956726509
 30
0.0
  0
VERTEX
  5
B70
  8
0
 10
68.590055460735584
 20
138.10734860833679
 30
0.0
  0
VERTEX
  5
B71
  8
0
 10
68.4943293628194
 20
138.12321046682951
 30
0.0
  0
VERTEX
  5
B72
  8
0
 10
68.398377153151543
 20
138.1376416080513
 30
0.0
  0
VERTEX
  5
B73
  8
0
 10
68.350322936511702
 20
138.1443196422527
 30
0.0
  0
VERTEX
  5
B74
  8
0
 10
68.302220213936764
 20
138.1506388161342
 30
0.0
  0
VERTEX
  5
B75
  8
0
 10
68.205879973002226
 20
138.16219919475151
 30
0.0
  0
VERTEX
  5
B76
  8
0
 10
68.109377899022377
 20
138.17232016776259
 30
0.0
  0
VERTEX
  5
B77
  8
0
 10
68.012735496734962
 20
138.1809994797872
 30
0.0
  0
VERTEX
  5
B78
  8
0
 10
67.915974302148754
 20
138.18823519670809
 30
0.0
  0
VERTEX
  5
B79
  8
0
 10
67.819115877744565
 20
138.19402570610191
 30
0.0
  0
VERTEX
  5
B7A
  8
0
 10
67.770656948691965
 20
138.19637859214691
 30
0.0
  0
VERTEX
  5
B7B
  8
0
 10
67.722181807670012
 20
138.19836971759861
 30
0.0
  0
VERTEX
  5
B7C
  8
0
 10
67.62519369292977
 20
138.20126626316889
 30
0.0
  0
VERTEX
  5
B7D
  8
0
 10
67.528173146572044
 20
138.2027146973403
 30
0.0
  0
VERTEX
  5
B7E
  8
0
 10
67.479657467722035
 20
138.2028957591771
 30
0.0
  0
VERTEX
  5
B7F
  8
0
 10
67.431141788872026
 20
138.2027146973403
 30
0.0
  0
VERTEX
  5
B80
  8
0
 10
67.334121242514286
 20
138.20126626316889
 30
0.0
  0
VERTEX
  5
B81
  8
0
 10
67.237133127774086
 20
138.19836971759861
 30
0.0
  0
VERTEX
  5
B82
  8
0
 10
67.188657986752105
 20
138.19637859214691
 30
0.0
  0
VERTEX
  5
B83
  8
0
 10
67.140199057699505
 20
138.19402570610191
 30
0.0
  0
VERTEX
  5
B84
  8
0
 10
67.043340633295315
 20
138.18823519670809
 30
0.0
  0
VERTEX
  5
B85
  8
0
 10
66.946579438709136
 20
138.1809994797872
 30
0.0
  0
VERTEX
  5
B86
  8
0
 10
66.849937036421693
 20
138.17232016776259
 30
0.0
  0
VERTEX
  5
B87
  8
0
 10
66.753434962441844
 20
138.16219919475151
 30
0.0
  0
VERTEX
  5
B88
  8
0
 10
66.657094721507292
 20
138.1506388161342
 30
0.0
  0
VERTEX
  5
B89
  8
0
 10
66.608991998932353
 20
138.1443196422527
 30
0.0
  0
VERTEX
  5
B8A
  8
0
 10
66.560937782292513
 20
138.1376416080513
 30
0.0
  0
VERTEX
  5
B8B
  8
0
 10
66.46498557262467
 20
138.12321046682951
 30
0.0
  0
VERTEX
  5
B8C
  8
0
 10
66.369259474708485
 20
138.10734860833679
 30
0.0
  0
VERTEX
  5
B8D
  8
0
 10
66.273780820361424
 20
138.09005956726509
 30
0.0
  0
VERTEX
  5
B8E
  8
0
 10
66.178570886260133
 20
138.07134719634291
 30
0.0
  0
VERTEX
  5
B8F
  8
0
 10
66.083650889198992
 20
138.05121566547669
 30
0.0
  0
VERTEX
  5
B90
  8
0
 10
66.036306229768854
 20
138.04061910466149
 30
0.0
  0
VERTEX
  5
B91
  8
0
 10
65.989041981362163
 20
138.02966946082179
 30
0.0
  0
VERTEX
  5
B92
  8
0
 10
65.894765245610046
 20
138.00671338378271
 30
0.0
  0
VERTEX
  5
B93
  8
0
 10
65.800841690780999
 20
137.98235254994279
 30
0.0
  0
VERTEX
  5
B94
  8
0
 10
65.707292247009747
 20
137.9565923879247
 30
0.0
  0
VERTEX
  5
B95
  8
0
 10
65.614137761063375
 20
137.92943863818039
 30
0.0
  0
VERTEX
  5
B96
  8
0
 10
65.521398991695605
 20
137.90089735171239
 30
0.0
  0
VERTEX
  5
B97
  8
0
 10
65.475191962634256
 20
137.88610835773071
 30
0.0
  0
VERTEX
  5
B98
  8
0
 10
65.429096605020931
 20
137.87097488872439
 30
0.0
  0
VERTEX
  5
B99
  8
0
 10
65.337251169909393
 20
137.83967791720519
 30
0.0
  0
VERTEX
  5
B9A
  8
0
 10
65.245883153402929
 20
137.8070134114416
 30
0.0
  0
VERTEX
  5
B9B
  8
0
 10
65.155012916154419
 20
137.77298865046521
 30
0.0
  0
VERTEX
  5
B9C
  8
0
 10
65.064660707890511
 20
137.7376112164296
 30
0.0
  0
VERTEX
  5
B9D
  8
0
 10
64.979754747910235
 20
137.70289575917701
 30
0.0
  0
SEQEND
  5
B9E
  8
0
  0
LINE
  5
708
  8
0
 10
71.35264081392944
 20
138.70289575917701
 30
0.0
 11
63.606674121514629
 21
138.70289575917701
 31
0.0
  0
LINE
  5
70C
  8
0
 10
56.355359737078537
 20
136.2028957591771
 30
0.0
 11
78.603955198365554
 21
136.2028957591771
 31
0.0
  0
LINE
  5
713
  8
0
 10
78.603955198365554
 20
127.2028957591771
 30
0.0
 11
56.355359737078523
 21
127.2028957591771
 31
0.0
  0
ARC
  5
71C
  8
0
 10
67.479657467722035
 20
131.70289575917701
 30
0.0
 40
7.9999999999999991
 50
118.95502437185991
 51
145.77113367218689
  0
ARC
  5
71F
  8
0
 10
67.479657467722035
 20
131.70289575917701
 30
0.0
 40
11.999999999999989
 50
337.97568716295791
 51
22.02431283704205
  0
ARC
  5
720
  8
0
 10
67.479657467722035
 20
131.70289575917701
 30
0.0
 40
11.999999999999989
 50
157.97568716295791
 51
202.02431283704209
  0
LINE
  5
722
  8
0
 10
72.672366298380666
 20
137.70289575917701
 30
0.0
 11
62.286948637063411
 21
137.70289575917701
 31
0.0
  0
LINE
  5
724
  8
2
 10
63.479657467722028
 20
137.70289575917701
 30
0.0
 11
63.479657467721999
 21
125.7028957591771
 31
0.0
  0
LINE
  5
725
  8
2
 10
71.479657467722006
 20
125.7028957591771
 30
0.0
 11
71.479657467722035
 21
137.70289575917701
 31
0.0
  0
ARC
  5
727
  8
0
 10
67.479657467722006
 20
131.70289575917701
 30
0.0
 40
7.934999999999981
 50
130.87459852168629
 51
145.4512143466664
  0
POINT
  5
728
  8
0
 10
116.0730902688553
 20
92.214284648264467
 30
0.0
210
1.0
220
-0.0000000000000002
230
0.0000000000000001
  0
POINT
  5
729
  8
0
 10
116.0730902688553
 20
92.214284648264467
 30
0.0
210
-1.0
220
0.0000000000000002
230
0.0000000000000001
  0
LINE
  5
72B
  8
2
 10
112.0730902688553
 20
56.214284648264503
 30
0.0
 11
112.0730902688553
 21
72.214284648264496
 31
0.0
  0
LINE
  5
72C
  8
2
 10
120.0730902688553
 20
72.214284648264496
 30
0.0
 11
112.0730902688553
 21
72.214284648264496
 31
0.0
  0
LINE
  5
72D
  8
2
 10
120.0730902688553
 20
56.214284648264503
 30
0.0
 11
120.0730902688553
 21
72.214284648264496
 31
0.0
  0
LINE
  5
72E
  8
0
 10
120.5730902688553
 20
98.749896708354939
 30
0.0
 11
120.5730902688553
 21
85.678672588173995
 31
0.0
  0
LINE
  5
72F
  8
0
 10
111.5730902688553
 20
98.749896708354939
 30
0.0
 11
111.5730902688553
 21
85.678672588173995
 31
0.0
  0
LINE
  5
730
  8
2
 10
119.5315902688553
 20
56.755784648264481
 30
0.0
 11
112.6145902688553
 21
56.755784648264481
 31
0.0
  0
LINE
  5
731
  8
2
 10
119.5315902688553
 20
73.417518742272193
 30
0.0
 11
112.6145902688553
 21
73.417518742272193
 31
0.0
  0
LINE
  5
736
  8
0
 10
109.0730902688553
 20
60.214284648264488
 30
0.0
 11
109.0730902688553
 21
56.214284648264503
 31
0.0
  0
LINE
  5
73D
  8
0
 10
123.0730902688553
 20
56.214284648264503
 30
0.0
 11
123.0730902688553
 21
60.214284648264488
 31
0.0
  0
LINE
  5
73E
  8
0
 10
111.5730902688553
 20
76.214284648264211
 30
0.0
 11
120.5730902688553
 21
76.214284648264211
 31
0.0
  0
LINE
  5
740
  8
0
 10
109.0730902688553
 20
56.214284648264261
 30
0.0
 11
123.0730902688553
 21
56.214284648264261
 31
0.0
  0
LINE
  5
741
  8
0
 10
109.0730902688553
 20
60.214284648264268
 30
0.0
 11
123.0730902688553
 21
60.214284648264268
 31
0.0
  0
ARC
  5
742
  8
2
 10
116.0730902688553
 20
92.214284648264453
 30
0.0
 40
7.9349999999999961
 50
55.451214346667008
 51
124.5487856533329
  0
ARC
  5
743
  8
2
 10
116.0730902688553
 20
92.214284648264453
 30
0.0
 40
7.9349999999999961
 50
235.45121434666709
 51
304.54878565333303
  0
LINE
  5
744
  8
2
 10
112.6145902688553
 20
56.755784648264481
 30
0.0
 11
112.0730902688553
 21
56.214284648264503
 31
0.0
  0
LINE
  5
745
  8
2
 10
120.0730902688553
 20
56.214284648264503
 30
0.0
 11
119.5315902688553
 21
56.755784648264481
 31
0.0
  0
LINE
  5
746
  8
2
 10
112.6145902688553
 20
73.417518742272193
 30
0.0
 11
112.6145902688553
 21
56.755784648264481
 31
0.0
  0
LINE
  5
747
  8
2
 10
119.5315902688553
 20
56.755784648264481
 30
0.0
 11
119.5315902688553
 21
73.417518742272193
 31
0.0
  0
LINE
  5
748
  8
2
 10
116.0730902688553
 20
75.414284648264484
 30
0.0
 11
112.6145902688553
 21
73.417518742272193
 31
0.0
  0
LINE
  5
749
  8
2
 10
119.5315902688553
 20
73.417518742272193
 30
0.0
 11
116.0730902688553
 21
75.414284648264484
 31
0.0
  0
LINE
  5
74A
  8
0
 10
109.5730902688553
 20
71.502579916616995
 30
0.0
 11
109.5730902688553
 21
60.214284648264488
 31
0.0
  0
LINE
  5
74B
  8
0
 10
122.5730902688553
 20
60.214284648264488
 30
0.0
 11
122.5730902688553
 21
71.502579916616995
 31
0.0
  0
ARC
  5
74C
  8
0
 10
116.0730902688553
 20
92.214284648264453
 30
0.0
 40
12.0
 50
67.975687162957911
 51
112.024312837042
  0
LINE
  5
74D
  8
1
 10
107.2184750598602
 20
92.214284648264496
 30
0.0
 11
124.9277054778503
 21
92.214284648264453
 31
0.0
  0
LINE
  5
752
  8
2
 10
110.0730902688553
 20
88.214284648264496
 30
0.0
 11
122.0730902688553
 21
88.214284648264453
 31
0.0
  0
LINE
  5
753
  8
2
 10
122.0730902688553
 20
96.214284648264467
 30
0.0
 11
110.0730902688553
 21
96.214284648264496
 31
0.0
  0
ARC
  5
754
  8
0
 10
116.0730902688553
 20
92.214284648264396
 30
0.0
 40
7.9349999999999419
 50
304.54878565333303
 51
319.12540147831299
  0
ARC
  5
755
  8
2
 10
116.0730902688553
 20
92.214284648264453
 30
0.0
 40
7.9349999999999943
 50
235.45121434666709
 51
304.54878565333303
  0
ARC
  5
756
  8
0
 10
116.0730902688553
 20
92.214284648264425
 30
0.0
 40
7.9349999999999596
 50
220.87459852168701
 51
235.45121434666709
  0
ARC
  5
757
  8
0
 10
116.0730902688552
 20
92.214284648264538
 30
0.0
 40
7.934999999999885
 50
124.5487856533329
 51
139.12540147831299
  0
ARC
  5
758
  8
2
 10
116.0730902688553
 20
92.214284648264453
 30
0.0
 40
7.9349999999999961
 50
55.451214346667008
 51
124.5487856533329
  0
ARC
  5
759
  8
0
 10
116.0730902688553
 20
92.214284648264425
 30
0.0
 40
7.9350000000000289
 50
40.87459852168697
 51
55.451214346667008
  0
ARC
  5
7DC
  8
0
 10
67.479657467722035
 20
29.334935385820518
 30
0.0
 40
11.999999999999989
 50
157.97568716295791
 51
202.02431283704209
  0
ARC
  5
7DD
  8
0
 10
67.479657467722035
 20
29.334935385820518
 30
0.0
 40
11.999999999999989
 50
337.97568716295791
 51
22.02431283704205
  0
ARC
  5
7E0
  8
0
 10
67.479657467722035
 20
29.334935385820518
 30
0.0
 40
7.9999999999999991
 50
118.95502437185991
 51
241.04497562814001
  0
ARC
  5
7E1
  8
0
 10
67.479657467722035
 20
29.334935385820518
 30
0.0
 40
8.0
 50
298.95502437186002
 51
61.044975628140037
  0
LINE
  5
7E9
  8
0
 10
78.603955198365554
 20
24.834935385820572
 30
0.0
 11
74.09403574538355
 21
24.834935385820579
 31
0.0
  0
LINE
  5
7F0
  8
0
 10
56.355359737078537
 20
33.834935385820572
 30
0.0
 11
60.865279190060591
 21
33.834935385820572
 31
0.0
  0
LINE
  5
7F4
  8
0
 10
71.35264081392944
 20
36.334935385820557
 30
0.0
 11
63.606674121514629
 21
36.334935385820557
 31
0.0
  0
CIRCLE
  5
7F7
  8
0
 10
67.479657467722035
 20
29.334935385820518
 30
0.0
 40
3.458499999999999
  0
LINE
  5
8E0
  8
1
 10
116.0730902688553
 20
107.0688998572593
 30
0.0
 11
116.0730902688551
 21
53.359669439269162
 31
0.0
  0
LINE
  5
91E
  8
0
 10
120.5730902688553
 20
85.678672588173967
 30
0.0
 11
120.5730902688554
 21
76.214284648264211
 31
0.0
  0
LINE
  5
91F
  8
0
 10
111.5730902688553
 20
85.678672588173967
 30
0.0
 11
111.5730902688554
 21
76.214284648264211
 31
0.0
  0
LINE
  5
920
  8
0
 10
120.5730902688553
 20
98.74989670835491
 30
0.0
 11
120.5730902688553
 21
103.3385823789079
 31
0.0
  0
LINE
  5
921
  8
0
 10
111.5730902688553
 20
98.74989670835491
 30
0.0
 11
111.5730902688553
 21
103.3385823789079
 31
0.0
  0
LINE
  5
92A
  8
0
 10
120.5730902688554
 20
76.214284648264211
 30
0.0
 11
122.5730902688553
 21
71.502579916616995
 31
0.0
  0
LINE
  5
92B
  8
0
 10
111.5730902688554
 20
76.214284648264211
 30
0.0
 11
109.5730902688553
 21
71.502579916616995
 31
0.0
  0
LINE
  5
92C
  8
0
 10
122.0730902688553
 20
97.406993478923127
 30
0.0
 11
122.0730902688552
 21
87.021575817605751
 31
0.0
  0
LINE
  5
92D
  8
0
 10
110.0730902688554
 20
97.406993478923155
 30
0.0
 11
110.0730902688554
 21
87.021575817605765
 31
0.0
  0
ARC
  5
99A
  8
0
 10
67.479657467722177
 20
131.70289575917701
 30
0.0
 40
7.9349999999998992
 50
34.548785653333972
 51
49.12540147831421
  0
ARC
  5
99B
  8
0
 10
67.479657467722035
 20
131.70289575917701
 30
0.0
 40
8.0
 50
34.228866327813101
 51
61.044975628140037
  0
ARC
  5
9A4
  8
0
 10
67.479657467722035
 20
131.7028957591771
 30
0.0
 40
8.0
 50
298.95502437186002
 51
325.77113367218692
  0
ARC
  5
9A5
  8
0
 10
67.479657467722177
 20
131.7028957591771
 30
0.0
 40
7.9349999999998992
 50
310.87459852168581
 51
325.45121434666601
  0
ARC
  5
9A6
  8
0
 10
67.479657467722006
 20
131.7028957591771
 30
0.0
 40
7.934999999999981
 50
214.54878565333351
 51
229.12540147831359
  0
LINE
  5
9A7
  8
0
 10
72.672366298380666
 20
125.7028957591771
 30
0.0
 11
62.286948637063411
 21
125.7028957591771
 31
0.0
  0
ARC
  5
9A8
  8
0
 10
67.479657467722035
 20
131.7028957591771
 30
0.0
 40
7.9999999999999991
 50
214.22886632781311
 51
241.04497562814009
  0
LINE
  5
9A9
  8
0
 10
71.35264081392944
 20
124.7028957591771
 30
0.0
 11
63.606674121514629
 21
124.7028957591771
 31
0.0
  0
POLYLINE
  5
9AA
  8
0
 66
     1
 10
0.0
 20
0.0
 30
0.0
  0
VERTEX
  5
B9F
  8
0
 10
69.979560187533835
 20
125.7028957591771
 30
0.0
  0
VERTEX
  5
BA0
  8
0
 10
69.894654227553559
 20
125.66818030192449
 30
0.0
  0
VERTEX
  5
BA1
  8
0
 10
69.804302019289651
 20
125.6328028678889
 30
0.0
  0
VERTEX
  5
BA2
  8
0
 10
69.713431782041141
 20
125.5987781069125
 30
0.0
  0
VERTEX
  5
BA3
  8
0
 10
69.622063765534676
 20
125.5661136011489
 30
0.0
  0
VERTEX
  5
BA4
  8
0
 10
69.530218330423125
 20
125.5348166296297
 30
0.0
  0
VERTEX
  5
BA5
  8
0
 10
69.484122972809814
 20
125.5196831606234
 30
0.0
  0
VERTEX
  5
BA6
  8
0
 10
69.437915943748465
 20
125.50489416664171
 30
0.0
  0
VERTEX
  5
BA7
  8
0
 10
69.345177174380694
 20
125.47635288017371
 30
0.0
  0
VERTEX
  5
BA8
  8
0
 10
69.252022688434323
 20
125.44919913042941
 30
0.0
  0
VERTEX
  5
BA9
  8
0
 10
69.158473244663099
 20
125.4234389684113
 30
0.0
  0
VERTEX
  5
BAA
  8
0
 10
69.064549689834024
 20
125.3990781345714
 30
0.0
  0
VERTEX
  5
BAB
  8
0
 10
68.970272954081906
 20
125.3761220575323
 30
0.0
  0
VERTEX
  5
BAC
  8
0
 10
68.923008705675215
 20
125.3651724136926
 30
0.0
  0
VERTEX
  5
BAD
  8
0
 10
68.875664046245063
 20
125.3545758528774
 30
0.0
  0
VERTEX
  5
BAE
  8
0
 10
68.780744049183923
 20
125.33444432201119
 30
0.0
  0
VERTEX
  5
BAF
  8
0
 10
68.685534115082646
 20
125.31573195108901
 30
0.0
  0
VERTEX
  5
BB0
  8
0
 10
68.590055460735584
 20
125.2984429100173
 30
0.0
  0
VERTEX
  5
BB1
  8
0
 10
68.4943293628194
 20
125.2825810515245
 30
0.0
  0
VERTEX
  5
BB2
  8
0
 10
68.398377153151543
 20
125.2681499103028
 30
0.0
  0
VERTEX
  5
BB3
  8
0
 10
68.350322936511702
 20
125.2614718761014
 30
0.0
  0
VERTEX
  5
BB4
  8
0
 10
68.302220213936764
 20
125.2551527022199
 30
0.0
  0
VERTEX
  5
BB5
  8
0
 10
68.205879973002226
 20
125.2435923236026
 30
0.0
  0
VERTEX
  5
BB6
  8
0
 10
68.109377899022377
 20
125.2334713505915
 30
0.0
  0
VERTEX
  5
BB7
  8
0
 10
68.012735496734962
 20
125.2247920385668
 30
0.0
  0
VERTEX
  5
BB8
  8
0
 10
67.915974302148754
 20
125.217556321646
 30
0.0
  0
VERTEX
  5
BB9
  8
0
 10
67.819115877744565
 20
125.2117658122522
 30
0.0
  0
VERTEX
  5
BBA
  8
0
 10
67.770656948691965
 20
125.20941292620709
 30
0.0
  0
VERTEX
  5
BBB
  8
0
 10
67.722181807670012
 20
125.2074218007555
 30
0.0
  0
VERTEX
  5
BBC
  8
0
 10
67.62519369292977
 20
125.2045252551851
 30
0.0
  0
VERTEX
  5
BBD
  8
0
 10
67.528173146572044
 20
125.20307682101379
 30
0.0
  0
VERTEX
  5
BBE
  8
0
 10
67.479657467722035
 20
125.202895759177
 30
0.0
  0
VERTEX
  5
BBF
  8
0
 10
67.431141788872026
 20
125.20307682101379
 30
0.0
  0
VERTEX
  5
BC0
  8
0
 10
67.334121242514286
 20
125.2045252551851
 30
0.0
  0
VERTEX
  5
BC1
  8
0
 10
67.237133127774086
 20
125.2074218007555
 30
0.0
  0
VERTEX
  5
BC2
  8
0
 10
67.188657986752105
 20
125.20941292620709
 30
0.0
  0
VERTEX
  5
BC3
  8
0
 10
67.140199057699505
 20
125.2117658122522
 30
0.0
  0
VERTEX
  5
BC4
  8
0
 10
67.043340633295315
 20
125.217556321646
 30
0.0
  0
VERTEX
  5
BC5
  8
0
 10
66.946579438709136
 20
125.2247920385668
 30
0.0
  0
VERTEX
  5
BC6
  8
0
 10
66.849937036421693
 20
125.2334713505915
 30
0.0
  0
VERTEX
  5
BC7
  8
0
 10
66.753434962441844
 20
125.2435923236026
 30
0.0
  0
VERTEX
  5
BC8
  8
0
 10
66.657094721507292
 20
125.2551527022199
 30
0.0
  0
VERTEX
  5
BC9
  8
0
 10
66.608991998932353
 20
125.2614718761014
 30
0.0
  0
VERTEX
  5
BCA
  8
0
 10
66.560937782292513
 20
125.2681499103028
 30
0.0
  0
VERTEX
  5
BCB
  8
0
 10
66.46498557262467
 20
125.2825810515245
 30
0.0
  0
VERTEX
  5
BCC
  8
0
 10
66.369259474708485
 20
125.2984429100173
 30
0.0
  0
VERTEX
  5
BCD
  8
0
 10
66.273780820361424
 20
125.31573195108901
 30
0.0
  0
VERTEX
  5
BCE
  8
0
 10
66.178570886260133
 20
125.33444432201119
 30
0.0
  0
VERTEX
  5
BCF
  8
0
 10
66.083650889198992
 20
125.3545758528774
 30
0.0
  0
VERTEX
  5
BD0
  8
0
 10
66.036306229768854
 20
125.3651724136926
 30
0.0
  0
VERTEX
  5
BD1
  8
0
 10
65.989041981362163
 20
125.3761220575323
 30
0.0
  0
VERTEX
  5
BD2
  8
0
 10
65.894765245610046
 20
125.3990781345714
 30
0.0
  0
VERTEX
  5
BD3
  8
0
 10
65.800841690780999
 20
125.4234389684113
 30
0.0
  0
VERTEX
  5
BD4
  8
0
 10
65.707292247009747
 20
125.44919913042941
 30
0.0
  0
VERTEX
  5
BD5
  8
0
 10
65.614137761063375
 20
125.47635288017371
 30
0.0
  0
VERTEX
  5
BD6
  8
0
 10
65.521398991695605
 20
125.50489416664171
 30
0.0
  0
VERTEX
  5
BD7
  8
0
 10
65.475191962634256
 20
125.5196831606234
 30
0.0
  0
VERTEX
  5
BD8
  8
0
 10
65.429096605020931
 20
125.5348166296297
 30
0.0
  0
VERTEX
  5
BD9
  8
0
 10
65.337251169909393
 20
125.5661136011489
 30
0.0
  0
VERTEX
  5
BDA
  8
0
 10
65.245883153402929
 20
125.5987781069125
 30
0.0
  0
VERTEX
  5
BDB
  8
0
 10
65.155012916154419
 20
125.6328028678889
 30
0.0
  0
VERTEX
  5
BDC
  8
0
 10
65.064660707890511
 20
125.66818030192449
 30
0.0
  0
VERTEX
  5
BDD
  8
0
 10
64.979754747910235
 20
125.7028957591771
 30
0.0
  0
SEQEND
  5
BDE
  8
0
  0
LINE
  5
9AB
  8
1
 10
52.625042258726928
 20
131.70289575917701
 30
0.0
 11
82.334272676717134
 21
131.70289575917701
 31
0.0
  0
LINE
  5
9AC
  8
1
 10
67.479657467722006
 20
141.1308250896906
 30
0.0
 11
67.479657467721893
 21
122.2749664286634
 31
0.0
  0
LINE
  5
9B8
  8
1
 10
67.479657467722006
 20
38.762864716334107
 30
0.0
 11
67.479657467721893
 21
19.907006055306919
 31
0.0
  0
LINE
  5
9B9
  8
1
 10
52.625042258726928
 20
29.334935385820518
 30
0.0
 11
82.334272676717134
 21
29.334935385820518
 31
0.0
  0
CIRCLE
  5
9D0
  8
3
 10
67.479657467722035
 20
29.334935385820518
 30
0.0
 40
4.0
  0
LINE
  5
9D1
  8
0
 10
63.606674121514601
 20
22.334935385820518
 30
0.0
 11
71.352640813929455
 21
22.334935385820518
 31
0.0
  0
LINE
  5
9D2
  8
0
 10
74.094035745383479
 20
33.834935385820572
 30
0.0
 11
78.603955198365554
 21
33.834935385820572
 31
0.0
  0
LINE
  5
9D3
  8
0
 10
60.865279190060512
 20
24.834935385820579
 30
0.0
 11
56.355359737078523
 21
24.834935385820572
 31
0.0
  0
TEXT
  5
A78
  8
0
 62
     3
 10
0.0
 20
0.0
 30
0.0
 40
10.0
  1
REJ08-M08
  7
STANDARD1
  0
ENDSEC
  0
EOF
