  0
SECTION
  2
HEADER
  9
$ACADVER
  1
AC1009
  9
$INSBASE
 10
0.0
 20
0.0
 30
0.0
  9
$EXTMIN
 10
0.0
 20
-2.960436562073669
 30
0.0
  9
$EXTMAX
 10
146.77249607109121
 20
165.55751096817221
 30
0.0
  9
$LIMMIN
 10
0.0
 20
0.0
  9
$LIMMAX
 10
187.5
 20
135.0
  9
$ORTHOMODE
 70
     1
  9
$REGENMODE
 70
     1
  9
$FILLMODE
 70
     1
  9
$QTEXTMODE
 70
     0
  9
$MIRRTEXT
 70
     0
  9
$DRAGMODE
 70
     2
  9
$LTSCALE
 40
5.0
  9
$OSMODE
 70
    55
  9
$ATTMODE
 70
     1
  9
$TEXTSIZE
 40
0.06
  9
$TRACEWID
 40
0.05
  9
$TEXTSTYLE
  7
STANDARD
  9
$CLAYER
  8
0
  9
$CELTYPE
  6
BYLAYER
  9
$CECOLOR
 62
   256
  9
$DIMSCALE
 40
0.5
  9
$DIMASZ
 40
3.0
  9
$DIMEXO
 40
2.0
  9
$DIMDLI
 40
10.0
  9
$DIMRND
 40
0.0
  9
$DIMDLE
 40
0.0
  9
$DIMEXE
 40
2.0
  9
$DIMTP
 40
0.0
  9
$DIMTM
 40
0.0
  9
$DIMTXT
 40
3.0
  9
$DIMCEN
 40
0.0
  9
$DIMTSZ
 40
0.0
  9
$DIMTOL
 70
     0
  9
$DIMLIM
 70
     0
  9
$DIMTIH
 70
     0
  9
$DIMTOH
 70
     0
  9
$DIMSE1
 70
     0
  9
$DIMSE2
 70
     0
  9
$DIMTAD
 70
     1
  9
$DIMZIN
 70
     8
  9
$DIMBLK
  1

  9
$DIMASO
 70
     0
  9
$DIMSHO
 70
     0
  9
$DIMPOST
  1

  9
$DIMAPOST
  1

  9
$DIMALT
 70
     0
  9
$DIMALTD
 70
     2
  9
$DIMALTF
 40
25.399999999999999
  9
$DIMLFAC
 40
1.0
  9
$DIMTOFL
 70
     1
  9
$DIMTVP
 40
1.6000000000000001
  9
$DIMTIX
 70
     1
  9
$DIMSOXD
 70
     0
  9
$DIMSAH
 70
     0
  9
$DIMBLK1
  1

  9
$DIMBLK2
  1

  9
$DIMSTYLE
  2
STANDARD
  9
$DIMCLRD
 70
     0
  9
$DIMCLRE
 70
     0
  9
$DIMCLRT
 70
     0
  9
$DIMTFAC
 40
1.0
  9
$DIMGAP
 40
0.09
  9
$LUNITS
 70
     2
  9
$LUPREC
 70
     4
  9
$SKETCHINC
 40
0.1
  9
$FILLETRAD
 40
0.4
  9
$AUNITS
 70
     0
  9
$AUPREC
 70
     4
  9
$MENU
  1
E:\r13\win\SUPPORT\ACAD
  9
$ELEVATION
 40
0.0
  9
$PELEVATION
 40
0.0
  9
$THICKNESS
 40
0.0
  9
$LIMCHECK
 70
     0
  9
$BLIPMODE
 70
     0
  9
$CHAMFERA
 40
0.0
  9
$CHAMFERB
 40
0.0
  9
$SKPOLY
 70
     0
  9
$TDCREATE
 40
2449840.5914699072
  9
$TDUPDATE
 40
2456598.5927024311
  9
$TDINDWG
 40
0.1976542361
  9
$TDUSRTIMER
 40
0.1976542361
  9
$USRTIMER
 70
     1
  9
$ANGBASE
 50
0.0
  9
$ANGDIR
 70
     0
  9
$PDMODE
 70
     0
  9
$PDSIZE
 40
0.0
  9
$PLINEWID
 40
0.0
  9
$COORDS
 70
     1
  9
$SPLFRAME
 70
     0
  9
$SPLINETYPE
 70
     6
  9
$SPLINESEGS
 70
     8
  9
$ATTDIA
 70
     0
  9
$ATTREQ
 70
     1
  9
$HANDLING
 70
     1
  9
$HANDSEED
  5
13B5
  9
$SURFTAB1
 70
     6
  9
$SURFTAB2
 70
     6
  9
$SURFTYPE
 70
     6
  9
$SURFU
 70
     6
  9
$SURFV
 70
     6
  9
$UCSNAME
  2

  9
$UCSORG
 10
0.0
 20
0.0
 30
0.0
  9
$UCSXDIR
 10
1.0
 20
0.0
 30
0.0
  9
$UCSYDIR
 10
0.0
 20
1.0
 30
0.0
  9
$PUCSNAME
  2

  9
$PUCSORG
 10
0.0
 20
0.0
 30
0.0
  9
$PUCSXDIR
 10
1.0
 20
0.0
 30
0.0
  9
$PUCSYDIR
 10
0.0
 20
1.0
 30
0.0
  9
$USERI1
 70
     3
  9
$USERI2
 70
     1
  9
$USERI3
 70
     0
  9
$USERI4
 70
     0
  9
$USERI5
 70
     0
  9
$USERR1
 40
0.5
  9
$USERR2
 40
3.0
  9
$USERR3
 40
3.0
  9
$USERR4
 40
3.0
  9
$USERR5
 40
10.0
  9
$WORLDVIEW
 70
     1
  9
$SHADEDGE
 70
     3
  9
$SHADEDIF
 70
    70
  9
$TILEMODE
 70
     1
  9
$MAXACTVP
 70
    16
  9
$PLIMCHECK
 70
     0
  9
$PEXTMIN
 10
1.0000000000000000E+020
 20
1.0000000000000000E+020
 30
1.0000000000000000E+020
  9
$PEXTMAX
 10
-1.0000000000000000E+020
 20
-1.0000000000000000E+020
 30
-1.0000000000000000E+020
  9
$PLIMMIN
 10
0.0
 20
0.0
  9
$PLIMMAX
 10
12.0
 20
9.0
  9
$UNITMODE
 70
     0
  9
$VISRETAIN
 70
     0
  9
$PLINEGEN
 70
     0
  9
$PSLTSCALE
 70
     0
  0
ENDSEC
  0
SECTION
  2
TABLES
  0
TABLE
  2
VPORT
 70
     1
  0
VPORT
  2
*ACTIVE
 70
     0
 10
0.0
 20
0.0
 11
1.0
 21
1.0
 12
93.747139195326156
 22
119.1280639975904
 13
0.0
 23
0.0
 14
5.0
 24
5.0
 15
10.0
 25
10.0
 16
0.0
 26
0.0
 36
1.0
 17
0.0
 27
0.0
 37
0.0
 40
246.54003262354669
 41
1.7807262569832401
 42
50.0
 43
0.0
 44
0.0
 50
0.0
 51
0.0
 71
     0
 72
   100
 73
     1
 74
     0
 75
     0
 76
     0
 77
     0
 78
     0
  0
ENDTAB
  0
TABLE
  2
LTYPE
 70
     4
  0
LTYPE
  2
CONTINUOUS
 70
     0
  3
Solid Line
 72
    65
 73
     0
 40
0.0
  0
LTYPE
  2
CENTER
 70
     0
  3
____ _ ____ _ ____ _ ____ _ ____ _ ____ _ ____
 72
    65
 73
     4
 40
2.0
 49
1.25
 49
-0.25
 49
0.25
 49
-0.25
  0
LTYPE
  2
HIDDEN
 70
     0
  3
_ _ _ _ _ _ _ _ _ _ _ _ _ _ _ _ _ _ _ _ _ _ _
 72
    65
 73
     2
 40
0.375
 49
0.25
 49
-0.125
  0
LTYPE
  2
PHANTOM2
 70
     0
  3
___ _ _ ___ _ _ ___ _ _ ___ _ _
 72
    65
 73
     6
 40
1.25
 49
0.625
 49
-0.125
 49
0.125
 49
-0.125
 49
0.125
 49
-0.125
  0
ENDTAB
  0
TABLE
  2
LAYER
 70
     4
  0
LAYER
  2
0
 70
     0
 62
     7
  6
CONTINUOUS
  0
LAYER
  2
1
 70
     0
 62
     1
  6
CENTER
  0
LAYER
  2
2
 70
     0
 62
     2
  6
HIDDEN
  0
LAYER
  2
3
 70
     0
 62
     3
  6
CONTINUOUS
  0
ENDTAB
  0
TABLE
  2
STYLE
 70
     2
  0
STYLE
  2
STANDARD
 70
     0
 40
0.0
 41
1.0
 50
0.0
 71
     0
 42
0.06
  3
TXT
  4
BIGFONT
  0
STYLE
  2
STANDARD1
 70
     0
 40
0.0
 41
1.0
 50
0.0
 71
     0
 42
3.0
  3
txt
  4

  0
ENDTAB
  0
TABLE
  2
VIEW
 70
     2
  0
VIEW
  2
OLE1
 70
     0
 40
24.514257897662329
 10
44.901529473115893
 20
103.25177669290009
 41
34.172454060781448
 11
0.0
 21
0.0
 31
1.0
 12
0.0
 22
0.0
 32
0.0
 42
50.0
 43
0.0
 44
0.0
 50
0.0
 71
     0
  0
VIEW
  2
OLE2
 70
     0
 40
111.8251716252055
 10
23.153306359535989
 20
84.753742215946431
 41
155.8823667497492
 11
0.0
 21
0.0
 31
1.0
 12
0.0
 22
0.0
 32
0.0
 42
50.0
 43
0.0
 44
0.0
 50
0.0
 71
     0
  0
ENDTAB
  0
TABLE
  2
UCS
 70
     0
  0
ENDTAB
  0
TABLE
  2
APPID
 70
     3
  0
APPID
  2
ACAD
 70
     0
  0
APPID
  2
ACAD_MLEADERVER
 70
     0
  0
APPID
  2
ACAD_NAV_VCDISPLAY
 70
     0
  0
ENDTAB
  0
TABLE
  2
DIMSTYLE
 70
     1
  0
DIMSTYLE
  2
STANDARD
 70
     0
  3

  4

  5

  6

  7

 40
1.0
 41
0.18
 42
0.0625
 43
0.38
 44
0.18
 45
0.0
 46
0.0
 47
0.0
 48
0.0
140
0.18
141
0.09
142
0.0
143
25.399999999999999
144
1.0
145
0.0
146
1.0
147
0.09
 71
     0
 72
     0
 73
     1
 74
     1
 75
     0
 76
     0
 77
     0
 78
     0
170
     0
171
     2
172
     0
173
     0
174
     0
175
     0
176
     0
177
     0
178
     0
  0
ENDTAB
  0
ENDSEC
  0
SECTION
  2
BLOCKS
  0
BLOCK
  8
0
  2
$MODEL_SPACE
 70
     0
 10
0.0
 20
0.0
 30
0.0
  3
$MODEL_SPACE
  1

  0
ENDBLK
  5
E6
  8
0
  0
BLOCK
 67
     1
  8
0
  2
$PAPER_SPACE
 70
     0
 10
0.0
 20
0.0
 30
0.0
  3
$PAPER_SPACE
  1

  0
ENDBLK
  5
E4
 67
     1
  8
0
  0
ENDSEC
  0
SECTION
  2
ENTITIES
  0
ARC
  5
DFD
  8
0
 10
67.479657467722006
 20
153.2028957591771
 30
0.0
 40
11.109999999999991
 50
133.93957419486969
 51
147.31268469677059
  0
ARC
  5
E02
  8
0
 10
67.479657467722234
 20
153.2028957591773
 30
0.0
 40
11.109999999999751
 50
32.687315303229333
 51
46.060425805130222
  0
LINE
  5
E03
  8
2
 10
73.479657467722006
 20
145.2028957591771
 30
0.0
 11
73.479657467722006
 21
161.2028957591771
 31
0.0
  0
LINE
  5
E04
  8
2
 10
61.479657467721999
 20
161.2028957591771
 30
0.0
 11
61.479657467721999
 21
145.2028957591771
 31
0.0
  0
LINE
  5
E08
  8
0
 10
75.188879218326974
 20
161.2028957591771
 30
0.0
 11
75.031570330373029
 21
161.2028957591771
 31
0.0
  0
LINE
  5
E09
  8
0
 10
59.927744605071041
 20
161.2028957591771
 30
0.0
 11
59.770435717117103
 21
161.2028957591771
 31
0.0
  0
LINE
  5
E0A
  8
0
 10
59.770435717117103
 20
161.2028957591771
 30
0.0
 11
75.188879218326974
 21
161.2028957591771
 31
0.0
  0
ARC
  5
E0C
  8
0
 10
67.479657467722006
 20
153.2028957591771
 30
0.0
 40
16.999999999999972
 50
159.33268350648621
 51
200.66731649351371
  0
ARC
  5
E0D
  8
0
 10
67.479657467722006
 20
153.2028957591771
 30
0.0
 40
16.999999999999989
 50
339.33268350648632
 51
20.667316493513731
  0
ARC
  5
E10
  8
0
 10
67.479657467722006
 20
153.2028957591771
 30
0.0
 40
11.0
 50
120.2726413189089
 51
133.34175822722281
  0
LINE
  5
E19
  8
0
 10
83.385631188308878
 20
147.2028957591771
 30
0.0
 11
51.573683747135192
 21
147.2028957591771
 31
0.0
  0
LINE
  5
E20
  8
0
 10
51.573683747135192
 20
159.2028957591771
 30
0.0
 11
83.385631188308878
 21
159.2028957591771
 31
0.0
  0
LINE
  5
E24
  8
0
 10
73.024925720926717
 20
162.7028957591771
 30
0.0
 11
61.934389214517289
 21
162.7028957591771
 31
0.0
  0
POLYLINE
  5
E26
  8
0
 66
     1
 10
0.0
 20
0.0
 30
0.0
  0
VERTEX
  5
1261
  8
0
 10
71.602643908687014
 20
161.20289575917721
 30
0.0
  0
VERTEX
  5
1262
  8
0
 10
71.596088025509516
 20
161.2063324874153
 30
0.0
  0
VERTEX
  5
1263
  8
0
 10
71.470937476076074
 20
161.2694739615448
 30
0.0
  0
VERTEX
  5
1264
  8
0
 10
71.344818696030416
 20
161.33065859277289
 30
0.0
  0
VERTEX
  5
1265
  8
0
 10
71.217762280084855
 20
161.38987153853481
 30
0.0
  0
VERTEX
  5
1266
  8
0
 10
71.153892081896799
 20
161.4187341217546
 30
0.0
  0
VERTEX
  5
1267
  8
0
 10
71.089799050409511
 20
161.44709843456971
 30
0.0
  0
VERTEX
  5
1268
  8
0
 10
70.96096004915529
 20
161.5023253984057
 30
0.0
  0
VERTEX
  5
1269
  8
0
 10
70.83127653092339
 20
161.55553903272741
 30
0.0
  0
VERTEX
  5
126A
  8
0
 10
70.700779955183407
 20
161.6067264286261
 30
0.0
  0
VERTEX
  5
126B
  8
0
 10
70.569501978641881
 20
161.6558751687308
 30
0.0
  0
VERTEX
  5
126C
  8
0
 10
70.437474447562352
 20
161.70297333022131
 30
0.0
  0
VERTEX
  5
126D
  8
0
 10
70.371189600960065
 20
161.72574985404771
 30
0.0
  0
VERTEX
  5
126E
  8
0
 10
70.304729390040393
 20
161.7480094877198
 30
0.0
  0
VERTEX
  5
126F
  8
0
 10
70.171299008233746
 20
161.79097271606281
 30
0.0
  0
VERTEX
  5
1270
  8
0
 10
70.037215670550495
 20
161.83185259295169
 30
0.0
  0
VERTEX
  5
1271
  8
0
 10
69.902511903797006
 20
161.8706392014804
 30
0.0
  0
VERTEX
  5
1272
  8
0
 10
69.767220385287473
 20
161.90732313254171
 30
0.0
  0
VERTEX
  5
1273
  8
0
 10
69.63137393491661
 20
161.9418954871096
 30
0.0
  0
VERTEX
  5
1274
  8
0
 10
69.563252903528493
 20
161.95838718227191
 30
0.0
  0
VERTEX
  5
1275
  8
0
 10
69.495005507198073
 20
161.97434787839771
 30
0.0
  0
VERTEX
  5
1276
  8
0
 10
69.358148183270373
 20
162.00467243389451
 30
0.0
  0
VERTEX
  5
1277
  8
0
 10
69.220835162871424
 20
162.03286179727229
 30
0.0
  0
VERTEX
  5
1278
  8
0
 10
69.08309975628498
 20
162.0589091301724
 30
0.0
  0
VERTEX
  5
1279
  8
0
 10
68.944975376260118
 20
162.08280811386379
 30
0.0
  0
VERTEX
  5
127A
  8
0
 10
68.806495529905533
 20
162.1045529507758
 30
0.0
  0
VERTEX
  5
127B
  8
0
 10
68.737132801627581
 20
162.11461589530231
 30
0.0
  0
VERTEX
  5
127C
  8
0
 10
68.667693810561104
 20
162.1241383659048
 30
0.0
  0
VERTEX
  5
127D
  8
0
 10
68.528603889649048
 20
162.14155960809359
 30
0.0
  0
VERTEX
  5
127E
  8
0
 10
68.38925950850512
 20
162.15681245118421
 30
0.0
  0
VERTEX
  5
127F
  8
0
 10
68.249694470193788
 20
162.1698931950429
 30
0.0
  0
VERTEX
  5
1280
  8
0
 10
68.109942631308058
 20
162.180798666458
 30
0.0
  0
VERTEX
  5
1281
  8
0
 10
67.970037893756043
 20
162.18952621990951
 30
0.0
  0
VERTEX
  5
1282
  8
0
 10
67.900038792693749
 20
162.1930725951251
 30
0.0
  0
VERTEX
  5
1283
  8
0
 10
67.830014196537263
 20
162.1960737382106
 30
0.0
  0
VERTEX
  5
1284
  8
0
 10
67.689905507508954
 20
162.20043963302211
 30
0.0
  0
VERTEX
  5
1285
  8
0
 10
67.549745815146423
 20
162.2026228452367
 30
0.0
  0
VERTEX
  5
1286
  8
0
 10
67.479657467722006
 20
162.2028957591771
 30
0.0
  0
VERTEX
  5
1287
  8
0
 10
67.409569120297647
 20
162.2026228452367
 30
0.0
  0
VERTEX
  5
1288
  8
0
 10
67.269409427935102
 20
162.20043963302211
 30
0.0
  0
VERTEX
  5
1289
  8
0
 10
67.129300738906807
 20
162.1960737382106
 30
0.0
  0
VERTEX
  5
128A
  8
0
 10
67.059276142750321
 20
162.1930725951251
 30
0.0
  0
VERTEX
  5
128B
  8
0
 10
66.989277041687956
 20
162.18952621990951
 30
0.0
  0
VERTEX
  5
128C
  8
0
 10
66.849372304136011
 20
162.180798666458
 30
0.0
  0
VERTEX
  5
128D
  8
0
 10
66.709620465250282
 20
162.1698931950429
 30
0.0
  0
VERTEX
  5
128E
  8
0
 10
66.570055426938936
 20
162.15681245118421
 30
0.0
  0
VERTEX
  5
128F
  8
0
 10
66.430711045795022
 20
162.14155960809359
 30
0.0
  0
VERTEX
  5
1290
  8
0
 10
66.291621124882965
 20
162.1241383659048
 30
0.0
  0
VERTEX
  5
1291
  8
0
 10
66.222182133816489
 20
162.11461589530231
 30
0.0
  0
VERTEX
  5
1292
  8
0
 10
66.152819405538537
 20
162.1045529507758
 30
0.0
  0
VERTEX
  5
1293
  8
0
 10
66.014339559183895
 20
162.08280811386379
 30
0.0
  0
VERTEX
  5
1294
  8
0
 10
65.87621517915909
 20
162.0589091301724
 30
0.0
  0
VERTEX
  5
1295
  8
0
 10
65.738479772572646
 20
162.03286179727229
 30
0.0
  0
VERTEX
  5
1296
  8
0
 10
65.601166752173697
 20
162.00467243389451
 30
0.0
  0
VERTEX
  5
1297
  8
0
 10
65.464309428245997
 20
161.97434787839771
 30
0.0
  0
VERTEX
  5
1298
  8
0
 10
65.396062031915562
 20
161.95838718227191
 30
0.0
  0
VERTEX
  5
1299
  8
0
 10
65.32794100052746
 20
161.9418954871096
 30
0.0
  0
VERTEX
  5
129A
  8
0
 10
65.192094550156582
 20
161.90732313254171
 30
0.0
  0
VERTEX
  5
129B
  8
0
 10
65.056803031647064
 20
161.8706392014804
 30
0.0
  0
VERTEX
  5
129C
  8
0
 10
64.922099264893575
 20
161.83185259295169
 30
0.0
  0
VERTEX
  5
129D
  8
0
 10
64.788015927210324
 20
161.79097271606281
 30
0.0
  0
VERTEX
  5
129E
  8
0
 10
64.65458554540362
 20
161.7480094877198
 30
0.0
  0
VERTEX
  5
129F
  8
0
 10
64.588125334484005
 20
161.72574985404771
 30
0.0
  0
VERTEX
  5
12A0
  8
0
 10
64.521840487881718
 20
161.70297333022131
 30
0.0
  0
VERTEX
  5
12A1
  8
0
 10
64.389812956802189
 20
161.6558751687308
 30
0.0
  0
VERTEX
  5
12A2
  8
0
 10
64.258534980260606
 20
161.6067264286261
 30
0.0
  0
VERTEX
  5
12A3
  8
0
 10
64.12803840452068
 20
161.55553903272741
 30
0.0
  0
VERTEX
  5
12A4
  8
0
 10
63.99835488628878
 20
161.5023253984057
 30
0.0
  0
VERTEX
  5
12A5
  8
0
 10
63.869515885034559
 20
161.44709843456971
 30
0.0
  0
VERTEX
  5
12A6
  8
0
 10
63.80542285354727
 20
161.4187341217546
 30
0.0
  0
VERTEX
  5
12A7
  8
0
 10
63.741552655359222
 20
161.38987153853481
 30
0.0
  0
VERTEX
  5
12A8
  8
0
 10
63.614496239413597
 20
161.33065859277289
 30
0.0
  0
VERTEX
  5
12A9
  8
0
 10
63.488377459367939
 20
161.2694739615448
 30
0.0
  0
VERTEX
  5
12AA
  8
0
 10
63.363226909934497
 20
161.20633248741541
 30
0.0
  0
VERTEX
  5
12AB
  8
0
 10
63.356671026756899
 20
161.20289575917721
 30
0.0
  0
SEQEND
  5
12AC
  8
0
  0
LINE
  5
E2F
  8
1
 10
47.625042258726907
 20
106.2142846482643
 30
0.0
 11
87.334272676717106
 21
106.2142846482643
 31
0.0
  0
LINE
  5
E30
  8
1
 10
67.479657467722006
 20
126.0688998572594
 30
0.0
 11
67.479657467722006
 21
53.359669439269162
 31
0.0
  0
CIRCLE
  5
E34
  8
0
 10
67.479657467721935
 20
106.2142846482643
 30
0.0
 40
9.3505133548912713
  0
POLYLINE
  5
E38
  8
0
 66
     1
 10
0.0
 20
0.0
 30
0.0
  0
VERTEX
  5
12AD
  8
0
 10
74.187861400221379
 20
84.214284648264297
 30
0.0
  0
VERTEX
  5
12AE
  8
0
 10
73.900285429382052
 20
83.491544565807814
 30
0.0
  0
VERTEX
  5
12AF
  8
0
 10
73.547111569932611
 20
82.689447127068192
 30
0.0
  0
VERTEX
  5
12B0
  8
0
 10
73.442846517836344
 20
82.468721176155356
 30
0.0
  0
VERTEX
  5
12B1
  8
0
 10
73.337134876632774
 20
82.251847663113978
 30
0.0
  0
VERTEX
  5
12B2
  8
0
 10
73.283744585394857
 20
82.144872048459135
 30
0.0
  0
VERTEX
  5
12B3
  8
0
 10
73.230002290537868
 20
82.038879198528576
 30
0.0
  0
VERTEX
  5
12B4
  8
0
 10
73.121474748469836
 20
81.829867445671752
 30
0.0
  0
VERTEX
  5
12B5
  8
0
 10
73.011578577744217
 20
81.624863107971223
 30
0.0
  0
VERTEX
  5
12B6
  8
0
 10
72.900340437687532
 20
81.423915916709916
 30
0.0
  0
VERTEX
  5
12B7
  8
0
 10
72.787787313169815
 20
81.227074618961737
 30
0.0
  0
VERTEX
  5
12B8
  8
0
 10
72.673946508058577
 20
81.034386965766586
 30
0.0
  0
VERTEX
  5
12B9
  8
0
 10
72.616551843336424
 20
80.939615402867474
 30
0.0
  0
VERTEX
  5
12BA
  8
0
 10
72.558845638595344
 20
80.845899700546099
 30
0.0
  0
VERTEX
  5
12BB
  8
0
 10
72.4425126266961
 20
80.661658547764475
 30
0.0
  0
VERTEX
  5
12BC
  8
0
 10
72.324975693178089
 20
80.481708201836554
 30
0.0
  0
VERTEX
  5
12BD
  8
0
 10
72.265764654864824
 20
80.393355764119732
 30
0.0
  0
VERTEX
  5
12BE
  8
0
 10
72.206263350913446
 20
80.306092316285273
 30
0.0
  0
VERTEX
  5
12BF
  8
0
 10
72.086404397912872
 20
80.134853493152136
 30
0.0
  0
VERTEX
  5
12C0
  8
0
 10
71.965427910339088
 20
79.968033272662339
 30
0.0
  0
VERTEX
  5
12C1
  8
0
 10
71.904529751710982
 20
79.8862928269035
 30
0.0
  0
VERTEX
  5
12C2
  8
0
 10
71.843363235453793
 20
79.805672123147843
 30
0.0
  0
VERTEX
  5
12C3
  8
0
 10
71.720239984498107
 20
79.647809431230243
 30
0.0
  0
VERTEX
  5
12C4
  8
0
 10
71.596088025509516
 20
79.494483492265985
 30
0.0
  0
VERTEX
  5
12C5
  8
0
 10
71.470937476076074
 20
79.345731501056591
 30
0.0
  0
VERTEX
  5
12C6
  8
0
 10
71.344818696030345
 20
79.201589542825715
 30
0.0
  0
VERTEX
  5
12C7
  8
0
 10
71.217762280084855
 20
79.062092584465162
 30
0.0
  0
VERTEX
  5
12C8
  8
0
 10
71.153892081896743
 20
78.994096599503038
 30
0.0
  0
VERTEX
  5
12C9
  8
0
 10
71.089799050409511
 20
78.927274466052594
 30
0.0
  0
VERTEX
  5
12CA
  8
0
 10
70.960960049155233
 20
78.797167892642321
 30
0.0
  0
VERTEX
  5
12CB
  8
0
 10
70.831276530923333
 20
78.671804426331434
 30
0.0
  0
VERTEX
  5
12CC
  8
0
 10
70.700779955183407
 20
78.551214478603285
 30
0.0
  0
VERTEX
  5
12CD
  8
0
 10
70.569501978641824
 20
78.435427302950288
 30
0.0
  0
VERTEX
  5
12CE
  8
0
 10
70.437474447562295
 20
78.324470987776962
 30
0.0
  0
VERTEX
  5
12CF
  8
0
 10
70.371189600960008
 20
78.270812860235353
 30
0.0
  0
VERTEX
  5
12D0
  8
0
 10
70.304729390040393
 20
78.218372449586511
 30
0.0
  0
VERTEX
  5
12D1
  8
0
 10
70.171299008233689
 20
78.117157426451101
 30
0.0
  0
VERTEX
  5
12D2
  8
0
 10
70.037215670550438
 20
78.020850471767901
 30
0.0
  0
VERTEX
  5
12D3
  8
0
 10
69.902511903796935
 20
77.929474948303252
 30
0.0
  0
VERTEX
  5
12D4
  8
0
 10
69.76722038528743
 20
77.843053022524686
 30
0.0
  0
VERTEX
  5
12D5
  8
0
 10
69.631373934916553
 20
77.761605659223946
 30
0.0
  0
VERTEX
  5
12D6
  8
0
 10
69.563252903528451
 20
77.722753660159341
 30
0.0
  0
VERTEX
  5
12D7
  8
0
 10
69.495005507198073
 20
77.685152616431125
 30
0.0
  0
VERTEX
  5
12D8
  8
0
 10
69.358148183270316
 20
77.613712440621541
 30
0.0
  0
VERTEX
  5
12D9
  8
0
 10
69.220835162871367
 20
77.547302462216848
 30
0.0
  0
VERTEX
  5
12DA
  8
0
 10
69.08309975628498
 20
77.48593879138069
 30
0.0
  0
VERTEX
  5
12DB
  8
0
 10
68.944975376260118
 20
77.429636314110539
 30
0.0
  0
VERTEX
  5
12DC
  8
0
 10
68.806495529905476
 20
77.378408688626934
 30
0.0
  0
VERTEX
  5
12DD
  8
0
 10
68.737132801627524
 20
77.354701876957094
 30
0.0
  0
VERTEX
  5
12DE
  8
0
 10
68.667693810561047
 20
77.332268342059692
 30
0.0
  0
VERTEX
  5
12DF
  8
0
 10
68.528603889648991
 20
77.291226467433646
 30
0.0
  0
VERTEX
  5
12E0
  8
0
 10
68.389259508505063
 20
77.25529302095309
 30
0.0
  0
VERTEX
  5
12E1
  8
0
 10
68.249694470193731
 20
77.224476719586775
 30
0.0
  0
VERTEX
  5
12E2
  8
0
 10
68.109942631308002
 20
77.198785038953062
 30
0.0
  0
VERTEX
  5
12E3
  8
0
 10
67.970037893756
 20
77.178224211506674
 30
0.0
  0
VERTEX
  5
12E4
  8
0
 10
67.900038792693692
 20
77.169869475064942
 30
0.0
  0
VERTEX
  5
12E5
  8
0
 10
67.830014196537206
 20
77.162799225026546
 30
0.0
  0
VERTEX
  5
12E6
  8
0
 10
67.689905507508911
 20
77.152513821406032
 30
0.0
  0
VERTEX
  5
12E7
  8
0
 10
67.549745815146366
 20
77.147370495745108
 30
0.0
  0
VERTEX
  5
12E8
  8
0
 10
67.479657467722006
 20
77.146727550792974
 30
0.0
  0
VERTEX
  5
12E9
  8
0
 10
67.409569120297576
 20
77.147370495745108
 30
0.0
  0
VERTEX
  5
12EA
  8
0
 10
67.269409427935045
 20
77.152513821406032
 30
0.0
  0
VERTEX
  5
12EB
  8
0
 10
67.129300738906736
 20
77.162799225026546
 30
0.0
  0
VERTEX
  5
12EC
  8
0
 10
67.059276142750264
 20
77.169869475064942
 30
0.0
  0
VERTEX
  5
12ED
  8
0
 10
66.989277041687956
 20
77.178224211506674
 30
0.0
  0
VERTEX
  5
12EE
  8
0
 10
66.849372304135954
 20
77.198785038953062
 30
0.0
  0
VERTEX
  5
12EF
  8
0
 10
66.709620465250225
 20
77.224476719586775
 30
0.0
  0
VERTEX
  5
12F0
  8
0
 10
66.570055426938936
 20
77.25529302095309
 30
0.0
  0
VERTEX
  5
12F1
  8
0
 10
66.430711045794965
 20
77.291226467433646
 30
0.0
  0
VERTEX
  5
12F2
  8
0
 10
66.291621124882909
 20
77.332268342059692
 30
0.0
  0
VERTEX
  5
12F3
  8
0
 10
66.222182133816432
 20
77.354701876957094
 30
0.0
  0
VERTEX
  5
12F4
  8
0
 10
66.152819405538537
 20
77.378408688626934
 30
0.0
  0
VERTEX
  5
12F5
  8
0
 10
66.014339559183895
 20
77.429636314110539
 30
0.0
  0
VERTEX
  5
12F6
  8
0
 10
65.876215179159033
 20
77.48593879138069
 30
0.0
  0
VERTEX
  5
12F7
  8
0
 10
65.738479772572575
 20
77.547302462216848
 30
0.0
  0
VERTEX
  5
12F8
  8
0
 10
65.60116675217364
 20
77.613712440621541
 30
0.0
  0
VERTEX
  5
12F9
  8
0
 10
65.46430942824594
 20
77.685152616431125
 30
0.0
  0
VERTEX
  5
12FA
  8
0
 10
65.396062031915505
 20
77.722753660159341
 30
0.0
  0
VERTEX
  5
12FB
  8
0
 10
65.32794100052746
 20
77.761605659223946
 30
0.0
  0
VERTEX
  5
12FC
  8
0
 10
65.192094550156582
 20
77.843053022524686
 30
0.0
  0
VERTEX
  5
12FD
  8
0
 10
65.056803031647007
 20
77.929474948303252
 30
0.0
  0
VERTEX
  5
12FE
  8
0
 10
64.922099264893504
 20
78.020850471767901
 30
0.0
  0
VERTEX
  5
12FF
  8
0
 10
64.788015927210253
 20
78.117157426451101
 30
0.0
  0
VERTEX
  5
1300
  8
0
 10
64.65458554540362
 20
78.218372449586511
 30
0.0
  0
VERTEX
  5
1301
  8
0
 10
64.588125334483934
 20
78.270812860235296
 30
0.0
  0
VERTEX
  5
1302
  8
0
 10
64.521840487881661
 20
78.324470987776962
 30
0.0
  0
VERTEX
  5
1303
  8
0
 10
64.389812956802132
 20
78.435427302950288
 30
0.0
  0
VERTEX
  5
1304
  8
0
 10
64.258534980260606
 20
78.551214478603285
 30
0.0
  0
VERTEX
  5
1305
  8
0
 10
64.128038404520623
 20
78.671804426331434
 30
0.0
  0
VERTEX
  5
1306
  8
0
 10
63.998354886288723
 20
78.797167892642321
 30
0.0
  0
VERTEX
  5
1307
  8
0
 10
63.869515885034502
 20
78.927274466052594
 30
0.0
  0
VERTEX
  5
1308
  8
0
 10
63.805422853547213
 20
78.994096599503038
 30
0.0
  0
VERTEX
  5
1309
  8
0
 10
63.74155265535915
 20
79.062092584465162
 30
0.0
  0
VERTEX
  5
130A
  8
0
 10
63.614496239413597
 20
79.201589542825715
 30
0.0
  0
VERTEX
  5
130B
  8
0
 10
63.488377459367939
 20
79.345731501056591
 30
0.0
  0
VERTEX
  5
130C
  8
0
 10
63.36322690993444
 20
79.494483492265985
 30
0.0
  0
VERTEX
  5
130D
  8
0
 10
63.239074950945849
 20
79.647809431230243
 30
0.0
  0
VERTEX
  5
130E
  8
0
 10
63.115951699990148
 20
79.805672123147843
 30
0.0
  0
VERTEX
  5
130F
  8
0
 10
63.054785183733031
 20
79.8862928269035
 30
0.0
  0
VERTEX
  5
1310
  8
0
 10
62.993887025104868
 20
79.968033272662339
 30
0.0
  0
VERTEX
  5
1311
  8
0
 10
62.872910537531141
 20
80.134853493152079
 30
0.0
  0
VERTEX
  5
1312
  8
0
 10
62.75305158453051
 20
80.306092316285273
 30
0.0
  0
VERTEX
  5
1313
  8
0
 10
62.693550280579132
 20
80.393355764119732
 30
0.0
  0
VERTEX
  5
1314
  8
0
 10
62.634339242265931
 20
80.481708201836497
 30
0.0
  0
VERTEX
  5
1315
  8
0
 10
62.516802308747863
 20
80.661658547764475
 30
0.0
  0
VERTEX
  5
1316
  8
0
 10
62.400469296848598
 20
80.845899700546042
 30
0.0
  0
VERTEX
  5
1317
  8
0
 10
62.342763092107532
 20
80.939615402867474
 30
0.0
  0
VERTEX
  5
1318
  8
0
 10
62.285368427385379
 20
81.034386965766586
 30
0.0
  0
VERTEX
  5
1319
  8
0
 10
62.171527622274198
 20
81.227074618961737
 30
0.0
  0
VERTEX
  5
131A
  8
0
 10
62.058974497756481
 20
81.423915916709845
 30
0.0
  0
VERTEX
  5
131B
  8
0
 10
61.947736357699739
 20
81.624863107971223
 30
0.0
  0
VERTEX
  5
131C
  8
0
 10
61.837840186974177
 20
81.829867445671752
 30
0.0
  0
VERTEX
  5
131D
  8
0
 10
61.729312644906088
 20
82.038879198528576
 30
0.0
  0
VERTEX
  5
131E
  8
0
 10
61.675570350049149
 20
82.144872048459135
 30
0.0
  0
VERTEX
  5
131F
  8
0
 10
61.622180058811182
 20
82.251847663113935
 30
0.0
  0
VERTEX
  5
1320
  8
0
 10
61.516468417607598
 20
82.468721176155356
 30
0.0
  0
VERTEX
  5
1321
  8
0
 10
61.412203365511402
 20
82.689447127068192
 30
0.0
  0
VERTEX
  5
1322
  8
0
 10
61.059029506061961
 20
83.491544565807743
 30
0.0
  0
VERTEX
  5
1323
  8
0
 10
60.771453535222633
 20
84.214284648264297
 30
0.0
  0
SEQEND
  5
1324
  8
0
  0
LINE
  5
E3A
  8
0
 10
61.934389214517289
 20
56.21428464826429
 30
0.0
 11
61.934389214517289
 21
61.76984020381984
 31
0.0
  0
LINE
  5
E3B
  8
0
 10
73.02492572092666
 20
61.76984020381984
 30
0.0
 11
73.02492572092666
 21
56.21428464826429
 31
0.0
  0
POLYLINE
  5
E3C
  8
0
 66
     1
 10
0.0
 20
0.0
 30
0.0
  0
VERTEX
  5
1325
  8
0
 10
81.88033747169203
 20
99.459995979332803
 30
0.0
  0
VERTEX
  5
1326
  8
0
 10
80.263762669984544
 20
96.044956799684925
 30
0.0
  0
VERTEX
  5
1327
  8
0
 10
77.504834461590406
 20
90.412462944616365
 30
0.0
  0
VERTEX
  5
1328
  8
0
 10
75.209564514006331
 20
86.028046070272623
 30
0.0
  0
VERTEX
  5
1329
  8
0
 10
74.187861400221379
 20
84.214284648264297
 30
0.0
  0
SEQEND
  5
132A
  8
0
  0
ARC
  5
E3D
  8
0
 10
67.479657467721935
 20
106.2142846482643
 30
0.0
 40
15.905973720586861
 50
334.87221681932721
 51
205.12778318067271
  0
POLYLINE
  5
E3E
  8
0
 66
     1
 10
0.0
 20
0.0
 30
0.0
  0
VERTEX
  5
132B
  8
0
 10
60.771453535222633
 20
84.214284648264297
 30
0.0
  0
VERTEX
  5
132C
  8
0
 10
59.749750421437682
 20
86.028046070272623
 30
0.0
  0
VERTEX
  5
132D
  8
0
 10
57.454480473853607
 20
90.412462944616365
 30
0.0
  0
VERTEX
  5
132E
  8
0
 10
54.695552265459412
 20
96.044956799684925
 30
0.0
  0
VERTEX
  5
132F
  8
0
 10
53.078977463751933
 20
99.459995979332803
 30
0.0
  0
SEQEND
  5
1330
  8
0
  0
LINE
  5
E41
  8
0
 10
53.078977463752551
 20
99.459995979332675
 30
0.0
 11
51.879029769557917
 21
99.459995979332803
 31
0.0
  0
LINE
  5
E42
  8
0
 10
76.479657467722006
 20
84.214284648263501
 30
0.0
 11
58.479657467721999
 21
84.214284648265036
 31
0.0
  0
LINE
  5
E43
  8
0
 10
81.880337471691405
 20
99.459995979330174
 30
0.0
 11
83.080285165886096
 21
99.45999597933006
 31
0.0
  0
LINE
  5
E45
  8
0
 10
56.479657467721999
 20
56.214284648265213
 30
0.0
 11
78.479657467722006
 21
56.21428464826333
 31
0.0
  0
LINE
  5
E46
  8
0
 10
56.479657467721999
 20
61.769840203820749
 30
0.0
 11
78.479657467722006
 21
61.76984020381893
 31
0.0
  0
LINE
  5
E4E
  8
0
 10
51.879029769557917
 20
99.459995979331424
 30
0.0
 11
58.479657467721999
 21
84.214284648264297
 31
0.0
  0
LINE
  5
E4F
  8
0
 10
76.479657467722006
 20
84.214284648264297
 30
0.0
 11
83.080285165886096
 21
99.459995979331424
 31
0.0
  0
LINE
  5
E50
  8
0
 10
58.479657467721999
 20
84.214284648264297
 30
0.0
 11
58.479657467721999
 21
61.76984020381984
 31
0.0
  0
LINE
  5
E51
  8
0
 10
76.479657467722006
 20
61.76984020381984
 30
0.0
 11
76.479657467722006
 21
84.214284648264297
 31
0.0
  0
LINE
  5
E52
  8
0
 10
78.479657467722006
 20
56.21428464826429
 30
0.0
 11
78.479657467722006
 21
61.76984020381984
 31
0.0
  0
LINE
  5
E53
  8
0
 10
56.479657467721999
 20
61.76984020381984
 30
0.0
 11
56.479657467721999
 21
56.21428464826429
 31
0.0
  0
ARC
  5
E54
  8
0
 10
67.479657467722006
 20
106.2142846482643
 30
0.0
 40
16.999999999999989
 50
336.58981049757642
 51
203.41018950242349
  0
CIRCLE
  5
E57
  8
0
 10
67.479657467721935
 20
106.2142846482643
 30
0.0
 40
6.0
  0
CIRCLE
  5
E58
  8
0
 10
67.479657467722006
 20
106.2142846482643
 30
0.0
 40
7.7092217506049252
  0
LINE
  5
E60
  8
0
 10
141.9178808620961
 20
115.564798003156
 30
0.0
 11
141.9178808620961
 21
96.86377129337346
 31
0.0
  0
LINE
  5
E61
  8
0
 10
129.9178808620961
 20
115.564798003156
 30
0.0
 11
129.9178808620961
 21
96.86377129337346
 31
0.0
  0
LINE
  5
E68
  8
0
 10
126.4178808620961
 20
61.769840203820287
 30
0.0
 11
126.4178808620961
 21
56.214284648264751
 31
0.0
  0
LINE
  5
E6F
  8
0
 10
145.4178808620961
 20
56.214284648264751
 30
0.0
 11
145.4178808620961
 21
61.769840203820287
 31
0.0
  0
LINE
  5
E70
  8
0
 10
129.9178808620961
 20
84.214284648264169
 30
0.0
 11
141.9178808620961
 21
84.214284648264169
 31
0.0
  0
LINE
  5
E72
  8
0
 10
126.4178808620961
 20
56.21428464826429
 30
0.0
 11
145.4178808620961
 21
56.21428464826429
 31
0.0
  0
LINE
  5
E73
  8
0
 10
126.4178808620961
 20
61.76984020381984
 30
0.0
 11
145.4178808620961
 21
61.76984020381984
 31
0.0
  0
ARC
  5
E74
  8
2
 10
135.91788086209601
 20
106.21428464826469
 30
0.0
 40
11.109999999999991
 50
57.312684696769949
 51
122.68731530322999
  0
ARC
  5
E75
  8
2
 10
135.91788086209601
 20
106.21428464826469
 30
0.0
 40
11.109999999999991
 50
237.31268469676931
 51
302.68731530322998
  0
LINE
  5
E7C
  8
0
 10
126.9178808620961
 20
77.1467275507935
 30
0.0
 11
126.9178808620961
 21
61.769840203820287
 31
0.0
  0
LINE
  5
E7D
  8
0
 10
144.9178808620961
 20
61.769840203820287
 30
0.0
 11
144.9178808620961
 21
77.1467275507935
 31
0.0
  0
ARC
  5
E7E
  8
0
 10
135.91788086209601
 20
106.21428464826469
 30
0.0
 40
16.999999999999989
 50
69.332683506487584
 51
110.6673164935124
  0
LINE
  5
E82
  8
0
 10
127.9178808620961
 20
98.50506289765984
 30
0.0
 11
127.9178808620961
 21
113.92350639886961
 31
0.0
  0
LINE
  5
E83
  8
0
 10
143.9178808620961
 20
98.50506289765984
 30
0.0
 11
143.9178808620961
 21
113.92350639886961
 31
0.0
  0
LINE
  5
E84
  8
2
 10
127.9178808620961
 20
100.21428464826469
 30
0.0
 11
143.9178808620961
 21
100.21428464826469
 31
0.0
  0
LINE
  5
E85
  8
2
 10
143.9178808620961
 20
112.21428464826469
 30
0.0
 11
127.9178808620961
 21
112.21428464826469
 31
0.0
  0
ARC
  5
E86
  8
0
 10
135.91788086209581
 20
106.21428464826499
 30
0.0
 40
11.11000000000039
 50
302.68731530323072
 51
316.06042580512963
  0
ARC
  5
E88
  8
0
 10
135.91788086209621
 20
106.21428464826479
 30
0.0
 40
11.11000000000011
 50
223.9395741948704
 51
237.31268469676931
  0
ARC
  5
E89
  8
0
 10
135.9178808620959
 20
106.21428464826499
 30
0.0
 40
11.10999999999971
 50
122.68731530322999
 51
136.06042580513019
  0
ARC
  5
E8B
  8
0
 10
135.91788086209601
 20
106.21428464826469
 30
0.0
 40
11.110000000000049
 50
43.939574194870339
 51
57.312684696769949
  0
CIRCLE
  5
E94
  8
0
 10
67.479657467722006
 20
26.280244248675771
 30
0.0
 40
5.3234999999999948
  0
LINE
  5
E97
  8
0
 10
73.024925720926717
 20
35.780244248675771
 30
0.0
 11
61.934389214517289
 21
35.780244248675771
 31
0.0
  0
LINE
  5
E9B
  8
0
 10
51.573683747135192
 20
32.280244248675771
 30
0.0
 11
58.129144112830737
 21
32.280244248675771
 31
0.0
  0
LINE
  5
EA2
  8
0
 10
83.385631188308878
 20
20.280244248675771
 30
0.0
 11
76.830170822613326
 21
20.280244248675771
 31
0.0
  0
LINE
  5
EA6
  8
0
 10
61.934389214517289
 20
16.780244248675771
 30
0.0
 11
73.024925720926717
 21
16.780244248675771
 31
0.0
  0
ARC
  5
EAA
  8
0
 10
67.479657467722006
 20
26.280244248675771
 30
0.0
 40
10.999999999999989
 50
300.27264131890888
 51
59.727358681090372
  0
ARC
  5
EAB
  8
0
 10
67.479657467722006
 20
26.280244248675771
 30
0.0
 40
11.0
 50
120.2726413189089
 51
239.72735868109041
  0
ARC
  5
EAC
  8
0
 10
67.479657467722006
 20
26.280244248675771
 30
0.0
 40
11.109999999999999
 50
327.3126846967707
 51
32.687315303229333
  0
ARC
  5
EAD
  8
0
 10
67.479657467722006
 20
26.280244248675771
 30
0.0
 40
11.109999999999999
 50
147.31268469677059
 51
212.68731530322941
  0
ARC
  5
EAE
  8
0
 10
67.479657467722006
 20
26.280244248675771
 30
0.0
 40
16.999999999999989
 50
339.33268350648632
 51
20.667316493513731
  0
ARC
  5
EAF
  8
0
 10
67.479657467722006
 20
26.280244248675771
 30
0.0
 40
16.999999999999972
 50
159.33268350648621
 51
200.66731649351371
  0
LINE
  5
EB2
  8
0
 10
59.92982303245126
 20
34.280244248675771
 30
0.0
 11
59.770435717117103
 21
34.280244248675771
 31
0.0
  0
LINE
  5
EB3
  8
0
 10
75.188879218326974
 20
34.280244248675771
 30
0.0
 11
75.029491902992746
 21
34.280244248675771
 31
0.0
  0
LINE
  5
EB5
  8
0
 10
75.029491902992746
 20
18.280244248675771
 30
0.0
 11
75.188879218326974
 21
18.280244248675771
 31
0.0
  0
LINE
  5
EB6
  8
0
 10
59.770435717117103
 20
18.280244248675771
 30
0.0
 11
59.927744605071041
 21
18.280244248675771
 31
0.0
  0
ARC
  5
EB9
  8
0
 10
67.479657467722234
 20
26.280244248675942
 30
0.0
 40
11.109999999999751
 50
32.687315303229333
 51
46.060425805130222
  0
ARC
  5
EBB
  8
0
 10
67.479657467722006
 20
26.280244248675832
 30
0.0
 40
11.11000000000009
 50
313.93957419486969
 51
327.3126846967707
  0
ARC
  5
EBC
  8
0
 10
67.479657467721893
 20
26.280244248675661
 30
0.0
 40
11.109999999999831
 50
212.68731530322941
 51
226.06042580513011
  0
ARC
  5
EBE
  8
0
 10
67.479657467722006
 20
26.280244248675771
 30
0.0
 40
11.109999999999991
 50
133.93957419486969
 51
147.31268469677059
  0
LINE
  5
FA1
  8
1
 10
135.9178808620961
 20
126.06889985725979
 30
0.0
 11
135.9178808620961
 21
53.359669439269609
 31
0.0
  0
LINE
  5
FA2
  8
1
 10
125.063265653101
 20
106.21428464826469
 30
0.0
 11
146.77249607109121
 21
106.21428464826469
 31
0.0
  0
LINE
  5
FA5
  8
0
 10
141.91788086209601
 20
122.12025836885159
 30
0.0
 11
141.9178808620961
 21
115.564798003156
 31
0.0
  0
LINE
  5
FA6
  8
0
 10
129.9178808620961
 20
122.12025836885159
 30
0.0
 11
129.9178808620961
 21
115.564798003156
 31
0.0
  0
LINE
  5
FA7
  8
0
 10
141.91788086209601
 20
96.863771293373475
 30
0.0
 11
141.9178808620961
 21
84.214284648264737
 31
0.0
  0
LINE
  5
FA8
  8
0
 10
129.9178808620961
 20
96.863771293373446
 30
0.0
 11
129.9178808620961
 21
84.214284648264737
 31
0.0
  0
LINE
  5
FAA
  8
0
 10
129.9178808620961
 20
84.214284648264737
 30
0.0
 11
126.9178808620961
 21
77.1467275507935
 31
0.0
  0
LINE
  5
FAB
  8
0
 10
141.9178808620961
 20
84.214284648264169
 30
0.0
 11
144.9178808620961
 21
77.1467275507935
 31
0.0
  0
ARC
  5
FF0
  8
0
 10
67.479657467722006
 20
153.2028957591771
 30
0.0
 40
10.999999999999989
 50
46.658241772777188
 51
59.727358681090372
  0
ARC
  5
1029
  8
0
 10
67.479657467722006
 20
153.2028957591771
 30
0.0
 40
10.999999999999989
 50
300.27264131890962
 51
313.34175822722278
  0
POLYLINE
  5
102A
  8
0
 66
     1
 10
0.0
 20
0.0
 30
0.0
  0
VERTEX
  5
1331
  8
0
 10
71.602643908687014
 20
145.20289575917701
 30
0.0
  0
VERTEX
  5
1332
  8
0
 10
71.596088025509516
 20
145.1994590309389
 30
0.0
  0
VERTEX
  5
1333
  8
0
 10
71.470937476076074
 20
145.13631755680939
 30
0.0
  0
VERTEX
  5
1334
  8
0
 10
71.344818696030416
 20
145.0751329255813
 30
0.0
  0
VERTEX
  5
1335
  8
0
 10
71.217762280084855
 20
145.01591997981939
 30
0.0
  0
VERTEX
  5
1336
  8
0
 10
71.153892081896799
 20
144.9870573965996
 30
0.0
  0
VERTEX
  5
1337
  8
0
 10
71.089799050409511
 20
144.95869308378451
 30
0.0
  0
VERTEX
  5
1338
  8
0
 10
70.96096004915529
 20
144.90346611994849
 30
0.0
  0
VERTEX
  5
1339
  8
0
 10
70.83127653092339
 20
144.85025248562681
 30
0.0
  0
VERTEX
  5
133A
  8
0
 10
70.700779955183407
 20
144.79906508972809
 30
0.0
  0
VERTEX
  5
133B
  8
0
 10
70.569501978641881
 20
144.74991634962339
 30
0.0
  0
VERTEX
  5
133C
  8
0
 10
70.437474447562352
 20
144.70281818813291
 30
0.0
  0
VERTEX
  5
133D
  8
0
 10
70.371189600960065
 20
144.68004166430649
 30
0.0
  0
VERTEX
  5
133E
  8
0
 10
70.304729390040393
 20
144.65778203063439
 30
0.0
  0
VERTEX
  5
133F
  8
0
 10
70.171299008233746
 20
144.61481880229141
 30
0.0
  0
VERTEX
  5
1340
  8
0
 10
70.037215670550495
 20
144.5739389254025
 30
0.0
  0
VERTEX
  5
1341
  8
0
 10
69.902511903797006
 20
144.53515231687379
 30
0.0
  0
VERTEX
  5
1342
  8
0
 10
69.767220385287473
 20
144.49846838581249
 30
0.0
  0
VERTEX
  5
1343
  8
0
 10
69.63137393491661
 20
144.46389603124459
 30
0.0
  0
VERTEX
  5
1344
  8
0
 10
69.563252903528493
 20
144.44740433608229
 30
0.0
  0
VERTEX
  5
1345
  8
0
 10
69.495005507198073
 20
144.43144363995651
 30
0.0
  0
VERTEX
  5
1346
  8
0
 10
69.358148183270373
 20
144.40111908445971
 30
0.0
  0
VERTEX
  5
1347
  8
0
 10
69.220835162871424
 20
144.3729297210819
 30
0.0
  0
VERTEX
  5
1348
  8
0
 10
69.08309975628498
 20
144.3468823881818
 30
0.0
  0
VERTEX
  5
1349
  8
0
 10
68.944975376260118
 20
144.3229834044904
 30
0.0
  0
VERTEX
  5
134A
  8
0
 10
68.806495529905533
 20
144.30123856757839
 30
0.0
  0
VERTEX
  5
134B
  8
0
 10
68.737132801627581
 20
144.29117562305191
 30
0.0
  0
VERTEX
  5
134C
  8
0
 10
68.667693810561104
 20
144.28165315244939
 30
0.0
  0
VERTEX
  5
134D
  8
0
 10
68.528603889649048
 20
144.26423191026061
 30
0.0
  0
VERTEX
  5
134E
  8
0
 10
68.38925950850512
 20
144.24897906717001
 30
0.0
  0
VERTEX
  5
134F
  8
0
 10
68.249694470193788
 20
144.23589832331129
 30
0.0
  0
VERTEX
  5
1350
  8
0
 10
68.109942631308058
 20
144.22499285189619
 30
0.0
  0
VERTEX
  5
1351
  8
0
 10
67.970037893756043
 20
144.21626529844471
 30
0.0
  0
VERTEX
  5
1352
  8
0
 10
67.900038792693749
 20
144.21271892322909
 30
0.0
  0
VERTEX
  5
1353
  8
0
 10
67.830014196537263
 20
144.20971778014359
 30
0.0
  0
VERTEX
  5
1354
  8
0
 10
67.689905507508954
 20
144.20535188533211
 30
0.0
  0
VERTEX
  5
1355
  8
0
 10
67.549745815146423
 20
144.20316867311749
 30
0.0
  0
VERTEX
  5
1356
  8
0
 10
67.479657467722006
 20
144.2028957591771
 30
0.0
  0
VERTEX
  5
1357
  8
0
 10
67.409569120297647
 20
144.20316867311749
 30
0.0
  0
VERTEX
  5
1358
  8
0
 10
67.269409427935102
 20
144.20535188533211
 30
0.0
  0
VERTEX
  5
1359
  8
0
 10
67.129300738906807
 20
144.20971778014359
 30
0.0
  0
VERTEX
  5
135A
  8
0
 10
67.059276142750321
 20
144.21271892322909
 30
0.0
  0
VERTEX
  5
135B
  8
0
 10
66.989277041687956
 20
144.21626529844471
 30
0.0
  0
VERTEX
  5
135C
  8
0
 10
66.849372304136011
 20
144.22499285189619
 30
0.0
  0
VERTEX
  5
135D
  8
0
 10
66.709620465250282
 20
144.23589832331129
 30
0.0
  0
VERTEX
  5
135E
  8
0
 10
66.570055426938936
 20
144.24897906717001
 30
0.0
  0
VERTEX
  5
135F
  8
0
 10
66.430711045795022
 20
144.26423191026061
 30
0.0
  0
VERTEX
  5
1360
  8
0
 10
66.291621124882965
 20
144.28165315244939
 30
0.0
  0
VERTEX
  5
1361
  8
0
 10
66.222182133816489
 20
144.29117562305191
 30
0.0
  0
VERTEX
  5
1362
  8
0
 10
66.152819405538537
 20
144.30123856757839
 30
0.0
  0
VERTEX
  5
1363
  8
0
 10
66.014339559183895
 20
144.3229834044904
 30
0.0
  0
VERTEX
  5
1364
  8
0
 10
65.87621517915909
 20
144.3468823881818
 30
0.0
  0
VERTEX
  5
1365
  8
0
 10
65.738479772572646
 20
144.3729297210819
 30
0.0
  0
VERTEX
  5
1366
  8
0
 10
65.601166752173697
 20
144.40111908445971
 30
0.0
  0
VERTEX
  5
1367
  8
0
 10
65.464309428245997
 20
144.43144363995651
 30
0.0
  0
VERTEX
  5
1368
  8
0
 10
65.396062031915562
 20
144.44740433608229
 30
0.0
  0
VERTEX
  5
1369
  8
0
 10
65.32794100052746
 20
144.46389603124459
 30
0.0
  0
VERTEX
  5
136A
  8
0
 10
65.192094550156582
 20
144.49846838581249
 30
0.0
  0
VERTEX
  5
136B
  8
0
 10
65.056803031647064
 20
144.53515231687379
 30
0.0
  0
VERTEX
  5
136C
  8
0
 10
64.922099264893575
 20
144.5739389254025
 30
0.0
  0
VERTEX
  5
136D
  8
0
 10
64.788015927210324
 20
144.61481880229141
 30
0.0
  0
VERTEX
  5
136E
  8
0
 10
64.65458554540362
 20
144.65778203063439
 30
0.0
  0
VERTEX
  5
136F
  8
0
 10
64.588125334484005
 20
144.68004166430649
 30
0.0
  0
VERTEX
  5
1370
  8
0
 10
64.521840487881718
 20
144.70281818813291
 30
0.0
  0
VERTEX
  5
1371
  8
0
 10
64.389812956802189
 20
144.74991634962339
 30
0.0
  0
VERTEX
  5
1372
  8
0
 10
64.258534980260606
 20
144.79906508972809
 30
0.0
  0
VERTEX
  5
1373
  8
0
 10
64.12803840452068
 20
144.85025248562681
 30
0.0
  0
VERTEX
  5
1374
  8
0
 10
63.99835488628878
 20
144.90346611994849
 30
0.0
  0
VERTEX
  5
1375
  8
0
 10
63.869515885034559
 20
144.95869308378451
 30
0.0
  0
VERTEX
  5
1376
  8
0
 10
63.80542285354727
 20
144.9870573965996
 30
0.0
  0
VERTEX
  5
1377
  8
0
 10
63.741552655359222
 20
145.01591997981939
 30
0.0
  0
VERTEX
  5
1378
  8
0
 10
63.614496239413597
 20
145.0751329255813
 30
0.0
  0
VERTEX
  5
1379
  8
0
 10
63.488377459367939
 20
145.13631755680939
 30
0.0
  0
VERTEX
  5
137A
  8
0
 10
63.363226909934497
 20
145.19945903093881
 30
0.0
  0
VERTEX
  5
137B
  8
0
 10
63.356671026756899
 20
145.20289575917701
 30
0.0
  0
SEQEND
  5
137C
  8
0
  0
LINE
  5
102B
  8
0
 10
73.024925720926717
 20
143.7028957591771
 30
0.0
 11
61.934389214517289
 21
143.7028957591771
 31
0.0
  0
ARC
  5
102C
  8
0
 10
67.479657467722006
 20
153.2028957591771
 30
0.0
 40
11.0
 50
226.65824177277719
 51
239.72735868109109
  0
LINE
  5
102D
  8
0
 10
59.770435717117103
 20
145.2028957591771
 30
0.0
 11
75.188879218326974
 21
145.2028957591771
 31
0.0
  0
LINE
  5
102E
  8
0
 10
59.927744605071041
 20
145.2028957591771
 30
0.0
 11
59.770435717117103
 21
145.2028957591771
 31
0.0
  0
LINE
  5
102F
  8
0
 10
75.188879218326974
 20
145.2028957591771
 30
0.0
 11
75.031570330373029
 21
145.2028957591771
 31
0.0
  0
ARC
  5
1030
  8
0
 10
67.479657467722234
 20
153.2028957591769
 30
0.0
 40
11.109999999999751
 50
313.93957419486981
 51
327.3126846967707
  0
ARC
  5
1031
  8
0
 10
67.479657467722006
 20
153.2028957591771
 30
0.0
 40
11.109999999999991
 50
212.68731530322941
 51
226.06042580513019
  0
LINE
  5
103A
  8
1
 10
47.625042258726957
 20
153.2028957591771
 30
0.0
 11
87.334272676717163
 21
153.2028957591771
 31
0.0
  0
LINE
  5
103D
  8
1
 10
67.479657467722063
 20
165.55751096817221
 30
0.0
 11
67.479657467722063
 21
140.84828055018201
 31
0.0
  0
LINE
  5
104E
  8
1
 10
67.479657467722006
 20
38.634859457670863
 30
0.0
 11
67.479657467722006
 21
13.925629039680681
 31
0.0
  0
LINE
  5
104F
  8
1
 10
47.625042258726907
 20
26.280244248675771
 30
0.0
 11
87.334272676717106
 21
26.280244248675771
 31
0.0
  0
CIRCLE
  5
1072
  8
3
 10
67.479657467722006
 20
26.280244248675771
 30
0.0
 40
6.0000000000000071
  0
LINE
  5
107D
  8
0
 10
76.830170822613326
 20
32.280244248675771
 30
0.0
 11
83.385631188308878
 21
32.280244248675771
 31
0.0
  0
LINE
  5
107E
  8
0
 10
58.129144112830737
 20
20.280244248675771
 30
0.0
 11
51.573683747135192
 21
20.280244248675771
 31
0.0
  0
LINE
  5
1125
  8
2
 10
141.9178808620961
 20
56.21428464826429
 30
0.0
 11
141.24138086209609
 21
56.890784648264273
 31
0.0
  0
LINE
  5
1126
  8
2
 10
130.5943808620961
 20
56.890784648264273
 30
0.0
 11
129.91788086209641
 21
56.214284648264581
 31
0.0
  0
LINE
  5
1127
  8
2
 10
141.24138086209609
 20
56.890784648264273
 30
0.0
 11
130.5943808620961
 21
56.890784648264273
 31
0.0
  0
LINE
  5
1128
  8
2
 10
141.24138086209609
 20
56.890784648264273
 30
0.0
 11
141.24138086209609
 21
79.540760490233296
 31
0.0
  0
LINE
  5
1129
  8
2
 10
141.9178808620961
 20
56.21428464826429
 30
0.0
 11
141.9178808620961
 21
78.214284648264268
 31
0.0
  0
LINE
  5
112A
  8
2
 10
130.5943808620961
 20
79.540760490233296
 30
0.0
 11
130.5943808620961
 21
56.890784648264273
 31
0.0
  0
LINE
  5
112B
  8
2
 10
129.9178808620961
 20
56.21428464826429
 30
0.0
 11
129.9178808620961
 21
78.214284648264268
 31
0.0
  0
LINE
  5
112C
  8
2
 10
141.24138086209609
 20
79.540760490233296
 30
0.0
 11
130.5943808620961
 21
79.540760490233296
 31
0.0
  0
LINE
  5
112D
  8
2
 10
141.9178808620961
 20
78.214284648264268
 30
0.0
 11
129.9178808620961
 21
78.214284648264268
 31
0.0
  0
LINE
  5
112E
  8
2
 10
135.9178808620961
 20
82.614284648264274
 30
0.0
 11
130.5943808620961
 21
79.540760490233296
 31
0.0
  0
LINE
  5
112F
  8
2
 10
141.24138086209609
 20
79.540760490233296
 30
0.0
 11
135.9178808620961
 21
82.614284648264274
 31
0.0
  0
LINE
  5
1130
  8
2
 10
72.803157467722031
 20
79.540760490233311
 30
0.0
 11
67.479657467722006
 21
82.614284648264274
 31
0.0
  0
LINE
  5
1131
  8
2
 10
67.479657467722006
 20
82.614284648264274
 30
0.0
 11
62.156157467722039
 21
79.540760490233311
 31
0.0
  0
LINE
  5
1132
  8
2
 10
73.479657467722006
 20
78.214284648264282
 30
0.0
 11
61.479657467721999
 21
78.214284648264282
 31
0.0
  0
LINE
  5
1133
  8
2
 10
72.803157467722031
 20
79.540760490233311
 30
0.0
 11
62.156157467722039
 21
79.540760490233311
 31
0.0
  0
LINE
  5
1134
  8
2
 10
61.479657467721999
 20
56.214284648264297
 30
0.0
 11
61.479657467721999
 21
78.214284648264282
 31
0.0
  0
LINE
  5
1135
  8
2
 10
62.156157467722039
 20
79.540760490233311
 30
0.0
 11
62.156157467722011
 21
56.89078464826428
 31
0.0
  0
LINE
  5
1136
  8
2
 10
73.479657467722006
 20
56.214284648264297
 30
0.0
 11
73.479657467722006
 21
78.214284648264282
 31
0.0
  0
LINE
  5
1137
  8
2
 10
72.803157467722002
 20
56.89078464826428
 30
0.0
 11
72.803157467722031
 21
79.540760490233311
 31
0.0
  0
LINE
  5
1138
  8
2
 10
72.803157467722002
 20
56.89078464826428
 30
0.0
 11
62.156157467722011
 21
56.89078464826428
 31
0.0
  0
LINE
  5
1139
  8
2
 10
62.156157467721982
 20
56.89078464826428
 30
0.0
 11
61.479657467722291
 21
56.214284648264581
 31
0.0
  0
LINE
  5
113A
  8
2
 10
73.479657467722006
 20
56.214284648264297
 30
0.0
 11
72.803157467722002
 21
56.89078464826428
 31
0.0
  0
TEXT
  5
11FE
  8
0
 62
     3
 10
0.0
 20
0.0
 30
0.0
 40
10.0
  1
REJ12-M12F
  7
STANDARD1
  0
ENDSEC
  0
EOF
