  0
SECTION
  2
HEADER
  9
$ACADVER
  1
AC1009
  9
$INSBASE
 10
0.0
 20
0.0
 30
0.0
  9
$EXTMIN
 10
0.0
 20
-2.960436562073669
 30
0.0
  9
$EXTMAX
 10
151.7492909940772
 20
188.08683850878299
 30
0.0
  9
$LIMMIN
 10
0.0
 20
0.0
  9
$LIMMAX
 10
187.5
 20
135.0
  9
$ORTHOMODE
 70
     1
  9
$REGENMODE
 70
     1
  9
$FILLMODE
 70
     1
  9
$QTEXTMODE
 70
     0
  9
$MIRRTEXT
 70
     0
  9
$DRAGMODE
 70
     2
  9
$LTSCALE
 40
5.0
  9
$OSMODE
 70
    55
  9
$ATTMODE
 70
     1
  9
$TEXTSIZE
 40
0.06
  9
$TRACEWID
 40
0.05
  9
$TEXTSTYLE
  7
STANDARD
  9
$CLAYER
  8
0
  9
$CELTYPE
  6
BYLAYER
  9
$CECOLOR
 62
   256
  9
$DIMSCALE
 40
0.5
  9
$DIMASZ
 40
3.0
  9
$DIMEXO
 40
2.0
  9
$DIMDLI
 40
10.0
  9
$DIMRND
 40
0.0
  9
$DIMDLE
 40
0.0
  9
$DIMEXE
 40
2.0
  9
$DIMTP
 40
0.0
  9
$DIMTM
 40
0.0
  9
$DIMTXT
 40
3.0
  9
$DIMCEN
 40
0.0
  9
$DIMTSZ
 40
0.0
  9
$DIMTOL
 70
     0
  9
$DIMLIM
 70
     0
  9
$DIMTIH
 70
     0
  9
$DIMTOH
 70
     0
  9
$DIMSE1
 70
     0
  9
$DIMSE2
 70
     0
  9
$DIMTAD
 70
     1
  9
$DIMZIN
 70
     8
  9
$DIMBLK
  1

  9
$DIMASO
 70
     0
  9
$DIMSHO
 70
     0
  9
$DIMPOST
  1

  9
$DIMAPOST
  1

  9
$DIMALT
 70
     0
  9
$DIMALTD
 70
     2
  9
$DIMALTF
 40
25.399999999999999
  9
$DIMLFAC
 40
1.0
  9
$DIMTOFL
 70
     1
  9
$DIMTVP
 40
1.6000000000000001
  9
$DIMTIX
 70
     1
  9
$DIMSOXD
 70
     0
  9
$DIMSAH
 70
     0
  9
$DIMBLK1
  1

  9
$DIMBLK2
  1

  9
$DIMSTYLE
  2
STANDARD
  9
$DIMCLRD
 70
     0
  9
$DIMCLRE
 70
     0
  9
$DIMCLRT
 70
     0
  9
$DIMTFAC
 40
1.0
  9
$DIMGAP
 40
0.09
  9
$LUNITS
 70
     2
  9
$LUPREC
 70
     4
  9
$SKETCHINC
 40
0.1
  9
$FILLETRAD
 40
0.4
  9
$AUNITS
 70
     0
  9
$AUPREC
 70
     4
  9
$MENU
  1
E:\r13\win\SUPPORT\ACAD
  9
$ELEVATION
 40
0.0
  9
$PELEVATION
 40
0.0
  9
$THICKNESS
 40
0.0
  9
$LIMCHECK
 70
     0
  9
$BLIPMODE
 70
     0
  9
$CHAMFERA
 40
0.0
  9
$CHAMFERB
 40
0.0
  9
$SKPOLY
 70
     0
  9
$TDCREATE
 40
2449840.5914699072
  9
$TDUPDATE
 40
2456598.5928062499
  9
$TDINDWG
 40
0.2205448495
  9
$TDUSRTIMER
 40
0.2205448495
  9
$USRTIMER
 70
     1
  9
$ANGBASE
 50
0.0
  9
$ANGDIR
 70
     0
  9
$PDMODE
 70
     0
  9
$PDSIZE
 40
0.0
  9
$PLINEWID
 40
0.0
  9
$COORDS
 70
     1
  9
$SPLFRAME
 70
     0
  9
$SPLINETYPE
 70
     6
  9
$SPLINESEGS
 70
     8
  9
$ATTDIA
 70
     0
  9
$ATTREQ
 70
     1
  9
$HANDLING
 70
     1
  9
$HANDSEED
  5
160C
  9
$SURFTAB1
 70
     6
  9
$SURFTAB2
 70
     6
  9
$SURFTYPE
 70
     6
  9
$SURFU
 70
     6
  9
$SURFV
 70
     6
  9
$UCSNAME
  2

  9
$UCSORG
 10
0.0
 20
0.0
 30
0.0
  9
$UCSXDIR
 10
1.0
 20
0.0
 30
0.0
  9
$UCSYDIR
 10
0.0
 20
1.0
 30
0.0
  9
$PUCSNAME
  2

  9
$PUCSORG
 10
0.0
 20
0.0
 30
0.0
  9
$PUCSXDIR
 10
1.0
 20
0.0
 30
0.0
  9
$PUCSYDIR
 10
0.0
 20
1.0
 30
0.0
  9
$USERI1
 70
     3
  9
$USERI2
 70
     1
  9
$USERI3
 70
     0
  9
$USERI4
 70
     0
  9
$USERI5
 70
     0
  9
$USERR1
 40
0.5
  9
$USERR2
 40
3.0
  9
$USERR3
 40
3.0
  9
$USERR4
 40
3.0
  9
$USERR5
 40
10.0
  9
$WORLDVIEW
 70
     1
  9
$SHADEDGE
 70
     3
  9
$SHADEDIF
 70
    70
  9
$TILEMODE
 70
     1
  9
$MAXACTVP
 70
    16
  9
$PLIMCHECK
 70
     0
  9
$PEXTMIN
 10
1.0000000000000000E+020
 20
1.0000000000000000E+020
 30
1.0000000000000000E+020
  9
$PEXTMAX
 10
-1.0000000000000000E+020
 20
-1.0000000000000000E+020
 30
-1.0000000000000000E+020
  9
$PLIMMIN
 10
0.0
 20
0.0
  9
$PLIMMAX
 10
12.0
 20
9.0
  9
$UNITMODE
 70
     0
  9
$VISRETAIN
 70
     0
  9
$PLINEGEN
 70
     0
  9
$PSLTSCALE
 70
     0
  0
ENDSEC
  0
SECTION
  2
TABLES
  0
TABLE
  2
VPORT
 70
     1
  0
VPORT
  2
*ACTIVE
 70
     0
 10
0.0
 20
0.0
 11
1.0
 21
1.0
 12
93.747139195326156
 22
135.44990920934021
 13
0.0
 23
0.0
 14
5.0
 24
5.0
 15
10.0
 25
10.0
 16
0.0
 26
0.0
 36
1.0
 17
0.0
 27
0.0
 37
0.0
 40
279.50178353355602
 41
1.7807262569832401
 42
50.0
 43
0.0
 44
0.0
 50
0.0
 51
0.0
 71
     0
 72
   100
 73
     1
 74
     0
 75
     0
 76
     0
 77
     0
 78
     0
  0
ENDTAB
  0
TABLE
  2
LTYPE
 70
     4
  0
LTYPE
  2
CONTINUOUS
 70
     0
  3
Solid Line
 72
    65
 73
     0
 40
0.0
  0
LTYPE
  2
CENTER
 70
     0
  3
____ _ ____ _ ____ _ ____ _ ____ _ ____ _ ____
 72
    65
 73
     4
 40
2.0
 49
1.25
 49
-0.25
 49
0.25
 49
-0.25
  0
LTYPE
  2
HIDDEN
 70
     0
  3
_ _ _ _ _ _ _ _ _ _ _ _ _ _ _ _ _ _ _ _ _ _ _
 72
    65
 73
     2
 40
0.375
 49
0.25
 49
-0.125
  0
LTYPE
  2
PHANTOM2
 70
     0
  3
___ _ _ ___ _ _ ___ _ _ ___ _ _
 72
    65
 73
     6
 40
1.25
 49
0.625
 49
-0.125
 49
0.125
 49
-0.125
 49
0.125
 49
-0.125
  0
ENDTAB
  0
TABLE
  2
LAYER
 70
     4
  0
LAYER
  2
0
 70
     0
 62
     7
  6
CONTINUOUS
  0
LAYER
  2
1
 70
     0
 62
     1
  6
CENTER
  0
LAYER
  2
2
 70
     0
 62
     2
  6
HIDDEN
  0
LAYER
  2
3
 70
     0
 62
     3
  6
CONTINUOUS
  0
ENDTAB
  0
TABLE
  2
STYLE
 70
     2
  0
STYLE
  2
STANDARD
 70
     0
 40
0.0
 41
1.0
 50
0.0
 71
     0
 42
0.06
  3
TXT
  4
BIGFONT
  0
STYLE
  2
STANDARD1
 70
     0
 40
0.0
 41
1.0
 50
0.0
 71
     0
 42
3.0
  3
txt
  4

  0
ENDTAB
  0
TABLE
  2
VIEW
 70
     2
  0
VIEW
  2
OLE1
 70
     0
 40
24.514257897662329
 10
44.901529473115893
 20
103.25177669290009
 41
34.172454060781448
 11
0.0
 21
0.0
 31
1.0
 12
0.0
 22
0.0
 32
0.0
 42
50.0
 43
0.0
 44
0.0
 50
0.0
 71
     0
  0
VIEW
  2
OLE2
 70
     0
 40
111.8251716252055
 10
23.153306359535989
 20
84.753742215946431
 41
155.8823667497492
 11
0.0
 21
0.0
 31
1.0
 12
0.0
 22
0.0
 32
0.0
 42
50.0
 43
0.0
 44
0.0
 50
0.0
 71
     0
  0
ENDTAB
  0
TABLE
  2
UCS
 70
     0
  0
ENDTAB
  0
TABLE
  2
APPID
 70
     3
  0
APPID
  2
ACAD
 70
     0
  0
APPID
  2
ACAD_MLEADERVER
 70
     0
  0
APPID
  2
ACAD_NAV_VCDISPLAY
 70
     0
  0
ENDTAB
  0
TABLE
  2
DIMSTYLE
 70
     1
  0
DIMSTYLE
  2
STANDARD
 70
     0
  3

  4

  5

  6

  7

 40
1.0
 41
0.18
 42
0.0625
 43
0.38
 44
0.18
 45
0.0
 46
0.0
 47
0.0
 48
0.0
140
0.18
141
0.09
142
0.0
143
25.399999999999999
144
1.0
145
0.0
146
1.0
147
0.09
 71
     0
 72
     0
 73
     1
 74
     1
 75
     0
 76
     0
 77
     0
 78
     0
170
     0
171
     2
172
     0
173
     0
174
     0
175
     0
176
     0
177
     0
178
     0
  0
ENDTAB
  0
ENDSEC
  0
SECTION
  2
BLOCKS
  0
BLOCK
  8
0
  2
$MODEL_SPACE
 70
     0
 10
0.0
 20
0.0
 30
0.0
  3
$MODEL_SPACE
  1

  0
ENDBLK
  5
E6
  8
0
  0
BLOCK
 67
     1
  8
0
  2
$PAPER_SPACE
 70
     0
 10
0.0
 20
0.0
 30
0.0
  3
$PAPER_SPACE
  1

  0
ENDBLK
  5
E4
 67
     1
  8
0
  0
ENDSEC
  0
SECTION
  2
ENTITIES
  0
ARC
  5
1203
  8
0
 10
67.479657467722092
 20
174.2322232997879
 30
0.0
 40
14.285000000000069
 50
138.31512357949259
 51
151.8017643405679
  0
ARC
  5
1208
  8
0
 10
67.479657467721893
 20
174.23222329978779
 30
0.0
 40
14.28500000000019
 50
28.198235659432019
 51
41.684876420507301
  0
LINE
  5
1209
  8
2
 10
74.479657467722035
 20
164.7322232997879
 30
0.0
 11
74.479657467722035
 21
183.7322232997879
 31
0.0
  0
LINE
  5
120A
  8
2
 10
60.479657467722028
 20
183.7322232997879
 30
0.0
 11
60.479657467722028
 21
164.7322232997879
 31
0.0
  0
LINE
  5
120E
  8
0
 10
78.147891857723039
 20
183.7322232997879
 30
0.0
 11
75.609232222675985
 21
183.7322232997879
 31
0.0
  0
LINE
  5
120F
  8
0
 10
59.350082712768078
 20
183.7322232997879
 30
0.0
 11
56.811423077721031
 21
183.7322232997879
 31
0.0
  0
LINE
  5
1210
  8
0
 10
56.811423077721031
 20
183.7322232997879
 30
0.0
 11
78.147891857723039
 21
183.7322232997879
 31
0.0
  0
ARC
  5
1212
  8
0
 10
67.479657467722035
 20
174.2322232997879
 30
0.0
 40
18.999999999999979
 50
159.1904264223233
 51
200.8095735776767
  0
ARC
  5
1213
  8
0
 10
67.479657467722035
 20
174.2322232997879
 30
0.0
 40
18.999999999999989
 50
339.19042642232358
 51
20.80957357767635
  0
ARC
  5
1216
  8
0
 10
67.479657467722035
 20
174.2322232997879
 30
0.0
 40
12.5
 50
118.3576365763284
 51
130.5358021113162
  0
LINE
  5
121F
  8
0
 10
85.240217706633416
 20
167.4822232997879
 30
0.0
 11
49.719097228810647
 21
167.4822232997879
 31
0.0
  0
LINE
  5
1226
  8
0
 10
49.719097228810647
 20
180.9822232997879
 30
0.0
 11
85.240217706633416
 21
180.9822232997879
 31
0.0
  0
LINE
  5
122A
  8
0
 10
73.416828511240993
 20
185.2322232997879
 30
0.0
 11
61.542486424203076
 21
185.2322232997879
 31
0.0
  0
LINE
  5
1235
  8
1
 10
45.625042258726928
 20
123.7436121888751
 30
0.0
 11
89.334272676717134
 21
123.7436121888751
 31
0.0
  0
LINE
  5
1236
  8
1
 10
67.479657467722035
 20
145.5982273978702
 30
0.0
 11
67.479657467722006
 21
63.888996979880048
 31
0.0
  0
LINE
  5
1237
  8
2
 10
60.479657467722006
 20
66.743612188875147
 30
0.0
 11
60.479657467722006
 21
91.743612188875147
 31
0.0
  0
LINE
  5
1238
  8
2
 10
74.479657467722006
 20
91.743612188875105
 30
0.0
 11
60.479657467722006
 21
91.743612188875147
 31
0.0
  0
LINE
  5
1239
  8
2
 10
74.479657467722006
 20
66.743612188875105
 30
0.0
 11
74.479657467722006
 21
91.743612188875105
 31
0.0
  0
CIRCLE
  5
123A
  8
0
 10
67.479657467722035
 20
123.7436121888751
 30
0.0
 40
12.589627675193571
  0
LINE
  5
123B
  8
2
 10
73.938157467722021
 20
67.285112188875104
 30
0.0
 11
61.02115746772202
 21
67.285112188875132
 31
0.0
  0
LINE
  5
123D
  8
2
 10
73.938157467722021
 20
93.014795475313903
 30
0.0
 11
61.02115746772202
 21
93.014795475313946
 31
0.0
  0
POLYLINE
  5
123E
  8
0
 66
     1
 10
0.0
 20
0.0
 30
0.0
  0
VERTEX
  5
1550
  8
0
 10
74.85783474940888
 20
98.743612188875119
 30
0.0
  0
VERTEX
  5
1551
  8
0
 10
74.538918812708005
 20
97.959455895574465
 30
0.0
  0
VERTEX
  5
1552
  8
0
 10
74.147940120893281
 20
97.08953472530311
 30
0.0
  0
VERTEX
  5
1553
  8
0
 10
74.032638758464202
 20
96.850205453543396
 30
0.0
  0
VERTEX
  5
1554
  8
0
 10
73.915789923944914
 20
96.615078528685601
 30
0.0
  0
VERTEX
  5
1555
  8
0
 10
73.856793813552713
 20
96.499108336940083
 30
0.0
  0
VERTEX
  5
1556
  8
0
 10
73.797421210930153
 20
96.384209475434915
 30
0.0
  0
VERTEX
  5
1557
  8
0
 10
73.677560571930655
 20
96.157652813009406
 30
0.0
  0
VERTEX
  5
1558
  8
0
 10
73.556236311772182
 20
95.935462042265641
 30
0.0
  0
VERTEX
  5
1559
  8
0
 10
73.433477080911359
 20
95.717689633064509
 30
0.0
  0
VERTEX
  5
155A
  8
0
 10
73.309311868670022
 20
95.504387011880425
 30
0.0
  0
VERTEX
  5
155B
  8
0
 10
73.183769996389401
 20
95.295604549657355
 30
0.0
  0
VERTEX
  5
155C
  8
0
 10
73.120492064737618
 20
95.192923827522094
 30
0.0
  0
VERTEX
  5
155D
  8
0
 10
73.056881110505969
 20
95.091391549913624
 30
0.0
  0
VERTEX
  5
155E
  8
0
 10
72.928675175550495
 20
94.891796237099101
 30
0.0
  0
VERTEX
  5
155F
  8
0
 10
72.799182467072001
 20
94.696865745206964
 30
0.0
  0
VERTEX
  5
1560
  8
0
 10
72.733963117156748
 20
94.601164235563516
 30
0.0
  0
VERTEX
  5
1561
  8
0
 10
72.668433564488154
 20
94.506646106643331
 30
0.0
  0
VERTEX
  5
1562
  8
0
 10
72.53645934386418
 20
94.321182241356667
 30
0.0
  0
VERTEX
  5
1563
  8
0
 10
72.40329097062147
 20
94.140517946229977
 30
0.0
  0
VERTEX
  5
1564
  8
0
 10
72.336268793273263
 20
94.051999014363702
 30
0.0
  0
VERTEX
  5
1565
  8
0
 10
72.268959892177804
 20
93.964695884738433
 30
0.0
  0
VERTEX
  5
1566
  8
0
 10
72.133497830521364
 20
93.793757576874356
 30
0.0
  0
VERTEX
  5
1567
  8
0
 10
71.996936774719529
 20
93.627743389342442
 30
0.0
  0
VERTEX
  5
1568
  8
0
 10
71.859308973364591
 20
93.466692526027217
 30
0.0
  0
VERTEX
  5
1569
  8
0
 10
71.720646926958523
 20
93.310643018735078
 30
0.0
  0
VERTEX
  5
156A
  8
0
 10
71.580983380238081
 20
93.159631718213348
 30
0.0
  0
VERTEX
  5
156B
  8
0
 10
71.510786341871295
 20
93.086026586256679
 30
0.0
  0
VERTEX
  5
156C
  8
0
 10
71.440351314441955
 20
93.013694285447784
 30
0.0
  0
VERTEX
  5
156D
  8
0
 10
71.298783939522593
 20
92.872865183241558
 30
0.0
  0
VERTEX
  5
156E
  8
0
 10
71.156314686303602
 20
92.737177668076754
 30
0.0
  0
VERTEX
  5
156F
  8
0
 10
71.012977198585133
 20
92.60666378226108
 30
0.0
  0
VERTEX
  5
1570
  8
0
 10
70.868805325198991
 20
92.481354346361002
 30
0.0
  0
VERTEX
  5
1571
  8
0
 10
70.72383311201537
 20
92.361278951923666
 30
0.0
  0
VERTEX
  5
1572
  8
0
 10
70.651057569233984
 20
92.303212929826344
 30
0.0
  0
VERTEX
  5
1573
  8
0
 10
70.578094793902949
 20
92.246465954488855
 30
0.0
  0
VERTEX
  5
1574
  8
0
 10
70.431624786644363
 20
92.136942466892904
 30
0.0
  0
VERTEX
  5
1575
  8
0
 10
70.284457678808963
 20
92.032734352866015
 30
0.0
  0
VERTEX
  5
1576
  8
0
 10
70.136628223585035
 20
91.933866220924614
 30
0.0
  0
VERTEX
  5
1577
  8
0
 10
69.988171330572584
 20
91.840361418560263
 30
0.0
  0
VERTEX
  5
1578
  8
0
 10
69.839122057539726
 20
91.752242026725895
 30
0.0
  0
VERTEX
  5
1579
  8
0
 10
69.764386272546233
 20
91.710208412446804
 30
0.0
  0
VERTEX
  5
157A
  8
0
 10
69.689515602143842
 20
91.669528854621745
 30
0.0
  0
VERTEX
  5
157B
  8
0
 10
69.539387293619626
 20
91.592241434781073
 30
0.0
  0
VERTEX
  5
157C
  8
0
 10
69.38877258443631
 20
91.520398018457783
 30
0.0
  0
VERTEX
  5
157D
  8
0
 10
69.237707041925475
 20
91.454015571316319
 30
0.0
  0
VERTEX
  5
157E
  8
0
 10
69.086226339882188
 20
91.393109769425251
 30
0.0
  0
VERTEX
  5
157F
  8
0
 10
68.9343662501403
 20
91.337694995555495
 30
0.0
  0
VERTEX
  5
1580
  8
0
 10
68.858305138309618
 20
91.312050884266256
 30
0.0
  0
VERTEX
  5
1581
  8
0
 10
68.78216263412537
 20
91.287784335783726
 30
0.0
  0
VERTEX
  5
1582
  8
0
 10
68.629651434385892
 20
91.243389576402279
 30
0.0
  0
VERTEX
  5
1583
  8
0
 10
68.476868666105531
 20
91.204521201135805
 30
0.0
  0
VERTEX
  5
1584
  8
0
 10
68.323850408598332
 20
91.171188388665357
 30
0.0
  0
VERTEX
  5
1585
  8
0
 10
68.170632796788652
 20
91.143399010461252
 30
0.0
  0
VERTEX
  5
1586
  8
0
 10
68.017252012677773
 20
91.121159628923806
 30
0.0
  0
VERTEX
  5
1587
  8
0
 10
67.940511748654956
 20
91.112122879318775
 30
0.0
  0
VERTEX
  5
1588
  8
0
 10
67.863744276799821
 20
91.104475495834023
 30
0.0
  0
VERTEX
  5
1589
  8
0
 10
67.710145839668414
 20
91.093350551113161
 30
0.0
  0
VERTEX
  5
158A
  8
0
 10
67.556492973215938
 20
91.087787421892386
 30
0.0
  0
VERTEX
  5
158B
  8
0
 10
67.479657467722006
 20
91.087091999947944
 30
0.0
  0
VERTEX
  5
158C
  8
0
 10
67.402821962228131
 20
91.087787421892386
 30
0.0
  0
VERTEX
  5
158D
  8
0
 10
67.249169095775642
 20
91.093350551113161
 30
0.0
  0
VERTEX
  5
158E
  8
0
 10
67.095570658644192
 20
91.104475495834023
 30
0.0
  0
VERTEX
  5
158F
  8
0
 10
67.018803186789114
 20
91.112122879318775
 30
0.0
  0
VERTEX
  5
1590
  8
0
 10
66.942062922766283
 20
91.121159628923806
 30
0.0
  0
VERTEX
  5
1591
  8
0
 10
66.788682138655403
 20
91.143399010461252
 30
0.0
  0
VERTEX
  5
1592
  8
0
 10
66.635464526845681
 20
91.171188388665357
 30
0.0
  0
VERTEX
  5
1593
  8
0
 10
66.482446269338539
 20
91.204521201135805
 30
0.0
  0
VERTEX
  5
1594
  8
0
 10
66.329663501058164
 20
91.243389576402279
 30
0.0
  0
VERTEX
  5
1595
  8
0
 10
66.177152301318699
 20
91.287784335783726
 30
0.0
  0
VERTEX
  5
1596
  8
0
 10
66.101009797134395
 20
91.312050884266256
 30
0.0
  0
VERTEX
  5
1597
  8
0
 10
66.024948685303741
 20
91.337694995555495
 30
0.0
  0
VERTEX
  5
1598
  8
0
 10
65.873088595561853
 20
91.393109769425251
 30
0.0
  0
VERTEX
  5
1599
  8
0
 10
65.721607893518524
 20
91.454015571316319
 30
0.0
  0
VERTEX
  5
159A
  8
0
 10
65.570542351007759
 20
91.520398018457783
 30
0.0
  0
VERTEX
  5
159B
  8
0
 10
65.419927641824415
 20
91.592241434781073
 30
0.0
  0
VERTEX
  5
159C
  8
0
 10
65.269799333300213
 20
91.669528854621745
 30
0.0
  0
VERTEX
  5
159D
  8
0
 10
65.194928662897837
 20
91.710208412446804
 30
0.0
  0
VERTEX
  5
159E
  8
0
 10
65.120192877904287
 20
91.752242026725895
 30
0.0
  0
VERTEX
  5
159F
  8
0
 10
64.971143604871443
 20
91.840361418560263
 30
0.0
  0
VERTEX
  5
15A0
  8
0
 10
64.822686711859006
 20
91.933866220924614
 30
0.0
  0
VERTEX
  5
15A1
  8
0
 10
64.67485725663505
 20
92.032734352866015
 30
0.0
  0
VERTEX
  5
15A2
  8
0
 10
64.527690148799707
 20
92.13694246689289
 30
0.0
  0
VERTEX
  5
15A3
  8
0
 10
64.381220141541121
 20
92.246465954488855
 30
0.0
  0
VERTEX
  5
15A4
  8
0
 10
64.308257366210057
 20
92.303212929826344
 30
0.0
  0
VERTEX
  5
15A5
  8
0
 10
64.235481823428671
 20
92.361278951923666
 30
0.0
  0
VERTEX
  5
15A6
  8
0
 10
64.090509610245078
 20
92.481354346361002
 30
0.0
  0
VERTEX
  5
15A7
  8
0
 10
63.946337736858929
 20
92.60666378226108
 30
0.0
  0
VERTEX
  5
15A8
  8
0
 10
63.803000249140439
 20
92.737177668076754
 30
0.0
  0
VERTEX
  5
15A9
  8
0
 10
63.66053099592142
 20
92.872865183241558
 30
0.0
  0
VERTEX
  5
15AA
  8
0
 10
63.518963621002051
 20
93.013694285447784
 30
0.0
  0
VERTEX
  5
15AB
  8
0
 10
63.448528593572739
 20
93.086026586256708
 30
0.0
  0
VERTEX
  5
15AC
  8
0
 10
63.378331555205932
 20
93.159631718213348
 30
0.0
  0
VERTEX
  5
15AD
  8
0
 10
63.23866800848549
 20
93.310643018735078
 30
0.0
  0
VERTEX
  5
15AE
  8
0
 10
63.100005962079479
 20
93.466692526027217
 30
0.0
  0
VERTEX
  5
15AF
  8
0
 10
62.962378160724512
 20
93.627743389342442
 30
0.0
  0
VERTEX
  5
15B0
  8
0
 10
62.825817104922628
 20
93.793757576874356
 30
0.0
  0
VERTEX
  5
15B1
  8
0
 10
62.690355043266209
 20
93.964695884738404
 30
0.0
  0
VERTEX
  5
15B2
  8
0
 10
62.623046142170779
 20
94.051999014363702
 30
0.0
  0
VERTEX
  5
15B3
  8
0
 10
62.5560239648226
 20
94.140517946229977
 30
0.0
  0
VERTEX
  5
15B4
  8
0
 10
62.422855591579861
 20
94.321182241356667
 30
0.0
  0
VERTEX
  5
15B5
  8
0
 10
62.290881370955901
 20
94.506646106643331
 30
0.0
  0
VERTEX
  5
15B6
  8
0
 10
62.225351818287322
 20
94.601164235563544
 30
0.0
  0
VERTEX
  5
15B7
  8
0
 10
62.160132468372062
 20
94.696865745206978
 30
0.0
  0
VERTEX
  5
15B8
  8
0
 10
62.030639759893511
 20
94.891796237099101
 30
0.0
  0
VERTEX
  5
15B9
  8
0
 10
61.902433824938072
 20
95.091391549913638
 30
0.0
  0
VERTEX
  5
15BA
  8
0
 10
61.838822870706387
 20
95.192923827522122
 30
0.0
  0
VERTEX
  5
15BB
  8
0
 10
61.775544939054669
 20
95.295604549657384
 30
0.0
  0
VERTEX
  5
15BC
  8
0
 10
61.650003066774048
 20
95.504387011880453
 30
0.0
  0
VERTEX
  5
15BD
  8
0
 10
61.52583785453271
 20
95.717689633064509
 30
0.0
  0
VERTEX
  5
15BE
  8
0
 10
61.403078623671888
 20
95.935462042265684
 30
0.0
  0
VERTEX
  5
15BF
  8
0
 10
61.281754363513357
 20
96.157652813009435
 30
0.0
  0
VERTEX
  5
15C0
  8
0
 10
61.161893724513867
 20
96.384209475434943
 30
0.0
  0
VERTEX
  5
15C1
  8
0
 10
61.102521121891357
 20
96.499108336940154
 30
0.0
  0
VERTEX
  5
15C2
  8
0
 10
61.043525011499128
 20
96.615078528685643
 30
0.0
  0
VERTEX
  5
15C3
  8
0
 10
60.926676176979832
 20
96.850205453543424
 30
0.0
  0
VERTEX
  5
15C4
  8
0
 10
60.811374814550788
 20
97.089534725303139
 30
0.0
  0
VERTEX
  5
15C5
  8
0
 10
60.420396122736008
 20
97.959455895574507
 30
0.0
  0
VERTEX
  5
15C6
  8
0
 10
60.101480186035189
 20
98.743612188875133
 30
0.0
  0
SEQEND
  5
15C7
  8
0
  0
LINE
  5
1240
  8
0
 10
61.542486424203048
 20
66.743612188875147
 30
0.0
 11
61.542486424203048
 21
73.07694552220849
 31
0.0
  0
LINE
  5
1241
  8
0
 10
73.416828511240965
 20
73.076945522208462
 30
0.0
 11
73.416828511240965
 21
66.743612188875105
 31
0.0
  0
POLYLINE
  5
1242
  8
0
 66
     1
 10
0.0
 20
0.0
 30
0.0
  0
VERTEX
  5
15C8
  8
0
 10
83.602934089223538
 20
116.29529352044111
 30
0.0
  0
VERTEX
  5
15C9
  8
0
 10
81.758193369298738
 20
112.3397308343895
 30
0.0
  0
VERTEX
  5
15CA
  8
0
 10
78.619449354562619
 20
105.8430907120099
 30
0.0
  0
VERTEX
  5
15CB
  8
0
 10
76.015609965084622
 20
100.8141906416304
 30
0.0
  0
VERTEX
  5
15CC
  8
0
 10
74.85783474940888
 20
98.743612188875119
 30
0.0
  0
SEQEND
  5
15CD
  8
0
  0
ARC
  5
1243
  8
0
 10
67.479657467722035
 20
123.7436121888751
 30
0.0
 40
17.760560238911381
 50
335.20492294134522
 51
204.7950770586547
  0
POLYLINE
  5
1244
  8
0
 66
     1
 10
0.0
 20
0.0
 30
0.0
  0
VERTEX
  5
15CE
  8
0
 10
60.101480186035189
 20
98.743612188875133
 30
0.0
  0
VERTEX
  5
15CF
  8
0
 10
58.94370497035942
 20
100.8141906416304
 30
0.0
  0
VERTEX
  5
15D0
  8
0
 10
56.339865580881451
 20
105.8430907120099
 30
0.0
  0
VERTEX
  5
15D1
  8
0
 10
53.201121566145332
 20
112.3397308343895
 30
0.0
  0
VERTEX
  5
15D2
  8
0
 10
51.356380846220482
 20
116.29529352044121
 30
0.0
  0
SEQEND
  5
15D3
  8
0
  0
LINE
  5
1247
  8
0
 10
51.3563808462211
 20
116.29529352044111
 30
0.0
 11
50.000454138810312
 21
116.29529352044121
 31
0.0
  0
LINE
  5
1248
  8
0
 10
77.479657467722006
 20
98.743612188874366
 30
0.0
 11
57.479657467722006
 21
98.743612188875915
 31
0.0
  0
LINE
  5
1249
  8
0
 10
83.602934089222913
 20
116.29529352043851
 30
0.0
 11
84.958860796633687
 21
116.29529352043841
 31
0.0
  0
LINE
  5
124B
  8
0
 10
54.979657467722006
 20
66.743612188876114
 30
0.0
 11
79.979657467722006
 21
66.743612188874152
 31
0.0
  0
LINE
  5
124C
  8
0
 10
54.979657467722006
 20
73.076945522209456
 30
0.0
 11
79.979657467722006
 21
73.076945522207495
 31
0.0
  0
LINE
  5
124E
  8
2
 10
61.02115746772202
 20
67.285112188875132
 30
0.0
 11
60.479657467722568
 21
66.743612188875673
 31
0.0
  0
LINE
  5
124F
  8
2
 10
74.479657467722006
 20
66.743612188875105
 30
0.0
 11
73.938157467722021
 21
67.285112188875104
 31
0.0
  0
LINE
  5
1250
  8
2
 10
61.02115746772202
 20
93.014795475313946
 30
0.0
 11
61.02115746772202
 21
67.285112188875132
 31
0.0
  0
LINE
  5
1251
  8
2
 10
73.938157467722021
 20
67.285112188875104
 30
0.0
 11
73.938157467722021
 21
93.014795475313903
 31
0.0
  0
LINE
  5
1252
  8
2
 10
67.479657467722006
 20
96.743612188875105
 30
0.0
 11
61.02115746772202
 21
93.014795475313946
 31
0.0
  0
LINE
  5
1253
  8
2
 10
73.938157467722021
 20
93.014795475313903
 30
0.0
 11
67.479657467722006
 21
96.743612188875105
 31
0.0
  0
LINE
  5
1254
  8
0
 10
50.000454138810312
 20
116.2952935204398
 30
0.0
 11
57.479657467722006
 21
98.743612188875133
 31
0.0
  0
LINE
  5
1255
  8
0
 10
77.479657467722006
 20
98.743612188875119
 30
0.0
 11
84.958860796633687
 21
116.2952935204398
 31
0.0
  0
LINE
  5
1256
  8
0
 10
57.479657467722006
 20
98.743612188875133
 30
0.0
 11
57.479657467722006
 21
73.07694552220849
 31
0.0
  0
LINE
  5
1257
  8
0
 10
77.479657467722006
 20
73.076945522208462
 30
0.0
 11
77.479657467722006
 21
98.743612188875119
 31
0.0
  0
LINE
  5
1258
  8
0
 10
79.979657467722006
 20
66.743612188875105
 30
0.0
 11
79.979657467722006
 21
73.076945522208462
 31
0.0
  0
LINE
  5
1259
  8
0
 10
54.979657467722006
 20
73.07694552220849
 30
0.0
 11
54.979657467722006
 21
66.743612188875147
 31
0.0
  0
ARC
  5
125A
  8
0
 10
67.479657467722035
 20
123.7436121888751
 30
0.0
 40
19.0
 50
336.91995281674201
 51
203.0800471832581
  0
CIRCLE
  5
125D
  8
0
 10
67.479657467722035
 20
123.7436121888751
 30
0.0
 40
7.0
  0
CIRCLE
  5
125E
  8
0
 10
67.479657467722035
 20
123.7436121888751
 30
0.0
 40
10.668234390001
  0
LINE
  5
1263
  8
2
 10
132.39467578508209
 20
66.743612188875574
 30
0.0
 11
132.39467578508209
 21
91.743612188875588
 31
0.0
  0
LINE
  5
1264
  8
2
 10
146.39467578508209
 20
91.743612188875588
 30
0.0
 11
132.39467578508209
 21
91.743612188875588
 31
0.0
  0
LINE
  5
1265
  8
2
 10
146.39467578508209
 20
66.743612188875574
 30
0.0
 11
146.39467578508209
 21
91.743612188875588
 31
0.0
  0
LINE
  5
1266
  8
0
 10
146.14467578508209
 20
136.33323986406921
 30
0.0
 11
146.14467578508209
 21
111.153984513682
 31
0.0
  0
LINE
  5
1267
  8
0
 10
132.64467578508209
 20
136.33323986406921
 30
0.0
 11
132.64467578508209
 21
111.153984513682
 31
0.0
  0
LINE
  5
1268
  8
2
 10
145.8531757850821
 20
67.285112188875573
 30
0.0
 11
132.9361757850821
 21
67.285112188875573
 31
0.0
  0
LINE
  5
1269
  8
2
 10
145.8531757850821
 20
93.014795475314386
 30
0.0
 11
132.9361757850821
 21
93.014795475314386
 31
0.0
  0
LINE
  5
126E
  8
0
 10
128.39467578508209
 20
73.076945522208931
 30
0.0
 11
128.39467578508209
 21
66.743612188875574
 31
0.0
  0
LINE
  5
1275
  8
0
 10
150.39467578508209
 20
66.743612188875574
 30
0.0
 11
150.39467578508209
 21
73.076945522208931
 31
0.0
  0
LINE
  5
1276
  8
0
 10
132.64467578508209
 20
98.743612188875019
 30
0.0
 11
146.14467578508209
 21
98.743612188875019
 31
0.0
  0
LINE
  5
1278
  8
0
 10
128.39467578508209
 20
66.743612188875133
 30
0.0
 11
150.39467578508209
 21
66.743612188875133
 31
0.0
  0
LINE
  5
1279
  8
0
 10
128.39467578508209
 20
73.076945522208476
 30
0.0
 11
150.39467578508209
 21
73.076945522208476
 31
0.0
  0
ARC
  5
127A
  8
2
 10
139.39467578508209
 20
123.7436121888755
 30
0.0
 40
14.285
 50
61.801764340566862
 51
118.1982356594331
  0
LINE
  5
127C
  8
2
 10
132.9361757850821
 20
67.285112188875573
 30
0.0
 11
132.39467578508209
 21
66.743612188875574
 31
0.0
  0
LINE
  5
127D
  8
2
 10
146.39467578508209
 20
66.743612188875574
 30
0.0
 11
145.8531757850821
 21
67.285112188875573
 31
0.0
  0
LINE
  5
127E
  8
2
 10
132.9361757850821
 20
93.014795475314386
 30
0.0
 11
132.9361757850821
 21
67.285112188875573
 31
0.0
  0
LINE
  5
127F
  8
2
 10
145.8531757850821
 20
67.285112188875573
 30
0.0
 11
145.8531757850821
 21
93.014795475314386
 31
0.0
  0
LINE
  5
1280
  8
2
 10
139.39467578508209
 20
96.743612188875588
 30
0.0
 11
132.9361757850821
 21
93.014795475314386
 31
0.0
  0
LINE
  5
1281
  8
2
 10
145.8531757850821
 20
93.014795475314386
 30
0.0
 11
139.39467578508209
 21
96.743612188875588
 31
0.0
  0
LINE
  5
1282
  8
0
 10
129.39467578508209
 20
91.087091999948413
 30
0.0
 11
129.39467578508209
 21
73.076945522208931
 31
0.0
  0
LINE
  5
1283
  8
0
 10
149.39467578508209
 20
73.076945522208931
 30
0.0
 11
149.39467578508209
 21
91.087091999948413
 31
0.0
  0
ARC
  5
1284
  8
0
 10
139.39467578508209
 20
123.7436121888755
 30
0.0
 40
18.999999999999989
 50
69.190426422323611
 51
110.8095735776763
  0
LINE
  5
1288
  8
0
 10
129.89467578508209
 20
113.0753777988745
 30
0.0
 11
129.89467578508209
 21
134.41184657887649
 31
0.0
  0
LINE
  5
1289
  8
0
 10
148.89467578508209
 20
113.0753777988745
 30
0.0
 11
148.89467578508209
 21
134.41184657887649
 31
0.0
  0
LINE
  5
128A
  8
2
 10
129.89467578508209
 20
116.7436121888756
 30
0.0
 11
148.89467578508209
 21
116.7436121888756
 31
0.0
  0
LINE
  5
128B
  8
2
 10
148.89467578508209
 20
130.7436121888756
 30
0.0
 11
129.89467578508209
 21
130.7436121888756
 31
0.0
  0
ARC
  5
128C
  8
0
 10
139.39467578508189
 20
123.7436121888759
 30
0.0
 40
14.28500000000038
 50
298.15437617970531
 51
311.68487642050792
  0
ARC
  5
128D
  8
2
 10
139.39467578508209
 20
123.7436121888755
 30
0.0
 40
14.284999999999981
 50
241.84562382029469
 51
298.15437617970531
  0
ARC
  5
128E
  8
0
 10
139.39467578508209
 20
123.7436121888755
 30
0.0
 40
14.28499999999991
 50
228.31512357949211
 51
241.84562382029469
  0
ARC
  5
128F
  8
0
 10
139.39467578508209
 20
123.7436121888756
 30
0.0
 40
14.28499999999989
 50
118.1982356594331
 51
131.68487642050781
  0
ARC
  5
1291
  8
0
 10
139.3946757850822
 20
123.7436121888756
 30
0.0
 40
14.28499999999991
 50
48.315123579492109
 51
61.801764340566862
  0
CIRCLE
  5
129A
  8
0
 10
67.479657467722006
 20
35.255001077962248
 30
0.0
 40
6.458499999999999
  0
LINE
  5
129D
  8
0
 10
73.416828511240965
 20
46.25500107796227
 30
0.0
 11
61.542486424203048
 21
46.25500107796227
 31
0.0
  0
LINE
  5
12A1
  8
0
 10
49.719097228810618
 20
42.00500107796227
 30
0.0
 11
56.958844761471617
 21
42.00500107796227
 31
0.0
  0
LINE
  5
12A8
  8
0
 10
85.240217706633373
 20
28.505001077962248
 30
0.0
 11
78.000470173972417
 21
28.505001077962248
 31
0.0
  0
LINE
  5
12AC
  8
0
 10
61.542486424203048
 20
24.25500107796228
 30
0.0
 11
73.416828511240965
 21
24.255001077962248
 31
0.0
  0
ARC
  5
12B4
  8
0
 10
67.479657467722006
 20
35.255001077962248
 30
0.0
 40
18.999999999999989
 50
339.19042642232358
 51
20.80957357767635
  0
ARC
  5
12B5
  8
0
 10
67.479657467722006
 20
35.255001077962248
 30
0.0
 40
18.999999999999979
 50
159.1904264223233
 51
200.8095735776767
  0
LINE
  5
12B7
  8
0
 10
56.811423077721003
 20
44.755001077962277
 30
0.0
 11
59.355619063086067
 21
44.75500107796227
 31
0.0
  0
LINE
  5
12BA
  8
0
 10
78.14789185772301
 20
25.755001077962248
 30
0.0
 11
75.603695872357974
 21
25.755001077962248
 31
0.0
  0
ARC
  5
12BF
  8
0
 10
67.479657467721864
 20
35.255001077962142
 30
0.0
 40
14.28500000000019
 50
28.198235659432019
 51
41.684876420507301
  0
ARC
  5
12C1
  8
0
 10
67.479657467721935
 20
35.255001077962312
 30
0.0
 40
14.285000000000061
 50
318.31512357949271
 51
331.80176434056801
  0
LINE
  5
13A9
  8
0
 10
146.14467578508209
 20
141.5041724277869
 30
0.0
 11
146.1446757850822
 21
136.33323986406899
 31
0.0
  0
LINE
  5
13AA
  8
0
 10
132.64467578508209
 20
141.5041724277869
 30
0.0
 11
132.644675785082
 21
136.33323986406899
 31
0.0
  0
LINE
  5
13AB
  8
0
 10
146.14468109751959
 20
111.1539873619768
 30
0.0
 11
146.14468109751959
 21
98.743612188875019
 31
0.0
  0
LINE
  5
13AC
  8
0
 10
132.64467578508209
 20
98.743612188875019
 30
0.0
 11
132.6543150252343
 21
111.1488211295882
 31
0.0
  0
LINE
  5
13AD
  8
0
 10
146.14467578508209
 20
98.743612188875019
 30
0.0
 11
149.39467578508209
 21
91.087091999948413
 31
0.0
  0
LINE
  5
13AE
  8
0
 10
132.64467578508209
 20
98.743612188875019
 30
0.0
 11
129.39467578508209
 21
91.087091999948413
 31
0.0
  0
LINE
  5
13D9
  8
1
 10
45.62504225872695
 20
174.2322232997879
 30
0.0
 11
89.334272676717148
 21
174.2322232997879
 31
0.0
  0
ARC
  5
13DB
  8
0
 10
67.479657467722035
 20
174.2322232997879
 30
0.0
 40
10.0
 50
71.805127661233755
 51
108.1948723387661
  0
ARC
  5
13DC
  8
0
 10
67.479657467722035
 20
174.2322232997879
 30
0.0
 40
12.5
 50
49.4641978886836
 51
61.64236342367159
  0
LINE
  5
13EC
  8
1
 10
67.479657467722035
 20
188.08683850878299
 30
0.0
 11
67.479657467722035
 21
160.37760809079279
 31
0.0
  0
ARC
  5
13F5
  8
0
 10
67.479657467722035
 20
174.2322232997879
 30
0.0
 40
12.5
 50
298.35763657632822
 51
310.53580211131629
  0
ARC
  5
13F6
  8
0
 10
67.479657467722035
 20
174.2322232997879
 30
0.0
 40
10.0
 50
251.8051276612338
 51
288.19487233876612
  0
LINE
  5
13F7
  8
0
 10
73.416828511240965
 20
163.2322232997879
 30
0.0
 11
61.542486424203048
 21
163.2322232997879
 31
0.0
  0
ARC
  5
13F8
  8
0
 10
67.479657467722035
 20
174.2322232997879
 30
0.0
 40
12.5
 50
229.46419788868371
 51
241.64236342367141
  0
LINE
  5
13F9
  8
0
 10
56.81142307772101
 20
164.7322232997879
 30
0.0
 11
78.14789185772301
 21
164.7322232997879
 31
0.0
  0
LINE
  5
13FA
  8
0
 10
59.350082712768071
 20
164.7322232997879
 30
0.0
 11
56.81142307772101
 21
164.7322232997879
 31
0.0
  0
LINE
  5
13FB
  8
0
 10
78.14789185772301
 20
164.7322232997879
 30
0.0
 11
75.609232222675956
 21
164.7322232997879
 31
0.0
  0
ARC
  5
13FC
  8
0
 10
67.479657467721893
 20
174.23222329978799
 30
0.0
 40
14.28500000000019
 50
318.31512357949248
 51
331.80176434056779
  0
ARC
  5
13FD
  8
0
 10
67.479657467722092
 20
174.2322232997879
 30
0.0
 40
14.285000000000069
 50
208.1982356594319
 51
221.68487642050721
  0
LINE
  5
1426
  8
1
 10
139.39467578508209
 20
145.59822739787069
 30
0.0
 11
139.39467578508209
 21
63.888996979880503
 31
0.0
  0
LINE
  5
1427
  8
1
 10
127.040060576087
 20
123.7436121888756
 30
0.0
 11
151.7492909940772
 21
123.7436121888755
 31
0.0
  0
CIRCLE
  5
1433
  8
3
 10
67.479657467722006
 20
35.255001077962262
 30
0.0
 40
6.9999999999999849
  0
LINE
  5
1434
  8
1
 10
67.479657467721992
 20
49.10961628695734
 30
0.0
 11
67.479657467721992
 21
21.40038586896716
 31
0.0
  0
LINE
  5
1435
  8
1
 10
45.6250422587269
 20
35.255001077962277
 30
0.0
 11
89.334272676717106
 21
35.25500107796222
 31
0.0
  0
LINE
  5
1439
  8
0
 10
78.000470173972417
 20
42.005001077962248
 30
0.0
 11
85.240217706633373
 21
42.005001077962248
 31
0.0
  0
LINE
  5
143A
  8
0
 10
56.958844761471582
 20
28.50500107796228
 30
0.0
 11
49.719097228810618
 21
28.50500107796228
 31
0.0
  0
ARC
  5
143B
  8
0
 10
67.479657467722006
 20
35.255001077962248
 30
0.0
 40
12.5
 50
118.3576365763284
 51
241.64236342367161
  0
ARC
  5
143C
  8
0
 10
67.47965746772212
 20
35.255001077962142
 30
0.0
 40
14.28500000000019
 50
138.31512357949259
 51
151.80176434056801
  0
ARC
  5
143D
  8
0
 10
67.479657467722035
 20
35.255001077962312
 30
0.0
 40
14.285000000000061
 50
208.19823565943199
 51
221.68487642050741
  0
LINE
  5
143E
  8
0
 10
59.355619063086017
 20
25.75500107796227
 30
0.0
 11
56.811423077721003
 21
25.75500107796228
 31
0.0
  0
LINE
  5
143F
  8
0
 10
75.60369587235796
 20
44.755001077962241
 30
0.0
 11
78.14789185772301
 21
44.755001077962241
 31
0.0
  0
ARC
  5
1440
  8
0
 10
67.479657467722006
 20
35.255001077962248
 30
0.0
 40
12.5
 50
298.35763657632828
 51
61.642363423671497
  0
TEXT
  5
14ED
  8
0
 62
     3
 10
0.0
 20
0.0
 30
0.0
 40
10.0
  1
REJ14-M14
  7
STANDARD1
  0
ENDSEC
  0
EOF
