  0
SECTION
  2
HEADER
  9
$ACADVER
  1
AC1009
  9
$INSBASE
 10
0.0
 20
0.0
 30
0.0
  9
$EXTMIN
 10
0.0
 20
-2.960436562073669
 30
0.0
  9
$EXTMAX
 10
329.5
 20
189.5
 30
0.0
  9
$LIMMIN
 10
0.0
 20
0.0
  9
$LIMMAX
 10
375.0
 20
270.0
  9
$ORTHOMODE
 70
     1
  9
$REGENMODE
 70
     1
  9
$FILLMODE
 70
     1
  9
$QTEXTMODE
 70
     0
  9
$MIRRTEXT
 70
     0
  9
$DRAGMODE
 70
     2
  9
$LTSCALE
 40
10.0
  9
$OSMODE
 70
    55
  9
$ATTMODE
 70
     1
  9
$TEXTSIZE
 40
4.000000000000048
  9
$TRACEWID
 40
0.05
  9
$TEXTSTYLE
  7
STANDARD
  9
$CLAYER
  8
0
  9
$CELTYPE
  6
BYLAYER
  9
$CECOLOR
 62
   256
  9
$DIMSCALE
 40
1.0
  9
$DIMASZ
 40
3.0
  9
$DIMEXO
 40
2.0
  9
$DIMDLI
 40
0.38
  9
$DIMRND
 40
0.0
  9
$DIMDLE
 40
0.0
  9
$DIMEXE
 40
2.0
  9
$DIMTP
 40
0.0
  9
$DIMTM
 40
0.0
  9
$DIMTXT
 40
3.2000000000000002
  9
$DIMCEN
 40
0.0
  9
$DIMTSZ
 40
0.0
  9
$DIMTOL
 70
     0
  9
$DIMLIM
 70
     0
  9
$DIMTIH
 70
     0
  9
$DIMTOH
 70
     0
  9
$DIMSE1
 70
     0
  9
$DIMSE2
 70
     0
  9
$DIMTAD
 70
     1
  9
$DIMZIN
 70
     0
  9
$DIMBLK
  1

  9
$DIMASO
 70
     1
  9
$DIMSHO
 70
     0
  9
$DIMPOST
  1

  9
$DIMAPOST
  1

  9
$DIMALT
 70
     0
  9
$DIMALTD
 70
     2
  9
$DIMALTF
 40
25.399999999999999
  9
$DIMLFAC
 40
1.0
  9
$DIMTOFL
 70
     1
  9
$DIMTVP
 40
1.6000000000000001
  9
$DIMTIX
 70
     1
  9
$DIMSOXD
 70
     0
  9
$DIMSAH
 70
     0
  9
$DIMBLK1
  1

  9
$DIMBLK2
  1

  9
$DIMSTYLE
  2
STANDARD
  9
$DIMCLRD
 70
     0
  9
$DIMCLRE
 70
     0
  9
$DIMCLRT
 70
     0
  9
$DIMTFAC
 40
1.0
  9
$DIMGAP
 40
0.09
  9
$LUNITS
 70
     2
  9
$LUPREC
 70
     4
  9
$SKETCHINC
 40
0.1
  9
$FILLETRAD
 40
0.0
  9
$AUNITS
 70
     0
  9
$AUPREC
 70
     4
  9
$MENU
  1
E:\r13\win\SUPPORT\ACAD
  9
$ELEVATION
 40
0.0
  9
$PELEVATION
 40
0.0
  9
$THICKNESS
 40
0.0
  9
$LIMCHECK
 70
     0
  9
$BLIPMODE
 70
     0
  9
$CHAMFERA
 40
0.0
  9
$CHAMFERB
 40
0.0
  9
$SKPOLY
 70
     0
  9
$TDCREATE
 40
2449839.7814120371
  9
$TDUPDATE
 40
2456598.592866377
  9
$TDINDWG
 40
0.0001437616
  9
$TDUSRTIMER
 40
0.0001437616
  9
$USRTIMER
 70
     1
  9
$ANGBASE
 50
0.0
  9
$ANGDIR
 70
     0
  9
$PDMODE
 70
     0
  9
$PDSIZE
 40
0.0
  9
$PLINEWID
 40
0.0
  9
$COORDS
 70
     1
  9
$SPLFRAME
 70
     0
  9
$SPLINETYPE
 70
     6
  9
$SPLINESEGS
 70
     8
  9
$ATTDIA
 70
     0
  9
$ATTREQ
 70
     1
  9
$HANDLING
 70
     1
  9
$HANDSEED
  5
27B
  9
$SURFTAB1
 70
     6
  9
$SURFTAB2
 70
     6
  9
$SURFTYPE
 70
     6
  9
$SURFU
 70
     6
  9
$SURFV
 70
     6
  9
$UCSNAME
  2

  9
$UCSORG
 10
0.0
 20
0.0
 30
0.0
  9
$UCSXDIR
 10
1.0
 20
0.0
 30
0.0
  9
$UCSYDIR
 10
0.0
 20
1.0
 30
0.0
  9
$PUCSNAME
  2

  9
$PUCSORG
 10
0.0
 20
0.0
 30
0.0
  9
$PUCSXDIR
 10
1.0
 20
0.0
 30
0.0
  9
$PUCSYDIR
 10
0.0
 20
1.0
 30
0.0
  9
$USERI1
 70
     0
  9
$USERI2
 70
     1
  9
$USERI3
 70
     1
  9
$USERI4
 70
     0
  9
$USERI5
 70
     0
  9
$USERR1
 40
0.0
  9
$USERR2
 40
0.0
  9
$USERR3
 40
0.0
  9
$USERR4
 40
0.0
  9
$USERR5
 40
0.0
  9
$WORLDVIEW
 70
     1
  9
$SHADEDGE
 70
     3
  9
$SHADEDIF
 70
    70
  9
$TILEMODE
 70
     1
  9
$MAXACTVP
 70
    16
  9
$PLIMCHECK
 70
     0
  9
$PEXTMIN
 10
1.0000000000000000E+020
 20
1.0000000000000000E+020
 30
1.0000000000000000E+020
  9
$PEXTMAX
 10
-1.0000000000000000E+020
 20
-1.0000000000000000E+020
 30
-1.0000000000000000E+020
  9
$PLIMMIN
 10
0.0
 20
0.0
  9
$PLIMMAX
 10
12.0
 20
9.0
  9
$UNITMODE
 70
     0
  9
$VISRETAIN
 70
     0
  9
$PLINEGEN
 70
     0
  9
$PSLTSCALE
 70
     0
  0
ENDSEC
  0
SECTION
  2
TABLES
  0
TABLE
  2
VPORT
 70
     1
  0
VPORT
  2
*ACTIVE
 70
     0
 10
0.0
 20
0.0
 11
1.0
 21
1.0
 12
187.49427839065231
 22
194.785247995265
 13
0.0
 23
0.0
 14
10.0
 24
10.0
 15
10.0
 25
10.0
 16
0.0
 26
0.0
 36
1.0
 17
0.0
 27
0.0
 37
0.0
 40
399.3463374158577
 41
1.7807262569832401
 42
50.0
 43
0.0
 44
0.0
 50
0.0
 51
0.0
 71
     0
 72
   500
 73
     1
 74
     0
 75
     0
 76
     0
 77
     0
 78
     2
  0
ENDTAB
  0
TABLE
  2
LTYPE
 70
     4
  0
LTYPE
  2
CONTINUOUS
 70
     0
  3
Solid Line
 72
    65
 73
     0
 40
0.0
  0
LTYPE
  2
CENTER
 70
     0
  3
____ _ ____ _ ____ _ ____ _ ____ _ ____ _ ____
 72
    65
 73
     4
 40
2.0
 49
1.25
 49
-0.25
 49
0.25
 49
-0.25
  0
LTYPE
  2
HIDDEN
 70
     0
  3
_ _ _ _ _ _ _ _ _ _ _ _ _ _ _ _ _ _ _ _ _ _ _
 72
    65
 73
     2
 40
0.375
 49
0.25
 49
-0.125
  0
LTYPE
  2
PHANTOM2
 70
     0
  3
___ _ _ ___ _ _ ___ _ _ ___ _ _
 72
    65
 73
     6
 40
1.25
 49
0.625
 49
-0.125
 49
0.125
 49
-0.125
 49
0.125
 49
-0.125
  0
ENDTAB
  0
TABLE
  2
LAYER
 70
     4
  0
LAYER
  2
0
 70
     0
 62
     7
  6
CONTINUOUS
  0
LAYER
  2
1
 70
     0
 62
     1
  6
CENTER
  0
LAYER
  2
2
 70
     0
 62
     2
  6
HIDDEN
  0
LAYER
  2
3
 70
     0
 62
     3
  6
CONTINUOUS
  0
ENDTAB
  0
TABLE
  2
STYLE
 70
     2
  0
STYLE
  2
STANDARD
 70
     0
 40
0.0
 41
1.0
 50
0.0
 71
     0
 42
4.000000000000048
  3
TXT
  4
BIGFONT
  0
STYLE
  2
STANDARD1
 70
     0
 40
0.0
 41
1.0
 50
0.0
 71
     0
 42
3.0
  3
txt
  4

  0
ENDTAB
  0
TABLE
  2
VIEW
 70
     1
  0
VIEW
  2
ALL
 70
     0
 40
270.0
 10
220.99159663865549
 20
135.0
 41
0.0
 11
0.0
 21
0.0
 31
1.0
 12
0.0
 22
0.0
 32
0.0
 42
0.0
 43
0.0
 44
0.0
 50
0.0
 71
     0
  0
ENDTAB
  0
TABLE
  2
UCS
 70
     0
  0
ENDTAB
  0
TABLE
  2
APPID
 70
     3
  0
APPID
  2
ACAD
 70
     0
  0
APPID
  2
ACAD_MLEADERVER
 70
     0
  0
APPID
  2
ACAD_NAV_VCDISPLAY
 70
     0
  0
ENDTAB
  0
TABLE
  2
DIMSTYLE
 70
     1
  0
DIMSTYLE
  2
STANDARD
 70
     0
  3

  4

  5

  6

  7

 40
1.0
 41
0.18
 42
0.0625
 43
0.38
 44
0.18
 45
0.0
 46
0.0
 47
0.0
 48
0.0
140
0.18
141
0.09
142
0.0
143
25.399999999999999
144
1.0
145
0.0
146
1.0
147
0.09
 71
     0
 72
     0
 73
     1
 74
     1
 75
     0
 76
     0
 77
     0
 78
     0
170
     0
171
     2
172
     0
173
     0
174
     0
175
     0
176
     0
177
     0
178
     0
  0
ENDTAB
  0
ENDSEC
  0
SECTION
  2
BLOCKS
  0
BLOCK
  8
0
  2
$MODEL_SPACE
 70
     0
 10
0.0
 20
0.0
 30
0.0
  3
$MODEL_SPACE
  1

  0
ENDBLK
  5
FA
  8
0
  0
BLOCK
 67
     1
  8
0
  2
$PAPER_SPACE
 70
     0
 10
0.0
 20
0.0
 30
0.0
  3
$PAPER_SPACE
  1

  0
ENDBLK
  5
F8
 67
     1
  8
0
  0
ENDSEC
  0
SECTION
  2
ENTITIES
  0
LINE
  5
36
  8
0
 10
183.0
 20
155.5
 30
0.0
 11
183.0
 21
184.5
 31
0.0
  0
ARC
  5
37
  8
0
 10
251.95922105519199
 20
158.0
 30
0.0
 40
2.5
 50
270.0
 51
345.3667097159676
  0
ARC
  5
38
  8
0
 10
251.95922105519199
 20
182.0
 30
0.0
 40
2.5
 50
14.633290284032119
 51
90.0
  0
LINE
  5
39
  8
0
 10
253.85133226985431
 20
180.5475115548642
 30
0.0
 11
253.85133226985431
 21
159.4524884451358
 31
0.0
  0
ARC
  5
3A
  8
0
 10
206.0
 20
170.0
 30
0.0
 40
50.0
 50
345.36670971596811
 51
14.63329028403194
  0
LINE
  5
3B
  8
1
 10
118.0
 20
170.0
 30
0.0
 11
261.0
 21
170.0
 31
0.0
  0
LINE
  5
3C
  8
0
 10
251.95922105519199
 20
155.5
 30
0.0
 11
183.0000000000002
 21
155.5
 31
0.0
  0
LINE
  5
3D
  8
0
 10
182.9999999999998
 20
184.5
 30
0.0
 11
251.95922105519199
 21
184.5
 31
0.0
  0
CIRCLE
  5
3E
  8
0
 10
70.0
 20
170.0
 30
0.0
 40
14.5
  0
LINE
  5
3F
  8
1
 10
89.500000000000014
 20
170.0
 30
0.0
 11
50.5
 21
170.0
 31
0.0
  0
LINE
  5
40
  8
1
 10
70.0
 20
189.5
 30
0.0
 11
70.0
 21
150.5
 31
0.0
  0
CIRCLE
  5
41
  8
0
 10
70.0
 20
170.0
 30
0.0
 40
11.5
  0
CIRCLE
  5
42
  8
0
 10
70.0
 20
170.0
 30
0.0
 40
6.0
  0
CIRCLE
  5
43
  8
0
 10
70.0
 20
170.0
 30
0.0
 40
5.0
  0
CIRCLE
  5
44
  8
3
 10
70.0
 20
170.0
 30
0.0
 40
4.1879999999999988
  0
LINE
  5
45
  8
0
 10
72.499999997964323
 20
171.4433756717998
 30
0.0
 11
72.499999997964323
 21
168.55662432585211
 31
0.0
  0
LINE
  5
46
  8
0
 10
72.499999997962504
 20
168.55662432819989
 30
0.0
 11
69.999999997964323
 21
167.1132486552259
 31
0.0
  0
LINE
  5
47
  8
0
 10
69.999999999999773
 20
167.11324865640231
 30
0.0
 11
67.499999999999773
 21
168.55662432937589
 31
0.0
  0
LINE
  5
48
  8
0
 10
67.500000002033403
 20
168.55662432820179
 30
0.0
 11
67.500000002033403
 21
171.44337567414951
 31
0.0
  0
LINE
  5
49
  8
0
 10
67.500000002033403
 20
171.4433756717998
 30
0.0
 11
70.000000002033403
 21
172.88675134477381
 31
0.0
  0
LINE
  5
4A
  8
0
 10
69.999999999999773
 20
172.88675134359741
 30
0.0
 11
72.499999999999773
 21
171.44337567062379
 31
0.0
  0
LINE
  5
4B
  8
0
 10
139.99999999999989
 20
176.0
 30
0.0
 11
140.30000000000021
 21
176.0
 31
0.0
  0
LINE
  5
4C
  8
0
 10
123.9999999999999
 20
175.0
 30
0.0
 11
124.0
 21
165.0
 31
0.0
  0
LINE
  5
4D
  8
0
 10
123.0
 20
166.0
 30
0.0
 11
124.0
 21
165.0
 31
0.0
  0
LINE
  5
4E
  8
0
 10
123.9999999999999
 20
175.0
 30
0.0
 11
122.9999999999999
 21
174.0
 31
0.0
  0
LINE
  5
4F
  8
0
 10
137.0
 20
165.0
 30
0.0
 11
124.0
 21
165.0
 31
0.0
  0
LINE
  5
50
  8
3
 10
137.0
 20
165.8119999999999
 30
0.0
 11
123.1880000000001
 21
165.8119999999999
 31
0.0
  0
LINE
  5
51
  8
3
 10
136.99999999999989
 20
174.1880000000001
 30
0.0
 11
123.188
 21
174.1880000000001
 31
0.0
  0
LINE
  5
52
  8
0
 10
136.99999999999989
 20
175.0
 30
0.0
 11
123.9999999999999
 21
175.0
 31
0.0
  0
LINE
  5
53
  8
0
 10
122.9999999999999
 20
174.0
 30
0.0
 11
123.0
 21
166.0
 31
0.0
  0
ARC
  5
54
  8
0
 10
141.80000000000021
 20
159.89831112481971
 30
0.0
 40
1.5
 50
180.00000000000091
 51
265.98113925782621
  0
ARC
  5
55
  8
0
 10
141.79999999999981
 20
180.10168887518029
 30
0.0
 40
1.5
 50
94.018860742173814
 51
180.0000000000008
  0
LINE
  5
56
  8
0
 10
140.00000000000011
 20
164.0
 30
0.0
 11
140.3000000000001
 21
164.0
 31
0.0
  0
LINE
  5
57
  8
0
 10
183.0000000000002
 20
155.5
 30
0.0
 11
141.694870826813
 21
158.40199970771801
 31
0.0
  0
LINE
  5
58
  8
0
 10
141.6948740668671
 20
181.59800051992039
 30
0.0
 11
182.99999999999969
 21
184.5
 31
0.0
  0
LINE
  5
59
  8
0
 10
139.99999999999989
 20
176.0
 30
0.0
 11
140.0000000000002
 21
164.0
 31
0.0
  0
LINE
  5
5A
  8
2
 10
129.0
 20
172.88675134359809
 30
0.0
 11
130.66666666531
 21
169.9999999999998
 31
0.0
  0
LINE
  5
5B
  8
2
 10
129.0
 20
167.1132486564014
 30
0.0
 11
130.66666666531
 21
169.9999999999998
 31
0.0
  0
LINE
  5
5C
  8
2
 10
128.99999999999989
 20
172.88675134359849
 30
0.0
 11
129.0
 21
167.1132486564014
 31
0.0
  0
LINE
  5
5D
  8
2
 10
128.99999999999989
 20
172.88675134359849
 30
0.0
 11
122.9999999999999
 21
172.88675134359849
 31
0.0
  0
LINE
  5
5E
  8
2
 10
128.99999999999989
 20
171.44337567179889
 30
0.0
 11
122.9999999999999
 21
171.44337567179889
 31
0.0
  0
LINE
  5
5F
  8
2
 10
128.99999999999989
 20
168.556624328201
 30
0.0
 11
122.9999999999999
 21
168.556624328201
 31
0.0
  0
LINE
  5
60
  8
2
 10
128.99999999999989
 20
167.1132486564014
 30
0.0
 11
122.9999999999999
 21
167.1132486564014
 31
0.0
  0
LINE
  5
61
  8
0
 10
136.99999999999989
 20
175.0
 30
0.0
 11
136.99999999999989
 21
165.0
 31
0.0
  0
LINE
  5
62
  8
0
 10
137.7999999999999
 20
173.5
 30
0.0
 11
139.1999999999999
 21
173.5
 31
0.0
  0
ARC
  5
63
  8
0
 10
137.7999999999999
 20
174.30000000000001
 30
0.0
 40
0.8
 50
180.0
 51
269.99999999999989
  0
ARC
  5
64
  8
0
 10
139.1999999999999
 20
174.30000000000001
 30
0.0
 40
0.8
 50
270.0
 51
0.0000000000012977
  0
ARC
  5
65
  8
0
 10
139.1999999999999
 20
165.69999999999999
 30
0.0
 40
0.8
 50
359.99999999999881
 51
90.000000000000014
  0
ARC
  5
66
  8
0
 10
137.7999999999999
 20
165.69999999999999
 30
0.0
 40
0.8
 50
90.000000000000057
 51
180.0
  0
LINE
  5
67
  8
0
 10
137.7999999999999
 20
166.5
 30
0.0
 11
139.1999999999999
 21
166.5
 31
0.0
  0
LINE
  5
68
  8
0
 10
140.30000000000021
 20
180.10168887518029
 30
0.0
 11
140.30000000000021
 21
159.89830947300729
 31
0.0
  0
CIRCLE
  5
72
  8
0
 10
310.0
 20
170.0
 30
0.0
 40
14.5
  0
LINE
  5
73
  8
1
 10
329.5
 20
170.0
 30
0.0
 11
290.5
 21
170.0
 31
0.0
  0
LINE
  5
74
  8
1
 10
310.0
 20
189.5
 30
0.0
 11
310.0
 21
150.5
 31
0.0
  0
LINE
  5
75
  8
0
 10
140.30000000000021
 20
110.1016888751803
 30
0.0
 11
140.30000000000021
 21
89.898309473007288
 31
0.0
  0
LINE
  5
76
  8
0
 10
137.7999999999999
 20
96.5
 30
0.0
 11
139.1999999999999
 21
96.5
 31
0.0
  0
ARC
  5
77
  8
0
 10
137.7999999999999
 20
95.699999999999974
 30
0.0
 40
0.8
 50
90.000000000000057
 51
180.0
  0
ARC
  5
78
  8
0
 10
139.1999999999999
 20
95.699999999999974
 30
0.0
 40
0.8
 50
359.99999999999881
 51
90.000000000000014
  0
ARC
  5
79
  8
0
 10
139.1999999999999
 20
104.3
 30
0.0
 40
0.8
 50
270.0
 51
0.0000000000012977
  0
ARC
  5
7A
  8
0
 10
137.7999999999999
 20
104.3
 30
0.0
 40
0.8
 50
180.0
 51
269.99999999999989
  0
LINE
  5
7B
  8
0
 10
137.7999999999999
 20
103.5
 30
0.0
 11
139.1999999999999
 21
103.5
 31
0.0
  0
LINE
  5
7C
  8
0
 10
136.99999999999989
 20
105.0
 30
0.0
 11
136.99999999999989
 21
95.000000000000028
 31
0.0
  0
LINE
  5
7D
  8
2
 10
128.99999999999989
 20
102.5
 30
0.0
 11
128.99999999999989
 21
97.5
 31
0.0
  0
LINE
  5
7E
  8
0
 10
139.99999999999989
 20
106.0
 30
0.0
 11
140.0000000000002
 21
94.0
 31
0.0
  0
LINE
  5
7F
  8
0
 10
141.6948740668671
 20
111.5980005199204
 30
0.0
 11
182.99999999999969
 21
114.5
 31
0.0
  0
LINE
  5
80
  8
0
 10
183.0000000000002
 20
85.5
 30
0.0
 11
141.694870826813
 21
88.401999707718062
 31
0.0
  0
LINE
  5
81
  8
0
 10
140.00000000000011
 20
94.0
 30
0.0
 11
140.3000000000001
 21
94.0
 31
0.0
  0
ARC
  5
82
  8
0
 10
141.79999999999981
 20
110.1016888751803
 30
0.0
 40
1.5
 50
94.018860742173814
 51
180.0000000000008
  0
ARC
  5
83
  8
0
 10
141.80000000000021
 20
89.898311124819685
 30
0.0
 40
1.5
 50
180.00000000000091
 51
265.98113925782621
  0
LINE
  5
84
  8
0
 10
122.9999999999999
 20
104.0
 30
0.0
 11
123.0
 21
96.0
 31
0.0
  0
LINE
  5
85
  8
0
 10
136.99999999999989
 20
105.0
 30
0.0
 11
123.9999999999999
 21
105.0
 31
0.0
  0
LINE
  5
86
  8
3
 10
136.99999999999989
 20
104.1880000000001
 30
0.0
 11
123.188
 21
104.1880000000001
 31
0.0
  0
LINE
  5
87
  8
3
 10
137.0
 20
95.811999999999955
 30
0.0
 11
123.1880000000001
 21
95.811999999999927
 31
0.0
  0
LINE
  5
88
  8
0
 10
137.0
 20
95.000000000000028
 30
0.0
 11
124.0
 21
95.0
 31
0.0
  0
LINE
  5
89
  8
0
 10
123.9999999999999
 20
105.0
 30
0.0
 11
122.9999999999999
 21
104.0
 31
0.0
  0
LINE
  5
8A
  8
0
 10
123.0
 20
96.0
 30
0.0
 11
124.0
 21
95.0
 31
0.0
  0
LINE
  5
8B
  8
0
 10
123.9999999999999
 20
105.0
 30
0.0
 11
124.0
 21
95.0
 31
0.0
  0
LINE
  5
8C
  8
0
 10
139.99999999999989
 20
106.0
 30
0.0
 11
140.30000000000021
 21
106.0
 31
0.0
  0
LINE
  5
8D
  8
0
 10
182.9999999999998
 20
114.5
 30
0.0
 11
251.95922105519199
 21
114.5
 31
0.0
  0
LINE
  5
8E
  8
0
 10
251.95922105519199
 20
85.5
 30
0.0
 11
183.0000000000002
 21
85.5
 31
0.0
  0
LINE
  5
8F
  8
1
 10
118.0
 20
100.0
 30
0.0
 11
261.0
 21
100.0
 31
0.0
  0
ARC
  5
90
  8
0
 10
206.0
 20
100.0
 30
0.0
 40
50.0
 50
345.36670971596811
 51
14.63329028403194
  0
LINE
  5
91
  8
0
 10
253.85133226985431
 20
110.5475115548642
 30
0.0
 11
253.85133226985431
 21
89.452488445135799
 31
0.0
  0
ARC
  5
92
  8
0
 10
251.95922105519199
 20
112.0
 30
0.0
 40
2.5
 50
14.633290284032119
 51
90.0
  0
ARC
  5
93
  8
0
 10
251.95922105519199
 20
88.0
 30
0.0
 40
2.5
 50
270.0
 51
345.3667097159676
  0
LINE
  5
94
  8
0
 10
183.0
 20
85.5
 30
0.0
 11
183.0
 21
114.5
 31
0.0
  0
LINE
  5
95
  8
2
 10
128.99999999999989
 20
102.5
 30
0.0
 11
122.9999999999999
 21
102.5
 31
0.0
  0
LINE
  5
96
  8
2
 10
128.99999999999989
 20
97.500000000000014
 30
0.0
 11
122.9999999999999
 21
97.500000000000014
 31
0.0
  0
LINE
  5
97
  8
2
 10
128.99999999999989
 20
102.5
 30
0.0
 11
130.66666666530989
 21
100.0
 31
0.0
  0
LINE
  5
98
  8
2
 10
130.66666666530989
 20
100.0
 30
0.0
 11
128.99999999999989
 21
97.5
 31
0.0
  0
LINE
  5
99
  8
2
 10
128.99999999999989
 20
99.999999999999986
 30
0.0
 11
122.9999999999999
 21
99.999999999999986
 31
0.0
  0
TEXT
  5
1E4
  8
0
 62
     3
 10
0.0
 20
0.0
 30
0.0
 40
10.0
  1
RG115
  7
STANDARD1
  0
ENDSEC
  0
EOF
