  0
SECTION
  2
HEADER
  9
$ACADVER
  1
AC1009
  9
$INSBASE
 10
0.0
 20
0.0
 30
0.0
  9
$EXTMIN
 10
0.0
 20
-2.960436562073669
 30
0.0
  9
$EXTMAX
 10
136.0
 20
87.0
 30
0.0
  9
$LIMMIN
 10
0.0
 20
0.0
  9
$LIMMAX
 10
192.5
 20
135.0
  9
$ORTHOMODE
 70
     1
  9
$REGENMODE
 70
     1
  9
$FILLMODE
 70
     1
  9
$QTEXTMODE
 70
     0
  9
$MIRRTEXT
 70
     0
  9
$DRAGMODE
 70
     2
  9
$LTSCALE
 40
5.0
  9
$OSMODE
 70
    37
  9
$ATTMODE
 70
     1
  9
$TEXTSIZE
 40
4.0
  9
$TRACEWID
 40
0.05
  9
$TEXTSTYLE
  7
STANDARD
  9
$CLAYER
  8
0
  9
$CELTYPE
  6
BYLAYER
  9
$CECOLOR
 62
   256
  9
$DIMSCALE
 40
0.5
  9
$DIMASZ
 40
3.0
  9
$DIMEXO
 40
1.0
  9
$DIMDLI
 40
6.0
  9
$DIMRND
 40
0.0
  9
$DIMDLE
 40
0.0
  9
$DIMEXE
 40
1.0
  9
$DIMTP
 40
495.0
  9
$DIMTM
 40
0.0
  9
$DIMTXT
 40
3.0
  9
$DIMCEN
 40
0.0
  9
$DIMTSZ
 40
0.0
  9
$DIMTOL
 70
     0
  9
$DIMLIM
 70
     0
  9
$DIMTIH
 70
     0
  9
$DIMTOH
 70
     0
  9
$DIMSE1
 70
     0
  9
$DIMSE2
 70
     0
  9
$DIMTAD
 70
     1
  9
$DIMZIN
 70
     0
  9
$DIMBLK
  1

  9
$DIMASO
 70
     1
  9
$DIMSHO
 70
     0
  9
$DIMPOST
  1

  9
$DIMAPOST
  1

  9
$DIMALT
 70
     0
  9
$DIMALTD
 70
     2
  9
$DIMALTF
 40
25.399999999999999
  9
$DIMLFAC
 40
1.0
  9
$DIMTOFL
 70
     1
  9
$DIMTVP
 40
0.0
  9
$DIMTIX
 70
     1
  9
$DIMSOXD
 70
     0
  9
$DIMSAH
 70
     0
  9
$DIMBLK1
  1

  9
$DIMBLK2
  1

  9
$DIMSTYLE
  2
STANDARD
  9
$DIMCLRD
 70
     0
  9
$DIMCLRE
 70
     0
  9
$DIMCLRT
 70
     4
  9
$DIMTFAC
 40
1.0
  9
$DIMGAP
 40
1.0
  9
$LUNITS
 70
     2
  9
$LUPREC
 70
     1
  9
$SKETCHINC
 40
0.1
  9
$FILLETRAD
 40
0.0
  9
$AUNITS
 70
     0
  9
$AUPREC
 70
     1
  9
$MENU
  1
E:\r13\win\SUPPORT\ACAD
  9
$ELEVATION
 40
0.0
  9
$PELEVATION
 40
0.0
  9
$THICKNESS
 40
0.0
  9
$LIMCHECK
 70
     0
  9
$BLIPMODE
 70
     0
  9
$CHAMFERA
 40
0.0
  9
$CHAMFERB
 40
0.0
  9
$SKPOLY
 70
     0
  9
$TDCREATE
 40
2450541.3939600689
  9
$TDUPDATE
 40
2457163.6115826741
  9
$TDINDWG
 40
0.0587673495
  9
$TDUSRTIMER
 40
0.0587673495
  9
$USRTIMER
 70
     1
  9
$ANGBASE
 50
0.0
  9
$ANGDIR
 70
     0
  9
$PDMODE
 70
     0
  9
$PDSIZE
 40
0.0
  9
$PLINEWID
 40
0.0
  9
$COORDS
 70
     1
  9
$SPLFRAME
 70
     0
  9
$SPLINETYPE
 70
     6
  9
$SPLINESEGS
 70
     8
  9
$ATTDIA
 70
     0
  9
$ATTREQ
 70
     1
  9
$HANDLING
 70
     1
  9
$HANDSEED
  5
149E
  9
$SURFTAB1
 70
     6
  9
$SURFTAB2
 70
     6
  9
$SURFTYPE
 70
     6
  9
$SURFU
 70
     6
  9
$SURFV
 70
     6
  9
$UCSNAME
  2

  9
$UCSORG
 10
0.0
 20
0.0
 30
0.0
  9
$UCSXDIR
 10
1.0
 20
0.0
 30
0.0
  9
$UCSYDIR
 10
0.0
 20
1.0
 30
0.0
  9
$PUCSNAME
  2

  9
$PUCSORG
 10
0.0
 20
0.0
 30
0.0
  9
$PUCSXDIR
 10
1.0
 20
0.0
 30
0.0
  9
$PUCSYDIR
 10
0.0
 20
1.0
 30
0.0
  9
$USERI1
 70
     3
  9
$USERI2
 70
     1
  9
$USERI3
 70
     1
  9
$USERI4
 70
     0
  9
$USERI5
 70
     0
  9
$USERR1
 40
0.5
  9
$USERR2
 40
3.0
  9
$USERR3
 40
3.0
  9
$USERR4
 40
3.0
  9
$USERR5
 40
10.0
  9
$WORLDVIEW
 70
     1
  9
$SHADEDGE
 70
     3
  9
$SHADEDIF
 70
    70
  9
$TILEMODE
 70
     1
  9
$MAXACTVP
 70
    16
  9
$PLIMCHECK
 70
     0
  9
$PEXTMIN
 10
1.0000000000000000E+020
 20
1.0000000000000000E+020
 30
1.0000000000000000E+020
  9
$PEXTMAX
 10
-1.0000000000000000E+020
 20
-1.0000000000000000E+020
 30
-1.0000000000000000E+020
  9
$PLIMMIN
 10
0.0
 20
0.0
  9
$PLIMMAX
 10
12.0
 20
9.0
  9
$UNITMODE
 70
     0
  9
$VISRETAIN
 70
     0
  9
$PLINEGEN
 70
     0
  9
$PSLTSCALE
 70
     0
  0
ENDSEC
  0
SECTION
  2
TABLES
  0
TABLE
  2
VPORT
 70
     1
  0
VPORT
  2
*ACTIVE
 70
     0
 10
0.0
 20
0.0
 11
1.0
 21
1.0
 12
181.62393162393161
 22
100.0
 13
0.0
 23
0.0
 14
2.5
 24
2.5
 15
10.0
 25
10.0
 16
0.0
 26
0.0
 36
1.0
 17
0.0
 27
0.0
 37
0.0
 40
200.0
 41
1.816239316239316
 42
50.0
 43
0.0
 44
0.0
 50
0.0
 51
0.0
 71
     0
 72
   100
 73
     1
 74
     0
 75
     0
 76
     0
 77
     0
 78
     0
  0
ENDTAB
  0
TABLE
  2
LTYPE
 70
     4
  0
LTYPE
  2
CONTINUOUS
 70
     0
  3
Solid Line
 72
    65
 73
     0
 40
0.0
  0
LTYPE
  2
CENTER
 70
     0
  3
____ _ ____ _ ____ _ ____ _ ____ _ ____ _ ____
 72
    65
 73
     4
 40
2.0
 49
1.25
 49
-0.25
 49
0.25
 49
-0.25
  0
LTYPE
  2
PHANTOM2
 70
     0
  3
___ _ _ ___ _ _ ___ _ _ ___ _ _
 72
    65
 73
     6
 40
1.25
 49
0.625
 49
-0.125
 49
0.125
 49
-0.125
 49
0.125
 49
-0.125
  0
LTYPE
  2
HIDDEN
 70
     0
  3
_ _ _ _ _ _ _ _ _ _ _ _ _ _ _ _ _ _ _ _ _ _ _
 72
    65
 73
     2
 40
0.375
 49
0.25
 49
-0.125
  0
ENDTAB
  0
TABLE
  2
LAYER
 70
     4
  0
LAYER
  2
0
 70
     0
 62
     7
  6
CONTINUOUS
  0
LAYER
  2
3
 70
     0
 62
     3
  6
CONTINUOUS
  0
LAYER
  2
1
 70
     0
 62
     1
  6
CENTER
  0
LAYER
  2
2
 70
     0
 62
     2
  6
HIDDEN
  0
ENDTAB
  0
TABLE
  2
STYLE
 70
     2
  0
STYLE
  2
STANDARD
 70
     0
 40
0.0
 41
1.0
 50
0.0
 71
     0
 42
4.0
  3
SIMPLEX
  4
BIGFONT
  0
STYLE
  2
STANDARD1
 70
     0
 40
0.0
 41
1.0
 50
0.0
 71
     0
 42
3.0
  3
txt
  4

  0
ENDTAB
  0
TABLE
  2
VIEW
 70
     0
  0
ENDTAB
  0
TABLE
  2
UCS
 70
     0
  0
ENDTAB
  0
TABLE
  2
APPID
 70
    17
  0
APPID
  2
ACAD
 70
     0
  0
APPID
  2
ASM_BASE
 70
     0
  0
APPID
  2
ASM_EXPLO_VER_2_00
 70
     0
  0
APPID
  2
ASM_CADM_VER_12_00
 70
     0
  0
APPID
  2
ASM_BASEFORO
 70
     0
  0
APPID
  2
ASM_BASETRAVI
 70
     0
  0
APPID
  2
ASM_BASETRAVI1
 70
     0
  0
APPID
  2
ASM_GRUPPI
 70
     0
  0
APPID
  2
ASM_CADM_ALBERO
 70
     0
  0
APPID
  2
ASM_GOLE
 70
     0
  0
APPID
  2
ACAD_MLEADERVER
 70
     0
  0
APPID
  2
ACAD_EXEMPT_FROM_CAD_STANDARDS
 70
     0
  0
APPID
  2
ACAD_NAV_VCDISPLAY
 70
     0
  0
APPID
  2
ACAD_DSTYLE_DIMJAG
 70
     0
  0
APPID
  2
ACAD_DSTYLE_DIMTALN
 70
     0
  0
APPID
  2
ACAECLAYERSTANDARD
 70
     0
  0
APPID
  2
ACCMTRANSPARENCY
 70
     0
  0
ENDTAB
  0
TABLE
  2
DIMSTYLE
 70
     1
  0
DIMSTYLE
  2
STANDARD
 70
     0
  3

  4

  5

  6

  7

 40
1.0
 41
0.18
 42
0.0625
 43
0.38
 44
0.18
 45
0.0
 46
0.0
 47
0.0
 48
0.0
140
0.18
141
0.09
142
0.0
143
25.399999999999999
144
1.0
145
0.0
146
1.0
147
0.09
 71
     0
 72
     0
 73
     1
 74
     1
 75
     0
 76
     0
 77
     0
 78
     0
170
     0
171
     2
172
     0
173
     0
174
     0
175
     0
176
     0
177
     0
178
     0
  0
ENDTAB
  0
ENDSEC
  0
SECTION
  2
BLOCKS
  0
BLOCK
  8
0
  2
$MODEL_SPACE
 70
     0
 10
0.0
 20
0.0
 30
0.0
  3
$MODEL_SPACE
  1

  0
ENDBLK
  5
857
  8
0
  0
BLOCK
 67
     1
  8
0
  2
$PAPER_SPACE
 70
     0
 10
0.0
 20
0.0
 30
0.0
  3
$PAPER_SPACE
  1

  0
ENDBLK
  5
855
 67
     1
  8
0
  0
ENDSEC
  0
SECTION
  2
ENTITIES
  0
TEXT
  5
A23
  8
0
 62
     3
 10
0.0
 20
0.0
 30
0.0
 40
10.0
  1
RG20SD-M4
  7
STANDARD1
  0
LINE
  5
1024
  8
2
 10
100.5
 20
51.154700538379238
 30
0.0
 11
103.0
 21
51.154700538379238
 31
0.0
  0
LINE
  5
1025
  8
2
 10
100.5
 20
48.845299461620748
 30
0.0
 11
103.0
 21
48.845299461620748
 31
0.0
  0
LINE
  5
1026
  8
2
 10
100.5
 20
51.154700538379238
 30
0.0
 11
100.5
 21
48.845299461620748
 31
0.0
  0
LINE
  5
1027
  8
2
 10
99.922649730810377
 20
50.0
 30
0.0
 11
100.5
 21
51.0
 31
0.0
  0
LINE
  5
1028
  8
2
 10
100.5
 20
49.0
 30
0.0
 11
99.922649730810377
 21
50.0
 31
0.0
  0
LINE
  5
1029
  8
2
 10
100.5
 20
49.42264973081037
 30
0.0
 11
103.0
 21
49.42264973081037
 31
0.0
  0
LINE
  5
102A
  8
2
 10
100.5
 20
50.577350269189623
 30
0.0
 11
103.0
 21
50.577350269189623
 31
0.0
  0
LINE
  5
102B
  8
1
 10
105.0
 20
50.0
 30
0.0
 11
73.0
 21
50.0
 31
0.0
  0
LINE
  5
102C
  8
0
 10
96.0
 20
48.599999999999987
 30
0.0
 11
95.0
 21
48.599999999999987
 31
0.0
  0
LINE
  5
102D
  8
0
 10
95.0
 20
51.399999999999999
 30
0.0
 11
96.0
 21
51.399999999999999
 31
0.0
  0
LINE
  5
102E
  8
0
 10
103.0
 20
48.429499999999997
 30
0.0
 11
102.5705
 21
48.0
 31
0.0
  0
LINE
  5
102F
  8
0
 10
102.5705
 20
52.0
 30
0.0
 11
103.0
 21
51.570499999999988
 31
0.0
  0
LINE
  5
1030
  8
0
 10
103.0
 20
51.570499999999988
 30
0.0
 11
103.0
 21
48.429499999999997
 31
0.0
  0
LINE
  5
1031
  8
0
 10
102.5705
 20
48.0
 30
0.0
 11
96.42949999999999
 21
48.0
 31
0.0
  0
LINE
  5
1032
  8
0
 10
96.42949999999999
 20
52.0
 30
0.0
 11
102.5705
 21
52.0
 31
0.0
  0
LINE
  5
1033
  8
0
 10
102.5705
 20
52.0
 30
0.0
 11
102.5705
 21
48.0
 31
0.0
  0
LINE
  5
1034
  8
0
 10
96.0
 20
51.570499999999988
 30
0.0
 11
96.42949999999999
 21
52.0
 31
0.0
  0
LINE
  5
1035
  8
0
 10
96.42949999999999
 20
48.0
 30
0.0
 11
96.0
 21
48.429499999999997
 31
0.0
  0
LINE
  5
1036
  8
0
 10
96.0
 20
51.570499999999988
 30
0.0
 11
96.0
 21
48.429499999999997
 31
0.0
  0
LINE
  5
1037
  8
0
 10
96.42949999999999
 20
52.0
 30
0.0
 11
96.42949999999999
 21
48.0
 31
0.0
  0
LINE
  5
1038
  8
0
 10
95.0
 20
46.749999999999993
 30
0.0
 11
94.699999999999974
 21
46.749999999999993
 31
0.0
  0
LINE
  5
1039
  8
0
 10
94.699999999999974
 20
53.25
 30
0.0
 11
95.0
 21
53.25
 31
0.0
  0
LINE
  5
103A
  8
0
 10
95.0
 20
53.25
 30
0.0
 11
95.0
 21
46.749999999999993
 31
0.0
  0
ARC
  5
103B
  8
0
 10
93.499999999999915
 20
50.000000000000007
 30
0.0
 40
18.499999999999901
 50
163.89153194038869
 51
196.10846805961131
  0
ARC
  5
103C
  8
0
 10
76.879229861405321
 20
45.200000000000003
 30
0.0
 40
1.1999999999999971
 50
196.1084695473304
 51
270.0
  0
ARC
  5
103D
  8
0
 10
76.879229861405321
 20
54.799999999999997
 30
0.0
 40
1.1999999999999951
 50
90.0
 51
163.89153045266909
  0
POLYLINE
  5
103F
  8
0
 66
     1
 10
0.0
 20
0.0
 30
0.0
 70
     8
  0
VERTEX
  5
1040
  8
0
 10
79.00128989021087
 20
44.0
 30
0.0
 70
    32
  0
VERTEX
  5
1041
  8
0
 10
79.005619252652707
 20
44.001427060544678
 30
0.0
 70
    32
  0
VERTEX
  5
1042
  8
0
 10
79.02227539157937
 20
44.00564606619723
 30
0.0
 70
    32
  0
VERTEX
  5
1043
  8
0
 10
79.050670085357325
 20
44.012811206421759
 30
0.0
 70
    32
  0
VERTEX
  5
1044
  8
0
 10
79.089765651022134
 20
44.022616263381863
 30
0.0
 70
    32
  0
VERTEX
  5
1045
  8
0
 10
79.137119582491522
 20
44.034401082494263
 30
0.0
 70
    32
  0
VERTEX
  5
1046
  8
0
 10
79.192977606653614
 20
44.048172916260583
 30
0.0
 70
    32
  0
VERTEX
  5
1047
  8
0
 10
79.32994414520283
 20
44.081351292501353
 30
0.0
 70
    32
  0
VERTEX
  5
1048
  8
0
 10
79.464400239357303
 20
44.113105166489227
 30
0.0
 70
    32
  0
VERTEX
  5
1049
  8
0
 10
79.613471486860959
 20
44.147377575184599
 30
0.0
 70
    32
  0
VERTEX
  5
104A
  8
0
 10
79.7788310034002
 20
44.184239710750759
 30
0.0
 70
    32
  0
VERTEX
  5
104B
  8
0
 10
79.954431027146683
 20
44.222072330585569
 30
0.0
 70
    32
  0
VERTEX
  5
104C
  8
0
 10
80.164583116614807
 20
44.265559230206598
 30
0.0
 70
    32
  0
VERTEX
  5
104D
  8
0
 10
80.383743422854707
 20
44.308872262918293
 30
0.0
 70
    32
  0
VERTEX
  5
104E
  8
0
 10
80.609911437001074
 20
44.351399800825519
 30
0.0
 70
    32
  0
VERTEX
  5
104F
  8
0
 10
80.96847147343675
 20
44.414279846003467
 30
0.0
 70
    32
  0
VERTEX
  5
1050
  8
0
 10
81.337593618024385
 20
44.473286339349201
 30
0.0
 70
    32
  0
VERTEX
  5
1051
  8
0
 10
81.799938891691767
 20
44.538989194632578
 30
0.0
 70
    32
  0
VERTEX
  5
1052
  8
0
 10
82.271673656664831
 20
44.596787473390187
 30
0.0
 70
    32
  0
VERTEX
  5
1053
  8
0
 10
82.749711443352524
 20
44.645904935989137
 30
0.0
 70
    32
  0
VERTEX
  5
1054
  8
0
 10
83.244723381884555
 20
44.68669631516962
 30
0.0
 70
    32
  0
VERTEX
  5
1055
  8
0
 10
83.743682220999645
 20
44.717580749265181
 30
0.0
 70
    32
  0
VERTEX
  5
1056
  8
0
 10
84.244854535249644
 20
44.738299865311092
 30
0.0
 70
    32
  0
VERTEX
  5
1057
  8
0
 10
84.778126912843845
 20
44.748968764572901
 30
0.0
 70
    32
  0
VERTEX
  5
1058
  8
0
 10
85.312134017753507
 20
44.747979986076579
 30
0.0
 70
    32
  0
VERTEX
  5
1059
  8
0
 10
85.845217047956325
 20
44.735341400354883
 30
0.0
 70
    32
  0
VERTEX
  5
105A
  8
0
 10
86.387336535076088
 20
44.710455511596109
 30
0.0
 70
    32
  0
VERTEX
  5
105B
  8
0
 10
86.926537183540574
 20
44.673715098995899
 30
0.0
 70
    32
  0
VERTEX
  5
105C
  8
0
 10
87.460506367422013
 20
44.625495529285068
 30
0.0
 70
    32
  0
VERTEX
  5
105D
  8
0
 10
87.842346397813884
 20
44.583707428822791
 30
0.0
 70
    32
  0
VERTEX
  5
105E
  8
0
 10
88.219626499455373
 20
44.53642856298039
 30
0.0
 70
    32
  0
VERTEX
  5
105F
  8
0
 10
88.594518090106533
 20
44.483499921587267
 30
0.0
 70
    32
  0
VERTEX
  5
1060
  8
0
 10
88.961828488574781
 20
44.425873997156877
 30
0.0
 70
    32
  0
VERTEX
  5
1061
  8
0
 10
89.316898488162536
 20
44.364675010696189
 30
0.0
 70
    32
  0
VERTEX
  5
1062
  8
0
 10
89.659194843167711
 20
44.30056223818783
 30
0.0
 70
    32
  0
VERTEX
  5
1063
  8
0
 10
89.884307390813973
 20
44.255606150511369
 30
0.0
 70
    32
  0
VERTEX
  5
1064
  8
0
 10
90.099719237363104
 20
44.210534305793338
 30
0.0
 70
    32
  0
VERTEX
  5
1065
  8
0
 10
90.302369897505002
 20
44.166290391024027
 30
0.0
 70
    32
  0
VERTEX
  5
1066
  8
0
 10
90.417508484473387
 20
44.14033591706086
 30
0.0
 70
    32
  0
VERTEX
  5
1067
  8
0
 10
90.526009628155236
 20
44.115342090827923
 30
0.0
 70
    32
  0
VERTEX
  5
1068
  8
0
 10
90.628360767317872
 20
44.091284384248382
 30
0.0
 70
    32
  0
VERTEX
  5
1069
  8
0
 10
90.721460318570962
 20
44.06899748508085
 30
0.0
 70
    32
  0
VERTEX
  5
106A
  8
0
 10
90.802828620491681
 20
44.049200983746907
 30
0.0
 70
    32
  0
VERTEX
  5
106B
  8
0
 10
90.872218057387485
 20
44.032085198445138
 30
0.0
 70
    32
  0
VERTEX
  5
106C
  8
0
 10
90.929677567945689
 20
44.017749117467403
 30
0.0
 70
    32
  0
VERTEX
  5
106D
  8
0
 10
90.970925688707212
 20
44.007364913819693
 30
0.0
 70
    32
  0
VERTEX
  5
106E
  8
0
 10
90.990008666643718
 20
44.002535749332047
 30
0.0
 70
    32
  0
VERTEX
  5
106F
  8
0
 10
90.999174306385413
 20
44.000209684606091
 30
0.0
 70
    32
  0
VERTEX
  5
1070
  8
0
 10
90.999999999999801
 20
44.00000000000005
 30
0.0
 70
    32
  0
SEQEND
  5
1071
  8
0
  0
POLYLINE
  5
1072
  8
0
 66
     1
 10
0.0
 20
0.0
 30
0.0
 70
     8
  0
VERTEX
  5
1073
  8
0
 10
91.0
 20
56.0
 30
0.0
 70
    32
  0
VERTEX
  5
1074
  8
0
 10
90.994380747347265
 20
55.998572939455308
 30
0.0
 70
    32
  0
VERTEX
  5
1075
  8
0
 10
90.977724608420601
 20
55.99435393380277
 30
0.0
 70
    32
  0
VERTEX
  5
1076
  8
0
 10
90.949329914642647
 20
55.987188793578241
 30
0.0
 70
    32
  0
VERTEX
  5
1077
  8
0
 10
90.910234348977866
 20
55.977383736618137
 30
0.0
 70
    32
  0
VERTEX
  5
1078
  8
0
 10
90.862880417508464
 20
55.965598917505737
 30
0.0
 70
    32
  0
VERTEX
  5
1079
  8
0
 10
90.807022393346358
 20
55.951827083739403
 30
0.0
 70
    32
  0
VERTEX
  5
107A
  8
0
 10
90.670055854797184
 20
55.918648707498647
 30
0.0
 70
    32
  0
VERTEX
  5
107B
  8
0
 10
90.535599760642668
 20
55.886894833510759
 30
0.0
 70
    32
  0
VERTEX
  5
107C
  8
0
 10
90.386528513139012
 20
55.852622424815387
 30
0.0
 70
    32
  0
VERTEX
  5
107D
  8
0
 10
90.2211689965998
 20
55.815760289249241
 30
0.0
 70
    32
  0
VERTEX
  5
107E
  8
0
 10
90.045568972853303
 20
55.777927669414417
 30
0.0
 70
    32
  0
VERTEX
  5
107F
  8
0
 10
89.835416883385165
 20
55.734440769793387
 30
0.0
 70
    32
  0
VERTEX
  5
1080
  8
0
 10
89.616256577145265
 20
55.6911277370817
 30
0.0
 70
    32
  0
VERTEX
  5
1081
  8
0
 10
89.390088562998926
 20
55.648600199174481
 30
0.0
 70
    32
  0
VERTEX
  5
1082
  8
0
 10
89.031528526563235
 20
55.585720153996519
 30
0.0
 70
    32
  0
VERTEX
  5
1083
  8
0
 10
88.662406381975615
 20
55.526713660650799
 30
0.0
 70
    32
  0
VERTEX
  5
1084
  8
0
 10
88.200061108308219
 20
55.461010805367422
 30
0.0
 70
    32
  0
VERTEX
  5
1085
  8
0
 10
87.728326343335141
 20
55.403212526609821
 30
0.0
 70
    32
  0
VERTEX
  5
1086
  8
0
 10
87.25028855664749
 20
55.35409506401087
 30
0.0
 70
    32
  0
VERTEX
  5
1087
  8
0
 10
86.755276618115431
 20
55.313303684830373
 30
0.0
 70
    32
  0
VERTEX
  5
1088
  8
0
 10
86.256317779000341
 20
55.282419250734819
 30
0.0
 70
    32
  0
VERTEX
  5
1089
  8
0
 10
85.75514546475037
 20
55.261700134688923
 30
0.0
 70
    32
  0
VERTEX
  5
108A
  8
0
 10
85.221873087156155
 20
55.251031235427099
 30
0.0
 70
    32
  0
VERTEX
  5
108B
  8
0
 10
84.687865982246507
 20
55.252020013923413
 30
0.0
 70
    32
  0
VERTEX
  5
108C
  8
0
 10
84.154782952043689
 20
55.264658599645117
 30
0.0
 70
    32
  0
VERTEX
  5
108D
  8
0
 10
83.612663464923941
 20
55.289544488403891
 30
0.0
 70
    32
  0
VERTEX
  5
108E
  8
0
 10
83.073462816459454
 20
55.326284901004108
 30
0.0
 70
    32
  0
VERTEX
  5
108F
  8
0
 10
82.539493632578015
 20
55.374504470714918
 30
0.0
 70
    32
  0
VERTEX
  5
1090
  8
0
 10
82.157653602186116
 20
55.41629257117723
 30
0.0
 70
    32
  0
VERTEX
  5
1091
  8
0
 10
81.780373500544613
 20
55.463571437019603
 30
0.0
 70
    32
  0
VERTEX
  5
1092
  8
0
 10
81.405481909893467
 20
55.516500078412733
 30
0.0
 70
    32
  0
VERTEX
  5
1093
  8
0
 10
81.038171511425205
 20
55.574126002843101
 30
0.0
 70
    32
  0
VERTEX
  5
1094
  8
0
 10
80.683101511837506
 20
55.635324989303811
 30
0.0
 70
    32
  0
VERTEX
  5
1095
  8
0
 10
80.340805156832317
 20
55.699437761812163
 30
0.0
 70
    32
  0
VERTEX
  5
1096
  8
0
 10
80.115692609186056
 20
55.744393849488631
 30
0.0
 70
    32
  0
VERTEX
  5
1097
  8
0
 10
79.900280762636896
 20
55.789465694206648
 30
0.0
 70
    32
  0
VERTEX
  5
1098
  8
0
 10
79.697630102495026
 20
55.833709608975958
 30
0.0
 70
    32
  0
VERTEX
  5
1099
  8
0
 10
79.582491515526641
 20
55.859664082939133
 30
0.0
 70
    32
  0
VERTEX
  5
109A
  8
0
 10
79.473990371844792
 20
55.884657909172077
 30
0.0
 70
    32
  0
VERTEX
  5
109B
  8
0
 10
79.371639232682114
 20
55.908715615751618
 30
0.0
 70
    32
  0
VERTEX
  5
109C
  8
0
 10
79.278539681429066
 20
55.93100251491915
 30
0.0
 70
    32
  0
VERTEX
  5
109D
  8
0
 10
79.197171379508319
 20
55.950799016253079
 30
0.0
 70
    32
  0
VERTEX
  5
109E
  8
0
 10
79.127781942612557
 20
55.967914801554848
 30
0.0
 70
    32
  0
VERTEX
  5
109F
  8
0
 10
79.070322432054297
 20
55.982250882532597
 30
0.0
 70
    32
  0
VERTEX
  5
10A0
  8
0
 10
79.029074311292774
 20
55.992635086180293
 30
0.0
 70
    32
  0
VERTEX
  5
10A1
  8
0
 10
79.009991333356282
 20
55.997464250667939
 30
0.0
 70
    32
  0
VERTEX
  5
10A2
  8
0
 10
79.001289883068424
 20
56.0
 30
0.0
 70
    32
  0
VERTEX
  5
10A3
  8
0
 10
79.001289883068424
 20
56.0
 30
0.0
 70
    32
  0
SEQEND
  5
10A4
  8
0
  0
LINE
  5
10A5
  8
0
 10
94.699999999999974
 20
44.0
 30
0.0
 11
90.999999999999972
 21
44.0
 31
0.0
  0
LINE
  5
10A6
  8
0
 10
79.00128989021087
 20
44.0
 30
0.0
 11
76.879229861405321
 21
44.0
 31
0.0
  0
LINE
  5
10A7
  8
0
 10
76.879229861405321
 20
56.0
 30
0.0
 11
79.001289883068424
 21
56.0
 31
0.0
  0
LINE
  5
10A8
  8
0
 10
90.999999999999972
 20
56.0
 30
0.0
 11
94.699999999999974
 21
56.0
 31
0.0
  0
LINE
  5
10A9
  8
0
 10
76.879229861405321
 20
56.0
 30
0.0
 11
76.879229861405321
 21
44.0
 31
0.0
  0
LINE
  5
10AA
  8
0
 10
94.699999999999974
 20
56.0
 30
0.0
 11
94.699999999999974
 21
44.0
 31
0.0
  0
LINE
  5
10AB
  8
3
 10
103.0
 20
51.570499999999988
 30
0.0
 11
96.0
 21
51.570499999999988
 31
0.0
  0
LINE
  5
10AC
  8
3
 10
103.0
 20
48.429499999999997
 30
0.0
 11
96.0
 21
48.429499999999997
 31
0.0
  0
LINE
  5
1136
  8
2
 10
100.5
 20
82.0
 30
0.0
 11
103.0
 21
82.0
 31
0.0
  0
LINE
  5
1137
  8
2
 10
100.5
 20
80.0
 30
0.0
 11
103.0
 21
80.0
 31
0.0
  0
LINE
  5
1138
  8
2
 10
100.5
 20
82.0
 30
0.0
 11
100.5
 21
80.0
 31
0.0
  0
LINE
  5
1139
  8
2
 10
99.922649730810377
 20
81.0
 30
0.0
 11
100.5
 21
82.0
 31
0.0
  0
LINE
  5
113A
  8
2
 10
100.5
 20
80.0
 30
0.0
 11
99.922649730810377
 21
81.0
 31
0.0
  0
LINE
  5
113B
  8
2
 10
100.5
 20
81.0
 30
0.0
 11
103.0
 21
81.0
 31
0.0
  0
LINE
  5
113F
  8
1
 10
105.0
 20
81.0
 30
0.0
 11
73.0
 21
81.0
 31
0.0
  0
LINE
  5
1140
  8
0
 10
96.0
 20
79.599999999999994
 30
0.0
 11
95.0
 21
79.599999999999994
 31
0.0
  0
LINE
  5
1141
  8
0
 10
95.0
 20
82.400000000000006
 30
0.0
 11
96.0
 21
82.400000000000006
 31
0.0
  0
LINE
  5
1142
  8
0
 10
103.0
 20
82.570499999999996
 30
0.0
 11
103.0
 21
79.429500000000004
 31
0.0
  0
LINE
  5
1143
  8
0
 10
103.0
 20
79.429500000000004
 30
0.0
 11
102.5705
 21
79.0
 31
0.0
  0
LINE
  5
1144
  8
0
 10
102.5705
 20
83.0
 30
0.0
 11
103.0
 21
82.570499999999996
 31
0.0
  0
LINE
  5
1145
  8
0
 10
96.0
 20
82.570499999999996
 30
0.0
 11
96.0
 21
79.429500000000004
 31
0.0
  0
LINE
  5
1146
  8
0
 10
96.0
 20
82.570499999999996
 30
0.0
 11
96.42949999999999
 21
83.0
 31
0.0
  0
LINE
  5
1147
  8
0
 10
96.42949999999999
 20
79.0
 30
0.0
 11
96.0
 21
79.429500000000004
 31
0.0
  0
LINE
  5
1148
  8
0
 10
96.42949999999999
 20
83.0
 30
0.0
 11
96.42949999999999
 21
79.0
 31
0.0
  0
LINE
  5
1149
  8
0
 10
102.5705
 20
83.0
 30
0.0
 11
102.5705
 21
79.0
 31
0.0
  0
LINE
  5
114A
  8
0
 10
102.5705
 20
79.0
 30
0.0
 11
96.42949999999999
 21
79.0
 31
0.0
  0
LINE
  5
114B
  8
0
 10
96.42949999999999
 20
83.0
 30
0.0
 11
102.5705
 21
83.0
 31
0.0
  0
LINE
  5
114C
  8
0
 10
95.0
 20
84.25
 30
0.0
 11
95.0
 21
77.75
 31
0.0
  0
LINE
  5
114D
  8
0
 10
95.0
 20
77.75
 30
0.0
 11
94.699999999999974
 21
77.75
 31
0.0
  0
LINE
  5
114E
  8
0
 10
94.699999999999974
 20
84.25
 30
0.0
 11
95.0
 21
84.25
 31
0.0
  0
ARC
  5
114F
  8
0
 10
93.499999999999915
 20
81.0
 30
0.0
 40
18.499999999999901
 50
163.89153194038869
 51
196.10846805961131
  0
ARC
  5
1151
  8
0
 10
76.879229861405321
 20
76.200000000000003
 30
0.0
 40
1.1999999999999971
 50
196.1084695473304
 51
270.0
  0
ARC
  5
1152
  8
0
 10
76.879229861405321
 20
85.800000000000011
 30
0.0
 40
1.1999999999999951
 50
90.0
 51
163.8915304526696
  0
LINE
  5
1153
  8
0
 10
76.879229861405321
 20
87.0
 30
0.0
 11
76.879229861405321
 21
75.0
 31
0.0
  0
POLYLINE
  5
1154
  8
0
 66
     1
 10
0.0
 20
0.0
 30
0.0
 70
     8
  0
VERTEX
  5
1155
  8
0
 10
90.999999999999972
 20
81.0
 30
0.0
 70
    32
  0
VERTEX
  5
1156
  8
0
 10
90.994380747347265
 20
80.86938384348899
 30
0.0
 70
    32
  0
VERTEX
  5
1157
  8
0
 10
90.977724608420601
 20
80.739767572537076
 30
0.0
 70
    32
  0
VERTEX
  5
1158
  8
0
 10
90.949329914642647
 20
80.608185458241422
 30
0.0
 70
    32
  0
VERTEX
  5
1159
  8
0
 10
90.910234348977866
 20
80.479535145074166
 30
0.0
 70
    32
  0
VERTEX
  5
115A
  8
0
 10
90.862880417508464
 20
80.358435506616672
 30
0.0
 70
    32
  0
VERTEX
  5
115B
  8
0
 10
90.807022393346358
 20
80.241215204905899
 30
0.0
 70
    32
  0
VERTEX
  5
115C
  8
0
 10
90.670055854797184
 20
80.015318591002867
 30
0.0
 70
    32
  0
VERTEX
  5
115D
  8
0
 10
90.535599760642668
 20
79.840480191226874
 30
0.0
 70
    32
  0
VERTEX
  5
115E
  8
0
 10
90.386528513139012
 20
79.678330316399723
 30
0.0
 70
    32
  0
VERTEX
  5
115F
  8
0
 10
90.2211689965998
 20
79.524539425490687
 30
0.0
 70
    32
  0
VERTEX
  5
1160
  8
0
 10
90.045568972853303
 20
79.382733217117419
 30
0.0
 70
    32
  0
VERTEX
  5
1161
  8
0
 10
89.835416883385165
 20
79.234643042913703
 30
0.0
 70
    32
  0
VERTEX
  5
1162
  8
0
 10
89.616256577145265
 20
79.099643829254759
 30
0.0
 70
    32
  0
VERTEX
  5
1163
  8
0
 10
89.390088562998926
 20
78.976805548177325
 30
0.0
 70
    32
  0
VERTEX
  5
1164
  8
0
 10
89.031528526563235
 20
78.80911520753267
 30
0.0
 70
    32
  0
VERTEX
  5
1165
  8
0
 10
88.662406381975615
 20
78.664312496677724
 30
0.0
 70
    32
  0
VERTEX
  5
1166
  8
0
 10
88.200061108308219
 20
78.514346548580477
 30
0.0
 70
    32
  0
VERTEX
  5
1167
  8
0
 10
87.728326343335141
 20
78.391098693090214
 30
0.0
 70
    32
  0
VERTEX
  5
1168
  8
0
 10
87.25028855664749
 20
78.291925768089982
 30
0.0
 70
    32
  0
VERTEX
  5
1169
  8
0
 10
86.755276618115431
 20
78.212632916242754
 30
0.0
 70
    32
  0
VERTEX
  5
116A
  8
0
 10
86.256317779000341
 20
78.15453970774854
 30
0.0
 70
    32
  0
VERTEX
  5
116B
  8
0
 10
85.75514546475037
 20
78.116510500692854
 30
0.0
 70
    32
  0
VERTEX
  5
116C
  8
0
 10
85.221873087156155
 20
78.09702566299184
 30
0.0
 70
    32
  0
VERTEX
  5
116D
  8
0
 10
84.687865982246507
 20
78.098814848749299
 30
0.0
 70
    32
  0
VERTEX
  5
116E
  8
0
 10
84.154782952043689
 20
78.121915597279525
 30
0.0
 70
    32
  0
VERTEX
  5
116F
  8
0
 10
83.612663464923941
 20
78.167759647502095
 30
0.0
 70
    32
  0
VERTEX
  5
1170
  8
0
 10
83.073462816459454
 20
78.237468706439756
 30
0.0
 70
    32
  0
VERTEX
  5
1171
  8
0
 10
82.539493632578015
 20
78.332660183953806
 30
0.0
 70
    32
  0
VERTEX
  5
1172
  8
0
 10
82.157653602186116
 20
78.418551071072059
 30
0.0
 70
    32
  0
VERTEX
  5
1173
  8
0
 10
81.780373500544613
 20
78.520204211515903
 30
0.0
 70
    32
  0
VERTEX
  5
1174
  8
0
 10
81.405481909893467
 20
78.64025421080261
 30
0.0
 70
    32
  0
VERTEX
  5
1175
  8
0
 10
81.038171511425205
 20
78.779838000407509
 30
0.0
 70
    32
  0
VERTEX
  5
1176
  8
0
 10
80.683101511837506
 20
78.940049329324481
 30
0.0
 70
    32
  0
VERTEX
  5
1177
  8
0
 10
80.340805156832317
 20
79.124790891865786
 30
0.0
 70
    32
  0
VERTEX
  5
1178
  8
0
 10
80.115692609186056
 20
79.267279219211886
 30
0.0
 70
    32
  0
VERTEX
  5
1179
  8
0
 10
79.900280762636896
 20
79.424411383783621
 30
0.0
 70
    32
  0
VERTEX
  5
117A
  8
0
 10
79.697630102495026
 20
79.597205575238632
 30
0.0
 70
    32
  0
VERTEX
  5
117B
  8
0
 10
79.582491515526641
 20
79.709904121706018
 30
0.0
 70
    32
  0
VERTEX
  5
117C
  8
0
 10
79.473990371844792
 20
79.829187763978126
 30
0.0
 70
    32
  0
VERTEX
  5
117D
  8
0
 10
79.371639232682114
 20
79.957370332623427
 30
0.0
 70
    32
  0
VERTEX
  5
117E
  8
0
 10
79.278539681429066
 20
80.092691249891828
 30
0.0
 70
    32
  0
VERTEX
  5
117F
  8
0
 10
79.197171379508319
 20
80.233218852756465
 30
0.0
 70
    32
  0
VERTEX
  5
1180
  8
0
 10
79.127781942612557
 20
80.380328376168009
 30
0.0
 70
    32
  0
VERTEX
  5
1181
  8
0
 10
79.070322432054297
 20
80.538955392848266
 30
0.0
 70
    32
  0
VERTEX
  5
1182
  8
0
 10
79.029074311292774
 20
80.702805242507438
 30
0.0
 70
    32
  0
VERTEX
  5
1183
  8
0
 10
79.009991333356282
 20
80.825721542456947
 30
0.0
 70
    32
  0
VERTEX
  5
1184
  8
0
 10
79.000825693614587
 20
80.949838547614405
 30
0.0
 70
    32
  0
VERTEX
  5
1185
  8
0
 10
79.002011305589576
 20
81.077956718035566
 30
0.0
 70
    32
  0
VERTEX
  5
1186
  8
0
 10
79.013877623451009
 20
81.205497590822716
 30
0.0
 70
    32
  0
VERTEX
  5
1187
  8
0
 10
79.03543963430937
 20
81.327947278329333
 30
0.0
 70
    32
  0
VERTEX
  5
1188
  8
0
 10
79.066410658921768
 20
81.44824297719363
 30
0.0
 70
    32
  0
VERTEX
  5
1189
  8
0
 10
79.107360060378312
 20
81.568616032175896
 30
0.0
 70
    32
  0
VERTEX
  5
118A
  8
0
 10
79.156892483438867
 20
81.685537065266402
 30
0.0
 70
    32
  0
VERTEX
  5
118B
  8
0
 10
79.238194112242809
 20
81.84087792237203
 30
0.0
 70
    32
  0
VERTEX
  5
118C
  8
0
 10
79.33249288610412
 20
81.988337727395404
 30
0.0
 70
    32
  0
VERTEX
  5
118D
  8
0
 10
79.440996338826096
 20
82.131397887765743
 30
0.0
 70
    32
  0
VERTEX
  5
118E
  8
0
 10
79.559494000103143
 20
82.265994662603461
 30
0.0
 70
    32
  0
VERTEX
  5
118F
  8
0
 10
79.761045737454737
 20
82.459982587788289
 30
0.0
 70
    32
  0
VERTEX
  5
1190
  8
0
 10
79.978708453908453
 20
82.635461557734104
 30
0.0
 70
    32
  0
VERTEX
  5
1191
  8
0
 10
80.214815757053316
 20
82.79784753050194
 30
0.0
 70
    32
  0
VERTEX
  5
1192
  8
0
 10
80.461346470342974
 20
82.94418606723201
 30
0.0
 70
    32
  0
VERTEX
  5
1193
  8
0
 10
80.77061695800171
 20
83.102140055546158
 30
0.0
 70
    32
  0
VERTEX
  5
1194
  8
0
 10
81.089649081398562
 20
83.241272115286932
 30
0.0
 70
    32
  0
VERTEX
  5
1195
  8
0
 10
81.415888810546733
 20
83.363342166089666
 30
0.0
 70
    32
  0
VERTEX
  5
1196
  8
0
 10
81.755975455052308
 20
83.472635318682293
 30
0.0
 70
    32
  0
VERTEX
  5
1197
  8
0
 10
82.101172885961645
 20
83.56737483077022
 30
0.0
 70
    32
  0
VERTEX
  5
1198
  8
0
 10
82.450190348950215
 20
83.648666556235654
 30
0.0
 70
    32
  0
VERTEX
  5
1199
  8
0
 10
83.043293681001614
 20
83.757932415835057
 30
0.0
 70
    32
  0
VERTEX
  5
119A
  8
0
 10
83.643072095344564
 20
83.835490078163645
 30
0.0
 70
    32
  0
VERTEX
  5
119B
  8
0
 10
84.24632947869685
 20
83.883572837618104
 30
0.0
 70
    32
  0
VERTEX
  5
119C
  8
0
 10
84.868419190978457
 20
83.904212082695381
 30
0.0
 70
    32
  0
VERTEX
  5
119D
  8
0
 10
85.491316275825341
 20
83.895886550610868
 30
0.0
 70
    32
  0
VERTEX
  5
119E
  8
0
 10
86.112368676409147
 20
83.858357395933353
 30
0.0
 70
    32
  0
VERTEX
  5
119F
  8
0
 10
86.552021948016716
 20
83.813531108169997
 30
0.0
 70
    32
  0
VERTEX
  5
11A0
  8
0
 10
86.989420049534544
 20
83.752683487352698
 30
0.0
 70
    32
  0
VERTEX
  5
11A1
  8
0
 10
87.423281625326524
 20
83.674878571478189
 30
0.0
 70
    32
  0
VERTEX
  5
11A2
  8
0
 10
87.860940645821813
 20
83.576932368435692
 30
0.0
 70
    32
  0
VERTEX
  5
11A3
  8
0
 10
88.292788818863514
 20
83.458058560996761
 30
0.0
 70
    32
  0
VERTEX
  5
11A4
  8
0
 10
88.716267484199165
 20
83.316075814781087
 30
0.0
 70
    32
  0
VERTEX
  5
11A5
  8
0
 10
88.9922665309264
 20
83.207492024357222
 30
0.0
 70
    32
  0
VERTEX
  5
11A6
  8
0
 10
89.262563395138955
 20
83.086293236717708
 30
0.0
 70
    32
  0
VERTEX
  5
11A7
  8
0
 10
89.528668751555074
 20
82.949712690812376
 30
0.0
 70
    32
  0
VERTEX
  5
11A8
  8
0
 10
89.785812622035465
 20
82.797429212423381
 30
0.0
 70
    32
  0
VERTEX
  5
11A9
  8
0
 10
90.029794907959655
 20
82.629146948157384
 30
0.0
 70
    32
  0
VERTEX
  5
11AA
  8
0
 10
90.259467813004221
 20
82.441813843009953
 30
0.0
 70
    32
  0
VERTEX
  5
11AB
  8
0
 10
90.407528721533367
 20
82.300369463908865
 30
0.0
 70
    32
  0
VERTEX
  5
11AC
  8
0
 10
90.545162331513666
 20
82.148131794823911
 30
0.0
 70
    32
  0
VERTEX
  5
11AD
  8
0
 10
90.669743388884285
 20
81.98513050343368
 30
0.0
 70
    32
  0
VERTEX
  5
11AE
  8
0
 10
90.746603008871688
 20
81.866585764463053
 30
0.0
 70
    32
  0
VERTEX
  5
11AF
  8
0
 10
90.815209136405628
 20
81.742850909922026
 30
0.0
 70
    32
  0
VERTEX
  5
11B0
  8
0
 10
90.875747586579877
 20
81.611139144732945
 30
0.0
 70
    32
  0
VERTEX
  5
11B1
  8
0
 10
90.925440976380116
 20
81.474733590363002
 30
0.0
 70
    32
  0
VERTEX
  5
11B2
  8
0
 10
90.980525400431446
 20
81.243360373935246
 30
0.0
 70
    32
  0
VERTEX
  5
11B3
  8
0
 10
90.995092733203904
 20
81.12208956227478
 30
0.0
 70
    32
  0
VERTEX
  5
11B4
  8
0
 10
90.999999999999972
 20
81.0
 30
0.0
 70
    32
  0
SEQEND
  5
11B5
  8
0
  0
LINE
  5
11B6
  8
0
 10
94.699999999999974
 20
87.0
 30
0.0
 11
94.699999999999974
 21
75.0
 31
0.0
  0
LINE
  5
11B7
  8
0
 10
94.699999999999974
 20
75.0
 30
0.0
 11
76.879229861405321
 21
75.0
 31
0.0
  0
LINE
  5
11B8
  8
0
 10
76.879229861405321
 20
87.0
 30
0.0
 11
94.699999999999974
 21
87.0
 31
0.0
  0
LINE
  5
11B9
  8
3
 10
103.0
 20
82.570499999999996
 30
0.0
 11
96.0
 21
82.570499999999996
 31
0.0
  0
LINE
  5
11BA
  8
3
 10
103.0
 20
79.429500000000004
 30
0.0
 11
96.0
 21
79.429500000000004
 31
0.0
  0
LINE
  5
11DE
  8
1
 10
57.999999999999993
 20
50.0
 30
0.0
 11
42.0
 21
50.0
 31
0.0
  0
LINE
  5
11DF
  8
1
 10
50.0
 20
42.0
 30
0.0
 11
50.0
 21
58.0
 31
0.0
  0
CIRCLE
  5
11E0
  8
0
 10
50.0
 20
50.0
 30
0.0
 40
6.0
  0
LINE
  5
1283
  8
0
 10
127.0
 20
50.577350269189623
 30
0.0
 11
127.0
 21
49.42264973081037
 31
0.0
  0
LINE
  5
1284
  8
0
 10
128.0
 20
51.154700538379238
 30
0.0
 11
127.0
 21
50.577350269189623
 31
0.0
  0
LINE
  5
1285
  8
0
 10
129.0
 20
49.42264973081037
 30
0.0
 11
129.0
 21
50.577350269189623
 31
0.0
  0
LINE
  5
1286
  8
0
 10
128.0
 20
48.845299461620748
 30
0.0
 11
129.0
 21
49.42264973081037
 31
0.0
  0
LINE
  5
1287
  8
0
 10
129.0
 20
50.577350269189623
 30
0.0
 11
128.0
 21
51.154700538379238
 31
0.0
  0
LINE
  5
1288
  8
0
 10
127.0
 20
49.42264973081037
 30
0.0
 11
128.0
 21
48.845299461620748
 31
0.0
  0
CIRCLE
  5
1289
  8
0
 10
128.0
 20
50.0
 30
0.0
 40
2.0
  0
CIRCLE
  5
128B
  8
0
 10
128.0
 20
50.0
 30
0.0
 40
3.25
  0
LINE
  5
128C
  8
2
 10
130.90245353166631
 20
44.75
 30
0.0
 11
125.09776903772691
 21
44.75
 31
0.0
  0
LINE
  5
128D
  8
2
 10
125.09776903772691
 20
55.25
 30
0.0
 11
130.90245353166631
 21
55.25
 31
0.0
  0
LINE
  5
1290
  8
1
 10
120.0
 20
50.0
 30
0.0
 11
136.0
 21
50.0
 31
0.0
  0
LINE
  5
1291
  8
1
 10
128.0
 20
42.0
 30
0.0
 11
128.0
 21
58.0
 31
0.0
  0
CIRCLE
  5
1292
  8
0
 10
128.0
 20
50.0
 30
0.0
 40
6.0
  0
CIRCLE
  5
1373
  8
3
 10
128.0
 20
50.0
 30
0.0
 40
1.5704999999999949
  0
ENDSEC
  0
EOF
