  0
SECTION
  2
HEADER
  9
$ACADVER
  1
AC1009
  9
$INSBASE
 10
0.0
 20
0.0
 30
0.0
  9
$EXTMIN
 10
0.0
 20
-2.960436562073669
 30
0.0
  9
$EXTMAX
 10
142.25
 20
89.500000000000014
 30
0.0
  9
$LIMMIN
 10
0.0
 20
0.0
  9
$LIMMAX
 10
192.5
 20
135.0
  9
$ORTHOMODE
 70
     1
  9
$REGENMODE
 70
     1
  9
$FILLMODE
 70
     1
  9
$QTEXTMODE
 70
     0
  9
$MIRRTEXT
 70
     0
  9
$DRAGMODE
 70
     2
  9
$LTSCALE
 40
5.0
  9
$OSMODE
 70
    37
  9
$ATTMODE
 70
     1
  9
$TEXTSIZE
 40
4.0
  9
$TRACEWID
 40
0.05
  9
$TEXTSTYLE
  7
STANDARD
  9
$CLAYER
  8
0
  9
$CELTYPE
  6
BYLAYER
  9
$CECOLOR
 62
   256
  9
$DIMSCALE
 40
0.5
  9
$DIMASZ
 40
3.0
  9
$DIMEXO
 40
1.0
  9
$DIMDLI
 40
6.0
  9
$DIMRND
 40
0.0
  9
$DIMDLE
 40
0.0
  9
$DIMEXE
 40
1.0
  9
$DIMTP
 40
495.0
  9
$DIMTM
 40
0.0
  9
$DIMTXT
 40
3.0
  9
$DIMCEN
 40
0.0
  9
$DIMTSZ
 40
0.0
  9
$DIMTOL
 70
     0
  9
$DIMLIM
 70
     0
  9
$DIMTIH
 70
     0
  9
$DIMTOH
 70
     0
  9
$DIMSE1
 70
     0
  9
$DIMSE2
 70
     0
  9
$DIMTAD
 70
     1
  9
$DIMZIN
 70
     0
  9
$DIMBLK
  1

  9
$DIMASO
 70
     1
  9
$DIMSHO
 70
     0
  9
$DIMPOST
  1

  9
$DIMAPOST
  1

  9
$DIMALT
 70
     0
  9
$DIMALTD
 70
     2
  9
$DIMALTF
 40
25.399999999999999
  9
$DIMLFAC
 40
1.0
  9
$DIMTOFL
 70
     1
  9
$DIMTVP
 40
0.0
  9
$DIMTIX
 70
     1
  9
$DIMSOXD
 70
     0
  9
$DIMSAH
 70
     0
  9
$DIMBLK1
  1

  9
$DIMBLK2
  1

  9
$DIMSTYLE
  2
STANDARD
  9
$DIMCLRD
 70
     0
  9
$DIMCLRE
 70
     0
  9
$DIMCLRT
 70
     4
  9
$DIMTFAC
 40
1.0
  9
$DIMGAP
 40
1.0
  9
$LUNITS
 70
     2
  9
$LUPREC
 70
     1
  9
$SKETCHINC
 40
0.1
  9
$FILLETRAD
 40
0.0
  9
$AUNITS
 70
     0
  9
$AUPREC
 70
     1
  9
$MENU
  1
E:\r13\win\SUPPORT\ACAD
  9
$ELEVATION
 40
0.0
  9
$PELEVATION
 40
0.0
  9
$THICKNESS
 40
0.0
  9
$LIMCHECK
 70
     0
  9
$BLIPMODE
 70
     0
  9
$CHAMFERA
 40
0.0
  9
$CHAMFERB
 40
0.0
  9
$SKPOLY
 70
     0
  9
$TDCREATE
 40
2450541.3939600689
  9
$TDUPDATE
 40
2457163.6116023618
  9
$TDINDWG
 40
0.1152282639
  9
$TDUSRTIMER
 40
0.1152282639
  9
$USRTIMER
 70
     1
  9
$ANGBASE
 50
0.0
  9
$ANGDIR
 70
     0
  9
$PDMODE
 70
     0
  9
$PDSIZE
 40
0.0
  9
$PLINEWID
 40
0.0
  9
$COORDS
 70
     1
  9
$SPLFRAME
 70
     0
  9
$SPLINETYPE
 70
     6
  9
$SPLINESEGS
 70
     8
  9
$ATTDIA
 70
     0
  9
$ATTREQ
 70
     1
  9
$HANDLING
 70
     1
  9
$HANDSEED
  5
2204
  9
$SURFTAB1
 70
     6
  9
$SURFTAB2
 70
     6
  9
$SURFTYPE
 70
     6
  9
$SURFU
 70
     6
  9
$SURFV
 70
     6
  9
$UCSNAME
  2

  9
$UCSORG
 10
0.0
 20
0.0
 30
0.0
  9
$UCSXDIR
 10
1.0
 20
0.0
 30
0.0
  9
$UCSYDIR
 10
0.0
 20
1.0
 30
0.0
  9
$PUCSNAME
  2

  9
$PUCSORG
 10
0.0
 20
0.0
 30
0.0
  9
$PUCSXDIR
 10
1.0
 20
0.0
 30
0.0
  9
$PUCSYDIR
 10
0.0
 20
1.0
 30
0.0
  9
$USERI1
 70
     3
  9
$USERI2
 70
     1
  9
$USERI3
 70
     1
  9
$USERI4
 70
     0
  9
$USERI5
 70
     0
  9
$USERR1
 40
0.5
  9
$USERR2
 40
3.0
  9
$USERR3
 40
3.0
  9
$USERR4
 40
3.0
  9
$USERR5
 40
10.0
  9
$WORLDVIEW
 70
     1
  9
$SHADEDGE
 70
     3
  9
$SHADEDIF
 70
    70
  9
$TILEMODE
 70
     1
  9
$MAXACTVP
 70
    16
  9
$PLIMCHECK
 70
     0
  9
$PEXTMIN
 10
1.0000000000000000E+020
 20
1.0000000000000000E+020
 30
1.0000000000000000E+020
  9
$PEXTMAX
 10
-1.0000000000000000E+020
 20
-1.0000000000000000E+020
 30
-1.0000000000000000E+020
  9
$PLIMMIN
 10
0.0
 20
0.0
  9
$PLIMMAX
 10
12.0
 20
9.0
  9
$UNITMODE
 70
     0
  9
$VISRETAIN
 70
     0
  9
$PLINEGEN
 70
     0
  9
$PSLTSCALE
 70
     0
  0
ENDSEC
  0
SECTION
  2
TABLES
  0
TABLE
  2
VPORT
 70
     1
  0
VPORT
  2
*ACTIVE
 70
     0
 10
0.0
 20
0.0
 11
1.0
 21
1.0
 12
181.62393162393161
 22
100.0
 13
0.0
 23
0.0
 14
2.5
 24
2.5
 15
10.0
 25
10.0
 16
0.0
 26
0.0
 36
1.0
 17
0.0
 27
0.0
 37
0.0
 40
200.0
 41
1.816239316239316
 42
50.0
 43
0.0
 44
0.0
 50
0.0
 51
0.0
 71
     0
 72
   100
 73
     1
 74
     0
 75
     0
 76
     0
 77
     0
 78
     0
  0
ENDTAB
  0
TABLE
  2
LTYPE
 70
     4
  0
LTYPE
  2
CONTINUOUS
 70
     0
  3
Solid Line
 72
    65
 73
     0
 40
0.0
  0
LTYPE
  2
CENTER
 70
     0
  3
____ _ ____ _ ____ _ ____ _ ____ _ ____ _ ____
 72
    65
 73
     4
 40
2.0
 49
1.25
 49
-0.25
 49
0.25
 49
-0.25
  0
LTYPE
  2
PHANTOM2
 70
     0
  3
___ _ _ ___ _ _ ___ _ _ ___ _ _
 72
    65
 73
     6
 40
1.25
 49
0.625
 49
-0.125
 49
0.125
 49
-0.125
 49
0.125
 49
-0.125
  0
LTYPE
  2
HIDDEN
 70
     0
  3
_ _ _ _ _ _ _ _ _ _ _ _ _ _ _ _ _ _ _ _ _ _ _
 72
    65
 73
     2
 40
0.375
 49
0.25
 49
-0.125
  0
ENDTAB
  0
TABLE
  2
LAYER
 70
     4
  0
LAYER
  2
0
 70
     0
 62
     7
  6
CONTINUOUS
  0
LAYER
  2
3
 70
     0
 62
     3
  6
CONTINUOUS
  0
LAYER
  2
1
 70
     0
 62
     1
  6
CENTER
  0
LAYER
  2
2
 70
     0
 62
     2
  6
HIDDEN
  0
ENDTAB
  0
TABLE
  2
STYLE
 70
     2
  0
STYLE
  2
STANDARD
 70
     0
 40
0.0
 41
1.0
 50
0.0
 71
     0
 42
4.0
  3
SIMPLEX
  4
BIGFONT
  0
STYLE
  2
STANDARD1
 70
     0
 40
0.0
 41
1.0
 50
0.0
 71
     0
 42
3.0
  3
txt
  4

  0
ENDTAB
  0
TABLE
  2
VIEW
 70
     0
  0
ENDTAB
  0
TABLE
  2
UCS
 70
     0
  0
ENDTAB
  0
TABLE
  2
APPID
 70
    17
  0
APPID
  2
ACAD
 70
     0
  0
APPID
  2
ASM_BASE
 70
     0
  0
APPID
  2
ASM_EXPLO_VER_2_00
 70
     0
  0
APPID
  2
ASM_CADM_VER_12_00
 70
     0
  0
APPID
  2
ASM_BASEFORO
 70
     0
  0
APPID
  2
ASM_BASETRAVI
 70
     0
  0
APPID
  2
ASM_BASETRAVI1
 70
     0
  0
APPID
  2
ASM_GRUPPI
 70
     0
  0
APPID
  2
ASM_CADM_ALBERO
 70
     0
  0
APPID
  2
ASM_GOLE
 70
     0
  0
APPID
  2
ACAD_MLEADERVER
 70
     0
  0
APPID
  2
ACAD_EXEMPT_FROM_CAD_STANDARDS
 70
     0
  0
APPID
  2
ACAD_NAV_VCDISPLAY
 70
     0
  0
APPID
  2
ACAD_DSTYLE_DIMJAG
 70
     0
  0
APPID
  2
ACAD_DSTYLE_DIMTALN
 70
     0
  0
APPID
  2
ACAECLAYERSTANDARD
 70
     0
  0
APPID
  2
ACCMTRANSPARENCY
 70
     0
  0
ENDTAB
  0
TABLE
  2
DIMSTYLE
 70
     1
  0
DIMSTYLE
  2
STANDARD
 70
     0
  3

  4

  5

  6

  7

 40
1.0
 41
0.18
 42
0.0625
 43
0.38
 44
0.18
 45
0.0
 46
0.0
 47
0.0
 48
0.0
140
0.18
141
0.09
142
0.0
143
25.399999999999999
144
1.0
145
0.0
146
1.0
147
0.09
 71
     0
 72
     0
 73
     1
 74
     1
 75
     0
 76
     0
 77
     0
 78
     0
170
     0
171
     2
172
     0
173
     0
174
     0
175
     0
176
     0
177
     0
178
     0
  0
ENDTAB
  0
ENDSEC
  0
SECTION
  2
BLOCKS
  0
BLOCK
  8
0
  2
$MODEL_SPACE
 70
     0
 10
0.0
 20
0.0
 30
0.0
  3
$MODEL_SPACE
  1

  0
ENDBLK
  5
857
  8
0
  0
BLOCK
 67
     1
  8
0
  2
$PAPER_SPACE
 70
     0
 10
0.0
 20
0.0
 30
0.0
  3
$PAPER_SPACE
  1

  0
ENDBLK
  5
855
 67
     1
  8
0
  0
ENDSEC
  0
SECTION
  2
ENTITIES
  0
TEXT
  5
A23
  8
0
 62
     3
 10
0.0
 20
0.0
 30
0.0
 40
10.0
  1
RG23SD2-M5
  7
STANDARD1
  0
LINE
  5
1E7E
  8
2
 10
105.5
 20
48.556624327025929
 30
0.0
 11
108.0
 21
48.556624327025929
 31
0.0
  0
LINE
  5
1E7F
  8
2
 10
105.5
 20
51.443375672974071
 30
0.0
 11
108.0
 21
51.443375672974071
 31
0.0
  0
LINE
  5
1E80
  8
2
 10
105.5
 20
48.556624327025929
 30
0.0
 11
105.5
 21
51.443375672974071
 31
0.0
  0
LINE
  5
1E81
  8
2
 10
104.77831216351289
 20
50.0
 30
0.0
 11
105.5
 21
48.75
 31
0.0
  0
LINE
  5
1E82
  8
2
 10
105.5
 20
51.25
 30
0.0
 11
104.77831216351289
 21
50.0
 31
0.0
  0
LINE
  5
1E83
  8
2
 10
105.5
 20
49.278312163512972
 30
0.0
 11
108.0
 21
49.278312163512972
 31
0.0
  0
LINE
  5
1E84
  8
2
 10
105.5
 20
50.721687836487028
 30
0.0
 11
108.0
 21
50.721687836487028
 31
0.0
  0
LINE
  5
1E85
  8
1
 10
110.0
 20
50.0
 30
0.0
 11
73.000000000000014
 21
50.0
 31
0.0
  0
LINE
  5
1E86
  8
0
 10
99.0
 20
51.900000000000013
 30
0.0
 11
98.0
 21
51.900000000000013
 31
0.0
  0
LINE
  5
1E87
  8
0
 10
98.0
 20
48.099999999999987
 30
0.0
 11
99.0
 21
48.099999999999987
 31
0.0
  0
LINE
  5
1E88
  8
0
 10
99.0
 20
47.990499999999997
 30
0.0
 11
99.0
 21
52.009500000000003
 31
0.0
  0
LINE
  5
1E89
  8
0
 10
99.0
 20
47.990499999999997
 30
0.0
 11
99.490499999999983
 21
47.5
 31
0.0
  0
LINE
  5
1E8A
  8
0
 10
99.490499999999983
 20
52.5
 30
0.0
 11
99.0
 21
52.009500000000003
 31
0.0
  0
LINE
  5
1E8B
  8
0
 10
99.490499999999983
 20
47.5
 30
0.0
 11
99.490499999999983
 21
52.5
 31
0.0
  0
LINE
  5
1E8C
  8
0
 10
107.5095
 20
52.5
 30
0.0
 11
99.490499999999983
 21
52.5
 31
0.0
  0
LINE
  5
1E8D
  8
0
 10
99.490499999999983
 20
47.5
 30
0.0
 11
107.5095
 21
47.5
 31
0.0
  0
LINE
  5
1E8E
  8
0
 10
107.5095
 20
47.5
 30
0.0
 11
107.5095
 21
52.5
 31
0.0
  0
LINE
  5
1E8F
  8
0
 10
108.0
 20
47.990499999999997
 30
0.0
 11
108.0
 21
52.009500000000003
 31
0.0
  0
LINE
  5
1E90
  8
0
 10
108.0
 20
52.009500000000003
 30
0.0
 11
107.5095
 21
52.5
 31
0.0
  0
LINE
  5
1E91
  8
0
 10
107.5095
 20
47.5
 30
0.0
 11
108.0
 21
47.990499999999997
 31
0.0
  0
LINE
  5
1E92
  8
0
 10
98.0
 20
46.749999999999993
 30
0.0
 11
98.0
 21
53.25
 31
0.0
  0
LINE
  5
1E93
  8
0
 10
98.0
 20
53.25
 30
0.0
 11
97.700000000000031
 21
53.25
 31
0.0
  0
LINE
  5
1E94
  8
0
 10
97.700000000000031
 20
46.749999999999993
 30
0.0
 11
98.0
 21
46.749999999999993
 31
0.0
  0
ARC
  5
1E95
  8
0
 10
98.428260869565065
 20
50.0
 30
0.0
 40
23.428260869565062
 50
164.69856972827591
 51
195.301430271724
  0
ARC
  5
1E97
  8
0
 10
77.229111102400935
 20
55.800000000000011
 30
0.0
 40
1.44999999999998
 50
90.0
 51
164.69857285293821
  0
ARC
  5
1E98
  8
0
 10
77.229111102400935
 20
44.199999999999989
 30
0.0
 40
1.44999999999998
 50
195.30142714706091
 51
270.0
  0
LINE
  5
1E99
  8
0
 10
77.229111102400935
 20
42.75
 30
0.0
 11
77.229111102400935
 21
57.25
 31
0.0
  0
LINE
  5
1E9A
  8
0
 10
97.700000000000031
 20
42.75
 30
0.0
 11
97.700000000000031
 21
57.25
 31
0.0
  0
LINE
  5
1E9B
  8
0
 10
97.700000000000031
 20
57.25
 30
0.0
 11
93.400000000000006
 21
57.25
 31
0.0
  0
LINE
  5
1E9C
  8
0
 10
79.601599427895223
 20
57.25
 30
0.0
 11
77.229111102400935
 21
57.25
 31
0.0
  0
LINE
  5
1E9D
  8
0
 10
77.229111102400935
 20
42.75
 30
0.0
 11
79.601599427895223
 21
42.75
 31
0.0
  0
LINE
  5
1E9E
  8
0
 10
93.400000000000006
 20
42.75
 30
0.0
 11
97.700000000000031
 21
42.75
 31
0.0
  0
POLYLINE
  5
1E9F
  8
0
 66
     1
 10
0.0
 20
0.0
 30
0.0
  0
VERTEX
  5
212B
  8
0
 10
93.399999999996226
 20
42.750000000001727
 30
0.0
  0
VERTEX
  5
212C
  8
0
 10
93.395961001183878
 20
42.751842542168951
 30
0.0
  0
VERTEX
  5
212D
  8
0
 10
93.372632549197647
 20
42.762459213350269
 30
0.0
  0
VERTEX
  5
212E
  8
0
 10
93.327624640325894
 20
42.782819598042288
 30
0.0
  0
VERTEX
  5
212F
  8
0
 10
93.261351666597051
 20
42.812507159247623
 30
0.0
  0
VERTEX
  5
2130
  8
0
 10
93.180950358715364
 20
42.84805842755182
 30
0.0
  0
VERTEX
  5
2131
  8
0
 10
93.083272827705201
 20
42.890567449344672
 30
0.0
  0
VERTEX
  5
2132
  8
0
 10
92.967765547129545
 20
42.93987945175806
 30
0.0
  0
VERTEX
  5
2133
  8
0
 10
92.836465463575706
 20
42.994686961630968
 30
0.0
  0
VERTEX
  5
2134
  8
0
 10
92.633076028557596
 20
43.076999010420508
 30
0.0
  0
VERTEX
  5
2135
  8
0
 10
92.404517007439097
 20
43.165799912101818
 30
0.0
  0
VERTEX
  5
2136
  8
0
 10
92.149807567434266
 20
43.260229507302903
 30
0.0
  0
VERTEX
  5
2137
  8
0
 10
91.874826737164923
 20
43.356908073281858
 30
0.0
  0
VERTEX
  5
2138
  8
0
 10
91.676387835155893
 20
43.423332312220303
 30
0.0
  0
VERTEX
  5
2139
  8
0
 10
91.471077308854376
 20
43.489154781683453
 30
0.0
  0
VERTEX
  5
213A
  8
0
 10
91.039126061791706
 20
43.61814356312712
 30
0.0
  0
VERTEX
  5
213B
  8
0
 10
90.577429347880184
 20
43.742075282627177
 30
0.0
  0
VERTEX
  5
213C
  8
0
 10
90.096117035901671
 20
43.856285535023027
 30
0.0
  0
VERTEX
  5
213D
  8
0
 10
89.753973400359158
 20
43.928340967400374
 30
0.0
  0
VERTEX
  5
213E
  8
0
 10
89.406248021461295
 20
43.993927475937788
 30
0.0
  0
VERTEX
  5
213F
  8
0
 10
89.051142835763144
 20
44.053031286544012
 30
0.0
  0
VERTEX
  5
2140
  8
0
 10
88.692035528373793
 20
44.104810476674601
 30
0.0
  0
VERTEX
  5
2141
  8
0
 10
88.322017433223152
 20
44.149822973665323
 30
0.0
  0
VERTEX
  5
2142
  8
0
 10
87.949244175617565
 20
44.186693248334301
 30
0.0
  0
VERTEX
  5
2143
  8
0
 10
87.572031846456454
 20
44.215386870499117
 30
0.0
  0
VERTEX
  5
2144
  8
0
 10
87.193261127682604
 20
44.235534890777963
 30
0.0
  0
VERTEX
  5
2145
  8
0
 10
86.815686299569904
 20
44.246999135158859
 30
0.0
  0
VERTEX
  5
2146
  8
0
 10
86.437668859924344
 20
44.249883117187579
 30
0.0
  0
VERTEX
  5
2147
  8
0
 10
86.057599997074902
 20
44.244108399236403
 30
0.0
  0
VERTEX
  5
2148
  8
0
 10
85.678159875472673
 20
44.22966803311791
 30
0.0
  0
VERTEX
  5
2149
  8
0
 10
85.293082203127284
 20
44.206116875985572
 30
0.0
  0
VERTEX
  5
214A
  8
0
 10
84.909835925087776
 20
44.17375345001426
 30
0.0
  0
VERTEX
  5
214B
  8
0
 10
84.526615229024685
 20
44.132425088305702
 30
0.0
  0
VERTEX
  5
214C
  8
0
 10
84.146610287764105
 20
44.082536487190737
 30
0.0
  0
VERTEX
  5
214D
  8
0
 10
83.569803015524229
 20
43.989656036487112
 30
0.0
  0
VERTEX
  5
214E
  8
0
 10
83.003033881154778
 20
43.877942268596627
 30
0.0
  0
VERTEX
  5
214F
  8
0
 10
82.720985096867736
 20
43.81466450796156
 30
0.0
  0
VERTEX
  5
2150
  8
0
 10
82.443908411371325
 20
43.7474601294576
 30
0.0
  0
VERTEX
  5
2151
  8
0
 10
82.170583804801936
 20
43.676197467976152
 30
0.0
  0
VERTEX
  5
2152
  8
0
 10
81.903807241153515
 20
43.601831833685416
 30
0.0
  0
VERTEX
  5
2153
  8
0
 10
81.560820645549455
 20
43.499118038018679
 30
0.0
  0
VERTEX
  5
2154
  8
0
 10
81.231976504582235
 20
43.39300505778408
 30
0.0
  0
VERTEX
  5
2155
  8
0
 10
80.916817538107978
 20
43.284151960333752
 30
0.0
  0
VERTEX
  5
2156
  8
0
 10
80.622645836104653
 20
43.176096231277683
 30
0.0
  0
VERTEX
  5
2157
  8
0
 10
80.421462797323528
 20
43.098541801853138
 30
0.0
  0
VERTEX
  5
2158
  8
0
 10
80.236465108282275
 20
43.024561723551408
 30
0.0
  0
VERTEX
  5
2159
  8
0
 10
80.067945590866898
 20
42.954916837554173
 30
0.0
  0
VERTEX
  5
215A
  8
0
 10
79.920925248582449
 20
42.892377777242331
 30
0.0
  0
VERTEX
  5
215B
  8
0
 10
79.819669607063304
 20
42.848330586539582
 30
0.0
  0
VERTEX
  5
215C
  8
0
 10
79.735908162108899
 20
42.811286559727897
 30
0.0
  0
VERTEX
  5
215D
  8
0
 10
79.670308414829123
 20
42.781888095265401
 30
0.0
  0
VERTEX
  5
215E
  8
0
 10
79.625539301139582
 20
42.761628798639741
 30
0.0
  0
VERTEX
  5
215F
  8
0
 10
79.601599427895223
 20
42.75
 30
0.0
  0
VERTEX
  5
2160
  8
0
 10
79.601599427895223
 20
42.75
 30
0.0
  0
SEQEND
  5
2161
  8
0
  0
POLYLINE
  5
1EA0
  8
0
 66
     1
 10
0.0
 20
0.0
 30
0.0
  0
VERTEX
  5
2162
  8
0
 10
79.601599427895223
 20
57.249999999998273
 30
0.0
  0
VERTEX
  5
2163
  8
0
 10
79.601599427895223
 20
57.249999999998273
 30
0.0
  0
VERTEX
  5
2164
  8
0
 10
79.627367450802353
 20
57.237540786649731
 30
0.0
  0
VERTEX
  5
2165
  8
0
 10
79.672375359674106
 20
57.217180401957712
 30
0.0
  0
VERTEX
  5
2166
  8
0
 10
79.738648333402963
 20
57.187492840752377
 30
0.0
  0
VERTEX
  5
2167
  8
0
 10
79.819049641284664
 20
57.15194157244818
 30
0.0
  0
VERTEX
  5
2168
  8
0
 10
79.916727172294799
 20
57.109432550655328
 30
0.0
  0
VERTEX
  5
2169
  8
0
 10
80.032234452870455
 20
57.060120548241912
 30
0.0
  0
VERTEX
  5
216A
  8
0
 10
80.163534536424322
 20
57.005313038369017
 30
0.0
  0
VERTEX
  5
216B
  8
0
 10
80.366923971442404
 20
56.923000989579492
 30
0.0
  0
VERTEX
  5
216C
  8
0
 10
80.595482992560903
 20
56.834200087898211
 30
0.0
  0
VERTEX
  5
216D
  8
0
 10
80.850192432565734
 20
56.73977049269709
 30
0.0
  0
VERTEX
  5
216E
  8
0
 10
81.125173262835034
 20
56.643091926718142
 30
0.0
  0
VERTEX
  5
216F
  8
0
 10
81.323612164844107
 20
56.576667687779711
 30
0.0
  0
VERTEX
  5
2170
  8
0
 10
81.528922691145624
 20
56.510845218316547
 30
0.0
  0
VERTEX
  5
2171
  8
0
 10
81.960873938208294
 20
56.38185643687288
 30
0.0
  0
VERTEX
  5
2172
  8
0
 10
82.422570652119774
 20
56.257924717372838
 30
0.0
  0
VERTEX
  5
2173
  8
0
 10
82.903882964098329
 20
56.143714464976959
 30
0.0
  0
VERTEX
  5
2174
  8
0
 10
83.246026599640828
 20
56.071659032599626
 30
0.0
  0
VERTEX
  5
2175
  8
0
 10
83.593751978538677
 20
56.006072524062198
 30
0.0
  0
VERTEX
  5
2176
  8
0
 10
83.948857164236856
 20
55.946968713455988
 30
0.0
  0
VERTEX
  5
2177
  8
0
 10
84.307964471626207
 20
55.895189523325392
 30
0.0
  0
VERTEX
  5
2178
  8
0
 10
84.677982566776805
 20
55.850177026334677
 30
0.0
  0
VERTEX
  5
2179
  8
0
 10
85.050755824382406
 20
55.813306751665721
 30
0.0
  0
VERTEX
  5
217A
  8
0
 10
85.427968153543532
 20
55.784613129500883
 30
0.0
  0
VERTEX
  5
217B
  8
0
 10
85.806738872317368
 20
55.764465109222037
 30
0.0
  0
VERTEX
  5
217C
  8
0
 10
86.184313700430067
 20
55.753000864841141
 30
0.0
  0
VERTEX
  5
217D
  8
0
 10
86.562331140075656
 20
55.750116882812421
 30
0.0
  0
VERTEX
  5
217E
  8
0
 10
86.942400002925083
 20
55.75589160076359
 30
0.0
  0
VERTEX
  5
217F
  8
0
 10
87.321840124527284
 20
55.770331966882082
 30
0.0
  0
VERTEX
  5
2180
  8
0
 10
87.706917796872716
 20
55.793883124014428
 30
0.0
  0
VERTEX
  5
2181
  8
0
 10
88.090164074912195
 20
55.82624654998574
 30
0.0
  0
VERTEX
  5
2182
  8
0
 10
88.473384770975287
 20
55.867574911694298
 30
0.0
  0
VERTEX
  5
2183
  8
0
 10
88.853389712235867
 20
55.917463512809263
 30
0.0
  0
VERTEX
  5
2184
  8
0
 10
89.430196984475742
 20
56.010343963512888
 30
0.0
  0
VERTEX
  5
2185
  8
0
 10
89.996966118845208
 20
56.122057731403373
 30
0.0
  0
VERTEX
  5
2186
  8
0
 10
90.279014903132264
 20
56.185335492038398
 30
0.0
  0
VERTEX
  5
2187
  8
0
 10
90.556091588628647
 20
56.252539870542392
 30
0.0
  0
VERTEX
  5
2188
  8
0
 10
90.829416195198064
 20
56.323802532023841
 30
0.0
  0
VERTEX
  5
2189
  8
0
 10
91.096192758846485
 20
56.398168166314584
 30
0.0
  0
VERTEX
  5
218A
  8
0
 10
91.439179354450545
 20
56.500881961981321
 30
0.0
  0
VERTEX
  5
218B
  8
0
 10
91.768023495417765
 20
56.60699494221592
 30
0.0
  0
VERTEX
  5
218C
  8
0
 10
92.083182461892022
 20
56.715848039666241
 30
0.0
  0
VERTEX
  5
218D
  8
0
 10
92.377354163895347
 20
56.82390376872231
 30
0.0
  0
VERTEX
  5
218E
  8
0
 10
92.578537202676443
 20
56.901458198146848
 30
0.0
  0
VERTEX
  5
218F
  8
0
 10
92.763534891717711
 20
56.975438276448578
 30
0.0
  0
VERTEX
  5
2190
  8
0
 10
92.932054409133116
 20
57.04508316244582
 30
0.0
  0
VERTEX
  5
2191
  8
0
 10
93.079074751417579
 20
57.107622222757641
 30
0.0
  0
VERTEX
  5
2192
  8
0
 10
93.180330392936696
 20
57.151669413460411
 30
0.0
  0
VERTEX
  5
2193
  8
0
 10
93.264091837891101
 20
57.188713440272103
 30
0.0
  0
VERTEX
  5
2194
  8
0
 10
93.329691585170906
 20
57.218111904734592
 30
0.0
  0
VERTEX
  5
2195
  8
0
 10
93.374460698860403
 20
57.238371201360252
 30
0.0
  0
VERTEX
  5
2196
  8
0
 10
93.393570267858024
 20
57.247067448338129
 30
0.0
  0
VERTEX
  5
2197
  8
0
 10
93.400000000000006
 20
57.25
 30
0.0
  0
SEQEND
  5
2198
  8
0
  0
LINE
  5
1EA1
  8
3
 10
108.0
 20
52.009500000000003
 30
0.0
 11
99.0
 21
52.009500000000003
 31
0.0
  0
LINE
  5
1EA2
  8
3
 10
108.0
 20
47.990499999999997
 30
0.0
 11
99.0
 21
47.990499999999997
 31
0.0
  0
LINE
  5
1EB0
  8
1
 10
59.25
 20
50.0
 30
0.0
 11
40.750000000000007
 21
50.0
 31
0.0
  0
LINE
  5
1EB1
  8
1
 10
50.0
 20
59.25
 30
0.0
 11
50.0
 21
40.75
 31
0.0
  0
CIRCLE
  5
1EB2
  8
0
 10
50.0
 20
50.0
 30
0.0
 40
7.25
  0
LINE
  5
1EB6
  8
2
 10
128.58411956683611
 20
55.750000000000021
 30
0.0
 11
137.41588043316389
 21
55.749999999999972
 31
0.0
  0
LINE
  5
1EB7
  8
2
 10
137.41588043316389
 20
44.249999999999993
 30
0.0
 11
128.58411956683611
 21
44.249999999999993
 31
0.0
  0
LINE
  5
1EB9
  8
1
 10
142.25
 20
50.0
 30
0.0
 11
123.75
 21
50.0
 31
0.0
  0
LINE
  5
1EBA
  8
1
 10
133.0
 20
59.25
 30
0.0
 11
133.0
 21
40.75
 31
0.0
  0
CIRCLE
  5
1EBB
  8
0
 10
133.0
 20
50.0
 30
0.0
 40
7.25
  0
CIRCLE
  5
1EBC
  8
0
 10
133.0
 20
50.0
 30
0.0
 40
3.25
  0
LINE
  5
1EBD
  8
0
 10
133.0
 20
48.556624327025929
 30
0.0
 11
131.75
 21
49.278312163512972
 31
0.0
  0
LINE
  5
1EBE
  8
0
 10
131.75
 20
49.278312163512972
 30
0.0
 11
131.75
 21
50.721687836487028
 31
0.0
  0
LINE
  5
1EBF
  8
0
 10
131.75
 20
50.721687836487028
 30
0.0
 11
133.0
 21
51.443375672974071
 31
0.0
  0
LINE
  5
1EC0
  8
0
 10
133.0
 20
51.443375672974071
 30
0.0
 11
134.25
 21
50.721687836487028
 31
0.0
  0
LINE
  5
1EC1
  8
0
 10
134.25
 20
50.721687836487028
 30
0.0
 11
134.25
 21
49.278312163512972
 31
0.0
  0
LINE
  5
1EC2
  8
0
 10
134.25
 20
49.278312163512972
 30
0.0
 11
133.0
 21
48.556624327025929
 31
0.0
  0
CIRCLE
  5
1EC3
  8
0
 10
133.0
 20
50.0
 30
0.0
 40
2.5
  0
LINE
  5
1EC6
  8
2
 10
105.5
 20
81.0
 30
0.0
 11
108.0
 21
81.0
 31
0.0
  0
LINE
  5
1EC7
  8
2
 10
105.5
 20
83.499999999999986
 30
0.0
 11
108.0
 21
83.499999999999986
 31
0.0
  0
LINE
  5
1EC8
  8
2
 10
105.5
 20
81.0
 30
0.0
 11
105.5
 21
83.499999999999986
 31
0.0
  0
LINE
  5
1EC9
  8
2
 10
104.77831216351289
 20
82.249999999999986
 30
0.0
 11
105.5
 21
81.0
 31
0.0
  0
LINE
  5
1ECA
  8
2
 10
105.5
 20
83.499999999999986
 30
0.0
 11
104.77831216351289
 21
82.249999999999986
 31
0.0
  0
LINE
  5
1ECB
  8
2
 10
105.5
 20
82.249999999999986
 30
0.0
 11
108.0
 21
82.249999999999986
 31
0.0
  0
LINE
  5
1ECF
  8
1
 10
110.0
 20
82.249999999999986
 30
0.0
 11
73.000000000000014
 21
82.249999999999986
 31
0.0
  0
LINE
  5
1ED0
  8
0
 10
99.0
 20
84.150000000000006
 30
0.0
 11
98.0
 21
84.150000000000006
 31
0.0
  0
LINE
  5
1ED1
  8
0
 10
98.0
 20
80.349999999999994
 30
0.0
 11
99.0
 21
80.349999999999994
 31
0.0
  0
LINE
  5
1ED2
  8
0
 10
108.0
 20
80.240499999999997
 30
0.0
 11
108.0
 21
84.259500000000003
 31
0.0
  0
LINE
  5
1ED3
  8
0
 10
108.0
 20
84.259500000000003
 30
0.0
 11
107.5095
 21
84.749999999999986
 31
0.0
  0
LINE
  5
1ED4
  8
0
 10
107.5095
 20
79.75
 30
0.0
 11
108.0
 21
80.240499999999997
 31
0.0
  0
LINE
  5
1ED5
  8
0
 10
99.0
 20
80.240499999999997
 30
0.0
 11
99.0
 21
84.259500000000003
 31
0.0
  0
LINE
  5
1ED6
  8
0
 10
99.0
 20
80.240499999999997
 30
0.0
 11
99.490499999999983
 21
79.75
 31
0.0
  0
LINE
  5
1ED7
  8
0
 10
99.490499999999983
 20
84.749999999999986
 30
0.0
 11
99.0
 21
84.259500000000003
 31
0.0
  0
LINE
  5
1ED8
  8
0
 10
99.490499999999983
 20
79.75
 30
0.0
 11
99.490499999999983
 21
84.749999999999986
 31
0.0
  0
LINE
  5
1ED9
  8
0
 10
107.5095
 20
79.75
 30
0.0
 11
107.5095
 21
84.749999999999986
 31
0.0
  0
LINE
  5
1EDA
  8
0
 10
107.5095
 20
84.749999999999986
 30
0.0
 11
99.490499999999983
 21
84.749999999999986
 31
0.0
  0
LINE
  5
1EDB
  8
0
 10
99.490499999999983
 20
79.75
 30
0.0
 11
107.5095
 21
79.75
 31
0.0
  0
LINE
  5
1EDC
  8
0
 10
98.0
 20
79.0
 30
0.0
 11
98.0
 21
85.5
 31
0.0
  0
LINE
  5
1EDD
  8
0
 10
98.0
 20
85.5
 30
0.0
 11
97.700000000000031
 21
85.5
 31
0.0
  0
LINE
  5
1EDE
  8
0
 10
97.700000000000031
 20
79.0
 30
0.0
 11
98.0
 21
79.0
 31
0.0
  0
ARC
  5
1EDF
  8
0
 10
98.428260869565065
 20
82.249999999999986
 30
0.0
 40
23.428260869565062
 50
164.69856972827509
 51
195.30143027172491
  0
ARC
  5
1EE1
  8
0
 10
77.229111102400935
 20
88.050000000000011
 30
0.0
 40
1.4499999999999891
 50
90.0
 51
164.69857285293651
  0
ARC
  5
1EE2
  8
0
 10
77.229111102400935
 20
76.449999999999989
 30
0.0
 40
1.44999999999998
 50
195.30142714706011
 51
270.0
  0
LINE
  5
1EE3
  8
0
 10
77.229111102400935
 20
75.0
 30
0.0
 11
77.229111102400935
 21
89.500000000000014
 31
0.0
  0
POLYLINE
  5
1EE4
  8
0
 66
     1
 10
0.0
 20
0.0
 30
0.0
  0
VERTEX
  5
2199
  8
0
 10
93.400000000000006
 20
82.249999999999986
 30
0.0
  0
VERTEX
  5
219A
  8
0
 10
93.389839133944093
 20
82.509140573937373
 30
0.0
  0
VERTEX
  5
219B
  8
0
 10
93.358718287869465
 20
82.771205808153539
 30
0.0
  0
VERTEX
  5
219C
  8
0
 10
93.307181549257535
 20
83.029386276021626
 30
0.0
  0
VERTEX
  5
219D
  8
0
 10
93.234394886159649
 20
83.286562295749548
 30
0.0
  0
VERTEX
  5
219E
  8
0
 10
93.145918811237934
 20
83.527221234916496
 30
0.0
  0
VERTEX
  5
219F
  8
0
 10
93.038833681767386
 20
83.763108191848232
 30
0.0
  0
VERTEX
  5
21A0
  8
0
 10
92.915570577932115
 20
83.989710028755965
 30
0.0
  0
VERTEX
  5
21A1
  8
0
 10
92.775367238326481
 20
84.209209411474035
 30
0.0
  0
VERTEX
  5
21A2
  8
0
 10
92.558144874618847
 20
84.495596782772282
 30
0.0
  0
VERTEX
  5
21A3
  8
0
 10
92.312741580972528
 20
84.765431561530932
 30
0.0
  0
VERTEX
  5
21A4
  8
0
 10
92.046224319893057
 20
85.013349703638113
 30
0.0
  0
VERTEX
  5
21A5
  8
0
 10
91.756734341060167
 20
85.243308993230187
 30
0.0
  0
VERTEX
  5
21A6
  8
0
 10
91.546910550579014
 20
85.389854928353785
 30
0.0
  0
VERTEX
  5
21A7
  8
0
 10
91.330204781670346
 20
85.526519010564243
 30
0.0
  0
VERTEX
  5
21A8
  8
0
 10
91.026401222580404
 20
85.696802130927708
 30
0.0
  0
VERTEX
  5
21A9
  8
0
 10
90.712575643765092
 20
85.850562946526253
 30
0.0
  0
VERTEX
  5
21AA
  8
0
 10
90.390540251483444
 20
85.988488741073496
 30
0.0
  0
VERTEX
  5
21AB
  8
0
 10
89.886309882397043
 20
86.170350245299289
 30
0.0
  0
VERTEX
  5
21AC
  8
0
 10
89.532067566613989
 20
86.276744473178766
 30
0.0
  0
VERTEX
  5
21AD
  8
0
 10
89.172558955582275
 20
86.368971932246779
 30
0.0
  0
VERTEX
  5
21AE
  8
0
 10
88.805911049515458
 20
86.448291594888758
 30
0.0
  0
VERTEX
  5
21AF
  8
0
 10
88.435576260930389
 20
86.514578330505984
 30
0.0
  0
VERTEX
  5
21B0
  8
0
 10
88.054377909556635
 20
86.569373871930367
 30
0.0
  0
VERTEX
  5
21B1
  8
0
 10
87.670764414867165
 20
86.611592596191855
 30
0.0
  0
VERTEX
  5
21B2
  8
0
 10
87.282950968860433
 20
86.641751755998172
 30
0.0
  0
VERTEX
  5
21B3
  8
0
 10
86.893957037803744
 20
86.65979314268975
 30
0.0
  0
VERTEX
  5
21B4
  8
0
 10
86.508370832784408
 20
86.665880354172145
 30
0.0
  0
VERTEX
  5
21B5
  8
0
 10
86.122772440532358
 20
86.660299735819123
 30
0.0
  0
VERTEX
  5
21B6
  8
0
 10
85.735449965703509
 20
86.642877902816281
 30
0.0
  0
VERTEX
  5
21B7
  8
0
 10
85.349269323516936
 20
86.613454320415755
 30
0.0
  0
VERTEX
  5
21B8
  8
0
 10
84.957475961340947
 20
86.570869040220714
 30
0.0
  0
VERTEX
  5
21B9
  8
0
 10
84.568179660208045
 20
86.515183166164263
 30
0.0
  0
VERTEX
  5
21BA
  8
0
 10
84.179408353362817
 20
86.44538562979244
 30
0.0
  0
VERTEX
  5
21BB
  8
0
 10
83.794735360628508
 20
86.361194268379634
 30
0.0
  0
VERTEX
  5
21BC
  8
0
 10
83.257166029349875
 20
86.215408169784794
 30
0.0
  0
VERTEX
  5
21BD
  8
0
 10
82.901430412151427
 20
86.098461328381845
 30
0.0
  0
VERTEX
  5
21BE
  8
0
 10
82.552591773168587
 20
85.965473973616369
 30
0.0
  0
VERTEX
  5
21BF
  8
0
 10
82.212359350008754
 20
85.815635336709761
 30
0.0
  0
VERTEX
  5
21C0
  8
0
 10
81.959747525695491
 20
85.689523920802458
 30
0.0
  0
VERTEX
  5
21C1
  8
0
 10
81.713574170957244
 20
85.552506284922742
 30
0.0
  0
VERTEX
  5
21C2
  8
0
 10
81.389364323179763
 20
85.346931407217738
 30
0.0
  0
VERTEX
  5
21C3
  8
0
 10
81.077119124174274
 20
85.115688945304825
 30
0.0
  0
VERTEX
  5
21C4
  8
0
 10
80.784259303225951
 20
84.860372115104525
 30
0.0
  0
VERTEX
  5
21C5
  8
0
 10
80.510130994663882
 20
84.575527455696985
 30
0.0
  0
VERTEX
  5
21C6
  8
0
 10
80.323190155315444
 20
84.345909550814724
 30
0.0
  0
VERTEX
  5
21C7
  8
0
 10
80.151023853154996
 20
84.098118886769115
 30
0.0
  0
VERTEX
  5
21C8
  8
0
 10
79.998632067422079
 20
83.836170274114977
 30
0.0
  0
VERTEX
  5
21C9
  8
0
 10
79.866082607849648
 20
83.556108549662838
 30
0.0
  0
VERTEX
  5
21CA
  8
0
 10
79.761274554753982
 20
83.273182436789313
 30
0.0
  0
VERTEX
  5
21CB
  8
0
 10
79.679932836025756
 20
82.973604271744193
 30
0.0
  0
VERTEX
  5
21CC
  8
0
 10
79.62632103259881
 20
82.666681260104241
 30
0.0
  0
VERTEX
  5
21CD
  8
0
 10
79.601429107015463
 20
82.347236224971425
 30
0.0
  0
VERTEX
  5
21CE
  8
0
 10
79.604038998816122
 20
82.08655745202563
 30
0.0
  0
VERTEX
  5
21CF
  8
0
 10
79.627786234178274
 20
81.822122384254243
 30
0.0
  0
VERTEX
  5
21D0
  8
0
 10
79.672375359674106
 20
81.560937560450796
 30
0.0
  0
VERTEX
  5
21D1
  8
0
 10
79.738648333402963
 20
81.300028071923535
 30
0.0
  0
VERTEX
  5
21D2
  8
0
 10
79.819049641284664
 20
81.061626428984724
 30
0.0
  0
VERTEX
  5
21D3
  8
0
 10
79.917646682047547
 20
80.827323934753053
 30
0.0
  0
VERTEX
  5
21D4
  8
0
 10
80.032234452870455
 20
80.601607496895198
 30
0.0
  0
VERTEX
  5
21D5
  8
0
 10
80.163534536424322
 20
80.382357305463174
 30
0.0
  0
VERTEX
  5
21D6
  8
0
 10
80.366923971442404
 20
80.097197803261636
 30
0.0
  0
VERTEX
  5
21D7
  8
0
 10
80.598031721213744
 20
79.827336464662892
 30
0.0
  0
VERTEX
  5
21D8
  8
0
 10
80.850192432565734
 20
79.578297601571307
 30
0.0
  0
VERTEX
  5
21D9
  8
0
 10
81.125173262835034
 20
79.346238705889775
 30
0.0
  0
VERTEX
  5
21DA
  8
0
 10
81.323612164844107
 20
79.198777438231104
 30
0.0
  0
VERTEX
  5
21DB
  8
0
 10
81.528922691145624
 20
79.060737617704604
 30
0.0
  0
VERTEX
  5
21DC
  8
0
 10
81.965383152324364
 20
78.807511926200561
 30
0.0
  0
VERTEX
  5
21DD
  8
0
 10
82.422570652119774
 20
78.589279001112743
 30
0.0
  0
VERTEX
  5
21DE
  8
0
 10
82.903882964098329
 20
78.400678946511107
 30
0.0
  0
VERTEX
  5
21DF
  8
0
 10
83.246026599640828
 20
78.287989558681147
 30
0.0
  0
VERTEX
  5
21E0
  8
0
 10
83.593751978538677
 20
78.189262033114517
 30
0.0
  0
VERTEX
  5
21E1
  8
0
 10
83.948857164236856
 20
78.103178906681876
 30
0.0
  0
VERTEX
  5
21E2
  8
0
 10
84.307964471626207
 20
78.029900417753822
 30
0.0
  0
VERTEX
  5
21E3
  8
0
 10
84.677982566776805
 20
77.967712364067779
 30
0.0
  0
VERTEX
  5
21E4
  8
0
 10
85.050755824382406
 20
77.917799103107313
 30
0.0
  0
VERTEX
  5
21E5
  8
0
 10
85.427968153543532
 20
77.879553219098895
 30
0.0
  0
VERTEX
  5
21E6
  8
0
 10
85.806738872317368
 20
77.853018989742878
 30
0.0
  0
VERTEX
  5
21E7
  8
0
 10
86.184313700430067
 20
77.83802411762656
 30
0.0
  0
VERTEX
  5
21E8
  8
0
 10
86.562331140075656
 20
77.834271766288623
 30
0.0
  0
VERTEX
  5
21E9
  8
0
 10
86.942400002925083
 20
77.841795896457
 30
0.0
  0
VERTEX
  5
21EA
  8
0
 10
87.321840124527284
 20
77.860721130757497
 30
0.0
  0
VERTEX
  5
21EB
  8
0
 10
87.706917796872716
 20
77.891849319593064
 30
0.0
  0
VERTEX
  5
21EC
  8
0
 10
88.090164074912195
 20
77.935217138860935
 30
0.0
  0
VERTEX
  5
21ED
  8
0
 10
88.473384770975287
 20
77.991580970370308
 30
0.0
  0
VERTEX
  5
21EE
  8
0
 10
88.853389712235867
 20
78.061190434673463
 30
0.0
  0
VERTEX
  5
21EF
  8
0
 10
89.430196984475742
 20
78.195586917904848
 30
0.0
  0
VERTEX
  5
21F0
  8
0
 10
89.812863825170353
 20
78.306227114786253
 30
0.0
  0
VERTEX
  5
21F1
  8
0
 10
90.188777701615464
 20
78.434086945847298
 30
0.0
  0
VERTEX
  5
21F2
  8
0
 10
90.556091588628647
 20
78.580089215351705
 30
0.0
  0
VERTEX
  5
21F3
  8
0
 10
90.829416195198064
 20
78.704289403486584
 30
0.0
  0
VERTEX
  5
21F4
  8
0
 10
91.096192758846485
 20
78.840316126741527
 30
0.0
  0
VERTEX
  5
21F5
  8
0
 10
91.439179354450545
 20
79.0404776498074
 30
0.0
  0
VERTEX
  5
21F6
  8
0
 10
91.770717107832667
 20
79.267025399938632
 30
0.0
  0
VERTEX
  5
21F7
  8
0
 10
92.083182461892022
 20
79.518720975786039
 30
0.0
  0
VERTEX
  5
21F8
  8
0
 10
92.377354163895347
 20
79.801155914471167
 30
0.0
  0
VERTEX
  5
21F9
  8
0
 10
92.578537202676443
 20
80.029104968884923
 30
0.0
  0
VERTEX
  5
21FA
  8
0
 10
92.765206267004061
 20
80.276139353744298
 30
0.0
  0
VERTEX
  5
21FB
  8
0
 10
92.932054409133116
 20
80.538479262695773
 30
0.0
  0
VERTEX
  5
21FC
  8
0
 10
93.079074751417579
 20
80.820242559535842
 30
0.0
  0
VERTEX
  5
21FD
  8
0
 10
93.180330392936696
 20
81.059989663668944
 30
0.0
  0
VERTEX
  5
21FE
  8
0
 10
93.264847942661731
 20
81.311970917748653
 30
0.0
  0
VERTEX
  5
21FF
  8
0
 10
93.329691585170906
 20
81.570764745666963
 30
0.0
  0
VERTEX
  5
2200
  8
0
 10
93.374460698860403
 20
81.839533982748037
 30
0.0
  0
VERTEX
  5
2201
  8
0
 10
93.393590093800128
 20
82.044290387827459
 30
0.0
  0
VERTEX
  5
2202
  8
0
 10
93.400000000000006
 20
82.249999999999986
 30
0.0
  0
SEQEND
  5
2203
  8
0
  0
LINE
  5
1EE5
  8
0
 10
97.700000000000031
 20
75.0
 30
0.0
 11
97.700000000000031
 21
89.500000000000014
 31
0.0
  0
LINE
  5
1EE6
  8
0
 10
97.700000000000031
 20
89.500000000000014
 30
0.0
 11
77.229111102400935
 21
89.500000000000014
 31
0.0
  0
LINE
  5
1EE7
  8
0
 10
77.229111102400935
 20
75.0
 30
0.0
 11
97.700000000000031
 21
75.0
 31
0.0
  0
LINE
  5
1EE8
  8
3
 10
108.0
 20
80.240499999999997
 30
0.0
 11
99.0
 21
80.240499999999997
 31
0.0
  0
LINE
  5
1EE9
  8
3
 10
108.0
 20
84.259500000000003
 30
0.0
 11
99.0
 21
84.259500000000003
 31
0.0
  0
CIRCLE
  5
2005
  8
3
 10
133.0
 20
50.0
 30
0.0
 40
2.0095000000000018
  0
ENDSEC
  0
EOF
