  0
SECTION
  2
HEADER
  9
$ACADVER
  1
AC1009
  9
$INSBASE
 10
0.0
 20
0.0
 30
0.0
  9
$EXTMIN
 10
0.0
 20
-2.960436562073669
 30
0.0
  9
$EXTMAX
 10
284.0
 20
209.0
 30
0.0
  9
$LIMMIN
 10
0.0
 20
0.0
  9
$LIMMAX
 10
375.0
 20
270.0
  9
$ORTHOMODE
 70
     1
  9
$REGENMODE
 70
     1
  9
$FILLMODE
 70
     1
  9
$QTEXTMODE
 70
     0
  9
$MIRRTEXT
 70
     0
  9
$DRAGMODE
 70
     2
  9
$LTSCALE
 40
10.0
  9
$OSMODE
 70
    55
  9
$ATTMODE
 70
     1
  9
$TEXTSIZE
 40
5.0
  9
$TRACEWID
 40
0.05
  9
$TEXTSTYLE
  7
STANDARD
  9
$CLAYER
  8
0
  9
$CELTYPE
  6
BYLAYER
  9
$CECOLOR
 62
   256
  9
$DIMSCALE
 40
1.0
  9
$DIMASZ
 40
3.0
  9
$DIMEXO
 40
2.0
  9
$DIMDLI
 40
10.0
  9
$DIMRND
 40
0.0
  9
$DIMDLE
 40
0.0
  9
$DIMEXE
 40
2.0
  9
$DIMTP
 40
0.0
  9
$DIMTM
 40
0.0
  9
$DIMTXT
 40
3.2000000000000002
  9
$DIMCEN
 40
0.09
  9
$DIMTSZ
 40
0.0
  9
$DIMTOL
 70
     0
  9
$DIMLIM
 70
     0
  9
$DIMTIH
 70
     0
  9
$DIMTOH
 70
     0
  9
$DIMSE1
 70
     0
  9
$DIMSE2
 70
     0
  9
$DIMTAD
 70
     0
  9
$DIMZIN
 70
     0
  9
$DIMBLK
  1

  9
$DIMASO
 70
     1
  9
$DIMSHO
 70
     0
  9
$DIMPOST
  1

  9
$DIMAPOST
  1

  9
$DIMALT
 70
     0
  9
$DIMALTD
 70
     2
  9
$DIMALTF
 40
25.399999999999999
  9
$DIMLFAC
 40
1.0
  9
$DIMTOFL
 70
     1
  9
$DIMTVP
 40
1.0
  9
$DIMTIX
 70
     1
  9
$DIMSOXD
 70
     0
  9
$DIMSAH
 70
     0
  9
$DIMBLK1
  1

  9
$DIMBLK2
  1

  9
$DIMSTYLE
  2
STANDARD
  9
$DIMCLRD
 70
     0
  9
$DIMCLRE
 70
     0
  9
$DIMCLRT
 70
     0
  9
$DIMTFAC
 40
1.0
  9
$DIMGAP
 40
0.09
  9
$LUNITS
 70
     2
  9
$LUPREC
 70
     2
  9
$SKETCHINC
 40
0.1
  9
$FILLETRAD
 40
0.0
  9
$AUNITS
 70
     0
  9
$AUPREC
 70
     0
  9
$MENU
  1
E:\r13\win\SUPPORT\ACAD
  9
$ELEVATION
 40
0.0
  9
$PELEVATION
 40
0.0
  9
$THICKNESS
 40
0.0
  9
$LIMCHECK
 70
     0
  9
$BLIPMODE
 70
     0
  9
$CHAMFERA
 40
0.0
  9
$CHAMFERB
 40
0.0
  9
$SKPOLY
 70
     0
  9
$TDCREATE
 40
2449839.781319445
  9
$TDUPDATE
 40
2456598.5930160652
  9
$TDINDWG
 40
0.0001515162
  9
$TDUSRTIMER
 40
0.0001515162
  9
$USRTIMER
 70
     1
  9
$ANGBASE
 50
0.0
  9
$ANGDIR
 70
     0
  9
$PDMODE
 70
     0
  9
$PDSIZE
 40
0.0
  9
$PLINEWID
 40
0.0
  9
$COORDS
 70
     1
  9
$SPLFRAME
 70
     0
  9
$SPLINETYPE
 70
     6
  9
$SPLINESEGS
 70
     8
  9
$ATTDIA
 70
     0
  9
$ATTREQ
 70
     1
  9
$HANDLING
 70
     1
  9
$HANDSEED
  5
2A6
  9
$SURFTAB1
 70
     6
  9
$SURFTAB2
 70
     6
  9
$SURFTYPE
 70
     6
  9
$SURFU
 70
     6
  9
$SURFV
 70
     6
  9
$UCSNAME
  2

  9
$UCSORG
 10
0.0
 20
0.0
 30
0.0
  9
$UCSXDIR
 10
1.0
 20
0.0
 30
0.0
  9
$UCSYDIR
 10
0.0
 20
1.0
 30
0.0
  9
$PUCSNAME
  2

  9
$PUCSORG
 10
0.0
 20
0.0
 30
0.0
  9
$PUCSXDIR
 10
1.0
 20
0.0
 30
0.0
  9
$PUCSYDIR
 10
0.0
 20
1.0
 30
0.0
  9
$USERI1
 70
     0
  9
$USERI2
 70
     1
  9
$USERI3
 70
     1
  9
$USERI4
 70
     0
  9
$USERI5
 70
     0
  9
$USERR1
 40
0.0
  9
$USERR2
 40
0.0
  9
$USERR3
 40
0.0
  9
$USERR4
 40
0.0
  9
$USERR5
 40
0.0
  9
$WORLDVIEW
 70
     1
  9
$SHADEDGE
 70
     3
  9
$SHADEDIF
 70
    70
  9
$TILEMODE
 70
     1
  9
$MAXACTVP
 70
    16
  9
$PLIMCHECK
 70
     0
  9
$PEXTMIN
 10
1.0000000000000000E+020
 20
1.0000000000000000E+020
 30
1.0000000000000000E+020
  9
$PEXTMAX
 10
-1.0000000000000000E+020
 20
-1.0000000000000000E+020
 30
-1.0000000000000000E+020
  9
$PLIMMIN
 10
0.0
 20
0.0
  9
$PLIMMAX
 10
12.0
 20
9.0
  9
$UNITMODE
 70
     0
  9
$VISRETAIN
 70
     0
  9
$PLINEGEN
 70
     0
  9
$PSLTSCALE
 70
     0
  0
ENDSEC
  0
SECTION
  2
TABLES
  0
TABLE
  2
VPORT
 70
     1
  0
VPORT
  2
*ACTIVE
 70
     0
 10
0.0
 20
0.0
 11
1.0
 21
1.0
 12
187.49427839065231
 22
194.785247995265
 13
0.0
 23
0.0
 14
10.0
 24
10.0
 15
10.0
 25
10.0
 16
0.0
 26
0.0
 36
1.0
 17
0.0
 27
0.0
 37
0.0
 40
399.3463374158577
 41
1.7807262569832401
 42
50.0
 43
0.0
 44
0.0
 50
0.0
 51
0.0
 71
     0
 72
   500
 73
     1
 74
     0
 75
     0
 76
     0
 77
     0
 78
     2
  0
ENDTAB
  0
TABLE
  2
LTYPE
 70
     4
  0
LTYPE
  2
CONTINUOUS
 70
     0
  3
Solid Line
 72
    65
 73
     0
 40
0.0
  0
LTYPE
  2
CENTER
 70
     0
  3
____ _ ____ _ ____ _ ____ _ ____ _ ____ _ ____
 72
    65
 73
     4
 40
2.0
 49
1.25
 49
-0.25
 49
0.25
 49
-0.25
  0
LTYPE
  2
HIDDEN
 70
     0
  3
_ _ _ _ _ _ _ _ _ _ _ _ _ _ _ _ _ _ _ _ _ _ _
 72
    65
 73
     2
 40
0.375
 49
0.25
 49
-0.125
  0
LTYPE
  2
PHANTOM2
 70
     0
  3
___ _ _ ___ _ _ ___ _ _ ___ _ _
 72
    65
 73
     6
 40
1.25
 49
0.625
 49
-0.125
 49
0.125
 49
-0.125
 49
0.125
 49
-0.125
  0
ENDTAB
  0
TABLE
  2
LAYER
 70
     4
  0
LAYER
  2
0
 70
     0
 62
     7
  6
CONTINUOUS
  0
LAYER
  2
1
 70
     0
 62
     1
  6
CENTER
  0
LAYER
  2
3
 70
     0
 62
     3
  6
CONTINUOUS
  0
LAYER
  2
2
 70
     0
 62
     2
  6
HIDDEN
  0
ENDTAB
  0
TABLE
  2
STYLE
 70
     2
  0
STYLE
  2
STANDARD
 70
     0
 40
0.0
 41
1.0
 50
0.0
 71
     0
 42
5.0
  3
TXT
  4
BIGFONT
  0
STYLE
  2
STANDARD1
 70
     0
 40
0.0
 41
1.0
 50
0.0
 71
     0
 42
3.0
  3
txt
  4

  0
ENDTAB
  0
TABLE
  2
VIEW
 70
     1
  0
VIEW
  2
ALL
 70
     0
 40
270.0
 10
220.99159663865549
 20
135.0
 41
0.0
 11
0.0
 21
0.0
 31
1.0
 12
0.0
 22
0.0
 32
0.0
 42
0.0
 43
0.0
 44
0.0
 50
0.0
 71
     0
  0
ENDTAB
  0
TABLE
  2
UCS
 70
     0
  0
ENDTAB
  0
TABLE
  2
APPID
 70
     3
  0
APPID
  2
ACAD
 70
     0
  0
APPID
  2
ACAD_MLEADERVER
 70
     0
  0
APPID
  2
ACAD_NAV_VCDISPLAY
 70
     0
  0
ENDTAB
  0
TABLE
  2
DIMSTYLE
 70
     1
  0
DIMSTYLE
  2
STANDARD
 70
     0
  3

  4

  5

  6

  7

 40
1.0
 41
0.18
 42
0.0625
 43
0.38
 44
0.18
 45
0.0
 46
0.0
 47
0.0
 48
0.0
140
0.18
141
0.09
142
0.0
143
25.399999999999999
144
1.0
145
0.0
146
1.0
147
0.09
 71
     0
 72
     0
 73
     1
 74
     1
 75
     0
 76
     0
 77
     0
 78
     0
170
     0
171
     2
172
     0
173
     0
174
     0
175
     0
176
     0
177
     0
178
     0
  0
ENDTAB
  0
ENDSEC
  0
SECTION
  2
BLOCKS
  0
BLOCK
  8
0
  2
$MODEL_SPACE
 70
     0
 10
0.0
 20
0.0
 30
0.0
  3
$MODEL_SPACE
  1

  0
ENDBLK
  5
125
  8
0
  0
BLOCK
 67
     1
  8
0
  2
$PAPER_SPACE
 70
     0
 10
0.0
 20
0.0
 30
0.0
  3
$PAPER_SPACE
  1

  0
ENDBLK
  5
123
 67
     1
  8
0
  0
ENDSEC
  0
SECTION
  2
ENTITIES
  0
LINE
  5
36
  8
1
 10
149.28605897587019
 20
130.0
 30
0.0
 11
212.28605897587019
 21
130.0
 31
0.0
  0
CIRCLE
  5
37
  8
0
 10
90.0
 20
130.0
 30
0.0
 40
9.0
  0
CIRCLE
  5
38
  8
0
 10
90.0
 20
130.0
 30
0.0
 40
7.5
  0
CIRCLE
  5
39
  8
0
 10
90.0
 20
130.0
 30
0.0
 40
5.0
  0
LINE
  5
3A
  8
0
 10
91.5
 20
129.13397459621561
 30
0.0
 11
91.5
 21
130.86602540378439
 31
0.0
  0
LINE
  5
3B
  8
0
 10
91.5
 20
130.86602540378439
 30
0.0
 11
90.000000000000014
 21
131.7320508075689
 31
0.0
  0
LINE
  5
3C
  8
0
 10
90.0
 20
131.73205080756881
 30
0.0
 11
88.500000000000014
 21
130.86602540378439
 31
0.0
  0
LINE
  5
3D
  8
0
 10
88.499999999999986
 20
130.86602540378439
 30
0.0
 11
88.499999999999986
 21
129.13397459621561
 31
0.0
  0
LINE
  5
3E
  8
0
 10
88.499999999999986
 20
129.13397459621561
 30
0.0
 11
89.999999999999986
 21
128.2679491924311
 31
0.0
  0
LINE
  5
3F
  8
0
 10
90.0
 20
128.2679491924311
 30
0.0
 11
91.499999999999986
 21
129.1339745962155
 31
0.0
  0
LINE
  5
40
  8
0
 10
204.78151584300349
 20
139.0
 30
0.0
 11
183.3662082904585
 21
139.0
 31
0.0
  0
LINE
  5
41
  8
0
 10
168.31035342526519
 20
137.5688486307977
 30
0.0
 11
183.36620829045859
 21
139.0
 31
0.0
  0
LINE
  5
42
  8
3
 10
164.78605897587019
 20
132.45849999999999
 30
0.0
 11
154.74455897587021
 21
132.45849999999999
 31
0.0
  0
ARC
  5
43
  8
0
 10
168.38605897587021
 20
136.77243876796871
 30
0.0
 40
0.8
 50
95.429999999999922
 51
179.99999999999989
  0
ARC
  5
44
  8
0
 10
177.28605897587011
 20
130.0
 30
0.0
 40
30.0
 50
0.0
 51
15.25752351010448
  0
ARC
  5
45
  8
0
 10
204.7815131456052
 20
137.5
 30
0.0
 40
1.5
 50
15.25752329045638
 51
90.0
  0
ARC
  5
46
  8
0
 10
204.7815131456052
 20
122.5
 30
0.0
 40
1.5
 50
270.0
 51
344.74247670954361
  0
ARC
  5
47
  8
0
 10
177.28605897587011
 20
130.0
 30
0.0
 40
30.0
 50
344.7424769291917
 51
360.0
  0
ARC
  5
48
  8
0
 10
168.38605897587021
 20
123.22756123203121
 30
0.0
 40
0.8
 50
180.0
 51
264.57000000000011
  0
LINE
  5
49
  8
3
 10
164.78605897587019
 20
127.5415
 30
0.0
 11
154.74455897587021
 21
127.5415
 31
0.0
  0
LINE
  5
4A
  8
0
 10
154.28605897587019
 20
132.0
 30
0.0
 11
154.28605897587019
 21
128.0
 31
0.0
  0
LINE
  5
4B
  8
0
 10
168.310355315534
 20
122.43115118952061
 30
0.0
 11
183.36620829045859
 21
121.0
 31
0.0
  0
LINE
  5
4C
  8
0
 10
167.5860589758702
 20
125.0
 30
0.0
 11
167.5860589758702
 21
123.22756123203131
 31
0.0
  0
LINE
  5
4D
  8
0
 10
167.28605897587011
 20
125.0
 30
0.0
 11
167.5860589758702
 21
125.0
 31
0.0
  0
LINE
  5
4E
  8
0
 10
204.78151314560529
 20
121.0
 30
0.0
 11
183.3662082904585
 21
121.0
 31
0.0
  0
LINE
  5
4F
  8
0
 10
183.3662082904585
 20
121.0
 30
0.0
 11
183.3662082904585
 21
138.99999999999989
 31
0.0
  0
LINE
  5
50
  8
0
 10
205.6919786136055
 20
122.1026360705437
 30
0.0
 11
205.6919786136055
 21
137.8973639294563
 31
0.0
  0
LINE
  5
51
  8
0
 10
167.5860589758702
 20
136.77243876796871
 30
0.0
 11
167.58605897587009
 21
125.0
 31
0.0
  0
LINE
  5
52
  8
0
 10
167.28605897587019
 20
135.0
 30
0.0
 11
167.5860589758702
 21
135.0
 31
0.0
  0
LINE
  5
53
  8
2
 10
154.28605897587019
 20
131.7320508075689
 30
0.0
 11
158.28605897587011
 21
131.7320508075689
 31
0.0
  0
LINE
  5
54
  8
2
 10
154.28605897587019
 20
130.86602540378439
 30
0.0
 11
158.28605897587019
 21
130.86602540378439
 31
0.0
  0
LINE
  5
55
  8
2
 10
158.28605897587019
 20
131.73205080756881
 30
0.0
 11
158.28605897587019
 21
128.2679491924311
 31
0.0
  0
LINE
  5
56
  8
2
 10
158.28605897587011
 20
131.7320508075689
 30
0.0
 11
158.91647391406201
 21
130.0
 31
0.0
  0
LINE
  5
57
  8
2
 10
154.28605897587019
 20
129.1339745962155
 30
0.0
 11
158.28605897587019
 21
129.1339745962155
 31
0.0
  0
LINE
  5
58
  8
2
 10
154.28605897587019
 20
128.2679491924311
 30
0.0
 11
158.28605897587011
 21
128.2679491924311
 31
0.0
  0
LINE
  5
59
  8
2
 10
158.28605897587011
 20
128.2679491924311
 30
0.0
 11
158.91647391406201
 21
130.0
 31
0.0
  0
LINE
  5
5A
  8
0
 10
154.28605897587019
 20
131.99999999999989
 30
0.0
 11
155.28605897587019
 21
132.99999999999989
 31
0.0
  0
LINE
  5
5B
  8
0
 10
154.28605897587019
 20
128.0
 30
0.0
 11
155.28605897587019
 21
127.0
 31
0.0
  0
LINE
  5
5C
  8
0
 10
155.28605897587019
 20
133.0
 30
0.0
 11
155.28605897587019
 21
126.9999999999999
 31
0.0
  0
CIRCLE
  5
5D
  8
0
 10
90.0
 20
130.0
 30
0.0
 40
3.0
  0
CIRCLE
  5
5E
  8
3
 10
90.0
 20
130.0
 30
0.0
 40
2.458499999999999
  0
LINE
  5
5F
  8
1
 10
104.0
 20
130.0
 30
0.0
 11
76.0
 21
130.0
 31
0.0
  0
LINE
  5
60
  8
1
 10
90.0
 20
144.0
 30
0.0
 11
90.0
 21
116.0
 31
0.0
  0
LINE
  5
61
  8
0
 10
155.28605897587019
 20
127.0
 30
0.0
 11
164.78605897587019
 21
127.0
 31
0.0
  0
LINE
  5
62
  8
0
 10
155.28605897587019
 20
133.0
 30
0.0
 11
164.78605897587019
 21
133.0
 31
0.0
  0
LINE
  5
63
  8
0
 10
165.28605897587019
 20
132.19999999999999
 30
0.0
 11
166.78605897587019
 21
132.19999999999999
 31
0.0
  0
LINE
  5
64
  8
0
 10
165.28605897587011
 20
127.8
 30
0.0
 11
166.78605897587019
 21
127.8
 31
0.0
  0
LINE
  5
65
  8
0
 10
164.78605897587011
 20
133.0
 30
0.0
 11
164.78605897587011
 21
127.0
 31
0.0
  0
LINE
  5
66
  8
0
 10
167.2860589758703
 20
135.0
 30
0.0
 11
167.28605897587011
 21
125.0
 31
0.0
  0
ARC
  5
67
  8
0
 10
165.28605897587019
 20
132.69999999999999
 30
0.0
 40
0.5
 50
180.0
 51
269.99999999999989
  0
ARC
  5
68
  8
0
 10
166.78605897587019
 20
132.69999999999999
 30
0.0
 40
0.5
 50
270.0
 51
0.0
  0
ARC
  5
69
  8
0
 10
166.78605897587019
 20
127.3
 30
0.0
 40
0.5
 50
359.99999999999937
 51
90.0
  0
ARC
  5
6A
  8
0
 10
165.28605897587011
 20
127.3
 30
0.0
 40
0.5
 50
90.0
 51
179.99999999999989
  0
LINE
  5
6B
  8
1
 10
270.0
 20
144.0
 30
0.0
 11
270.0
 21
116.0
 31
0.0
  0
LINE
  5
6C
  8
1
 10
284.0
 20
130.0
 30
0.0
 11
256.0
 21
130.0
 31
0.0
  0
CIRCLE
  5
6D
  8
0
 10
270.0
 20
130.0
 30
0.0
 40
9.0
  0
ARC
  5
6E
  8
0
 10
165.28605897587011
 20
197.30000000000001
 30
0.0
 40
0.5
 50
90.0
 51
179.99999999999989
  0
ARC
  5
6F
  8
0
 10
166.78605897587019
 20
197.30000000000001
 30
0.0
 40
0.5
 50
359.99999999999937
 51
90.0
  0
ARC
  5
70
  8
0
 10
166.78605897587019
 20
202.69999999999999
 30
0.0
 40
0.5
 50
270.0
 51
0.0
  0
ARC
  5
71
  8
0
 10
165.28605897587019
 20
202.69999999999999
 30
0.0
 40
0.5
 50
180.0
 51
269.99999999999989
  0
LINE
  5
72
  8
0
 10
167.2860589758703
 20
205.0
 30
0.0
 11
167.28605897587011
 21
195.0
 31
0.0
  0
LINE
  5
73
  8
0
 10
164.78605897587011
 20
203.0
 30
0.0
 11
164.78605897587011
 21
197.0
 31
0.0
  0
LINE
  5
74
  8
0
 10
165.28605897587011
 20
197.80000000000001
 30
0.0
 11
166.78605897587019
 21
197.80000000000001
 31
0.0
  0
LINE
  5
75
  8
0
 10
165.28605897587019
 20
202.19999999999999
 30
0.0
 11
166.78605897587019
 21
202.19999999999999
 31
0.0
  0
LINE
  5
76
  8
0
 10
155.28605897587019
 20
203.0
 30
0.0
 11
164.78605897587019
 21
203.0
 31
0.0
  0
LINE
  5
77
  8
0
 10
155.28605897587019
 20
197.0
 30
0.0
 11
164.78605897587019
 21
197.0
 31
0.0
  0
LINE
  5
78
  8
0
 10
155.28605897587019
 20
203.0
 30
0.0
 11
155.28605897587019
 21
196.99999999999989
 31
0.0
  0
LINE
  5
79
  8
0
 10
154.28605897587019
 20
198.0
 30
0.0
 11
155.28605897587019
 21
197.0
 31
0.0
  0
LINE
  5
7A
  8
0
 10
154.28605897587019
 20
202.0
 30
0.0
 11
155.28605897587019
 21
202.99999999999989
 31
0.0
  0
LINE
  5
7B
  8
2
 10
158.28605897587019
 20
201.5
 30
0.0
 11
158.28605897587019
 21
198.5
 31
0.0
  0
LINE
  5
7C
  8
0
 10
167.28605897587019
 20
205.0
 30
0.0
 11
167.5860589758702
 21
205.0
 31
0.0
  0
LINE
  5
7D
  8
0
 10
167.5860589758702
 20
206.77243876796879
 30
0.0
 11
167.58605897587009
 21
195.0
 31
0.0
  0
LINE
  5
7E
  8
0
 10
205.6919786136055
 20
192.10263607054361
 30
0.0
 11
205.6919786136055
 21
207.8973639294563
 31
0.0
  0
LINE
  5
7F
  8
0
 10
183.3662082904585
 20
191.0
 30
0.0
 11
183.3662082904585
 21
208.99999999999989
 31
0.0
  0
LINE
  5
80
  8
0
 10
204.78151314560529
 20
191.0
 30
0.0
 11
183.3662082904585
 21
191.0
 31
0.0
  0
LINE
  5
81
  8
0
 10
167.28605897587011
 20
195.0
 30
0.0
 11
167.5860589758702
 21
195.0
 31
0.0
  0
LINE
  5
82
  8
0
 10
167.5860589758702
 20
195.0
 30
0.0
 11
167.5860589758702
 21
193.22756123203129
 31
0.0
  0
LINE
  5
83
  8
0
 10
168.310355315534
 20
192.43115118952059
 30
0.0
 11
183.36620829045859
 21
191.0
 31
0.0
  0
LINE
  5
84
  8
0
 10
154.28605897587019
 20
202.0
 30
0.0
 11
154.28605897587019
 21
198.0
 31
0.0
  0
LINE
  5
85
  8
3
 10
164.78605897587019
 20
197.54150000000001
 30
0.0
 11
154.74455897587021
 21
197.54150000000001
 31
0.0
  0
ARC
  5
86
  8
0
 10
168.38605897587021
 20
193.22756123203121
 30
0.0
 40
0.8
 50
180.0
 51
264.57000000000011
  0
ARC
  5
87
  8
0
 10
177.28605897587011
 20
200.0
 30
0.0
 40
30.0
 50
344.7424769291917
 51
360.0
  0
ARC
  5
88
  8
0
 10
204.7815131456052
 20
192.5
 30
0.0
 40
1.5
 50
270.0
 51
344.74247670954361
  0
ARC
  5
89
  8
0
 10
204.7815131456052
 20
207.5
 30
0.0
 40
1.5
 50
15.25752329045638
 51
90.0
  0
ARC
  5
8A
  8
0
 10
177.28605897587011
 20
200.0
 30
0.0
 40
30.0
 50
0.0
 51
15.25752351010448
  0
ARC
  5
8B
  8
0
 10
168.38605897587021
 20
206.77243876796879
 30
0.0
 40
0.8
 50
95.429999999999922
 51
179.99999999999989
  0
LINE
  5
8C
  8
3
 10
164.78605897587019
 20
202.45849999999999
 30
0.0
 11
154.74455897587021
 21
202.45849999999999
 31
0.0
  0
LINE
  5
8D
  8
0
 10
168.31035342526519
 20
207.5688486307977
 30
0.0
 11
183.36620829045859
 21
209.0
 31
0.0
  0
LINE
  5
8E
  8
0
 10
204.78151584300349
 20
209.0
 30
0.0
 11
183.3662082904585
 21
209.0
 31
0.0
  0
LINE
  5
8F
  8
1
 10
149.28605897587019
 20
200.0
 30
0.0
 11
212.28605897587019
 21
200.0
 31
0.0
  0
LINE
  5
90
  8
2
 10
154.28605897587019
 20
201.5
 30
0.0
 11
158.28605897587019
 21
201.5
 31
0.0
  0
LINE
  5
91
  8
2
 10
154.28605897587019
 20
198.5
 30
0.0
 11
158.28605897587019
 21
198.5
 31
0.0
  0
LINE
  5
92
  8
2
 10
158.28605897587019
 20
201.5
 30
0.0
 11
158.91647391406201
 21
200.0
 31
0.0
  0
LINE
  5
93
  8
2
 10
158.91647391406201
 20
200.0
 30
0.0
 11
158.28605897587019
 21
198.5
 31
0.0
  0
LINE
  5
94
  8
2
 10
154.28605897587019
 20
200.0
 30
0.0
 11
158.28605897587019
 21
200.0
 31
0.0
  0
LINE
  5
95
  8
2
 10
154.28605897587019
 20
60.0
 30
0.0
 11
158.28605897587019
 21
60.000000000000028
 31
0.0
  0
LINE
  5
96
  8
2
 10
158.91647391406201
 20
60.0
 30
0.0
 11
158.28605897587019
 21
58.5
 31
0.0
  0
LINE
  5
97
  8
2
 10
158.28605897587019
 20
61.500000000000028
 30
0.0
 11
158.91647391406201
 21
60.0
 31
0.0
  0
LINE
  5
98
  8
2
 10
154.28605897587019
 20
58.5
 30
0.0
 11
158.28605897587019
 21
58.5
 31
0.0
  0
LINE
  5
99
  8
2
 10
154.28605897587019
 20
61.5
 30
0.0
 11
158.28605897587019
 21
61.500000000000028
 31
0.0
  0
LINE
  5
9A
  8
1
 10
149.28605897587019
 20
60.0
 30
0.0
 11
212.28605897587019
 21
60.0
 31
0.0
  0
LINE
  5
9B
  8
0
 10
204.78151584300349
 20
69.0
 30
0.0
 11
183.3662082904585
 21
69.0
 31
0.0
  0
LINE
  5
9C
  8
0
 10
168.31035342526519
 20
67.568848630797731
 30
0.0
 11
183.36620829045859
 21
69.0
 31
0.0
  0
LINE
  5
9D
  8
3
 10
164.78605897587019
 20
62.458500000000008
 30
0.0
 11
154.74455897587021
 21
62.458499999999987
 31
0.0
  0
ARC
  5
9E
  8
0
 10
168.38605897587021
 20
66.772438767968765
 30
0.0
 40
0.8
 50
95.429999999999922
 51
179.99999999999989
  0
ARC
  5
9F
  8
0
 10
177.28605897587011
 20
60.0
 30
0.0
 40
30.0
 50
0.0
 51
15.25752351010448
  0
ARC
  5
A0
  8
0
 10
204.7815131456052
 20
67.5
 30
0.0
 40
1.5
 50
15.25752329045638
 51
90.0
  0
ARC
  5
A1
  8
0
 10
204.7815131456052
 20
52.5
 30
0.0
 40
1.5
 50
270.0
 51
344.74247670954361
  0
ARC
  5
A2
  8
0
 10
177.28605897587011
 20
60.0
 30
0.0
 40
30.0
 50
344.7424769291917
 51
360.0
  0
ARC
  5
A3
  8
0
 10
168.38605897587021
 20
53.227561232031242
 30
0.0
 40
0.8
 50
180.0
 51
264.57000000000011
  0
LINE
  5
A4
  8
3
 10
164.78605897587019
 20
57.541499999999992
 30
0.0
 11
154.74455897587021
 21
57.541499999999992
 31
0.0
  0
LINE
  5
A5
  8
0
 10
154.28605897587019
 20
61.999999999999972
 30
0.0
 11
154.28605897587019
 21
58.0
 31
0.0
  0
LINE
  5
A6
  8
0
 10
168.310355315534
 20
52.431151189520648
 30
0.0
 11
183.36620829045859
 21
51.0
 31
0.0
  0
LINE
  5
A7
  8
0
 10
167.5860589758702
 20
55.0
 30
0.0
 11
167.5860589758702
 21
53.227561232031292
 31
0.0
  0
LINE
  5
A8
  8
0
 10
167.28605897587011
 20
55.0
 30
0.0
 11
167.5860589758702
 21
55.0
 31
0.0
  0
LINE
  5
A9
  8
0
 10
204.78151314560529
 20
51.000000000000028
 30
0.0
 11
183.3662082904585
 21
51.0
 31
0.0
  0
LINE
  5
AA
  8
0
 10
183.3662082904585
 20
51.000000000000028
 30
0.0
 11
183.3662082904585
 21
68.999999999999943
 31
0.0
  0
LINE
  5
AB
  8
0
 10
205.6919786136055
 20
52.102636070543667
 30
0.0
 11
205.6919786136055
 21
67.897363929456333
 31
0.0
  0
LINE
  5
AC
  8
0
 10
167.5860589758702
 20
66.772438767968765
 30
0.0
 11
167.58605897587009
 21
55.0
 31
0.0
  0
LINE
  5
AD
  8
0
 10
167.28605897587019
 20
65.0
 30
0.0
 11
167.5860589758702
 21
65.0
 31
0.0
  0
LINE
  5
AE
  8
2
 10
158.28605897587019
 20
61.500000000000028
 30
0.0
 11
158.28605897587019
 21
58.5
 31
0.0
  0
LINE
  5
AF
  8
0
 10
154.28605897587019
 20
61.999999999999943
 30
0.0
 11
155.28605897587019
 21
62.999999999999943
 31
0.0
  0
LINE
  5
B0
  8
0
 10
154.28605897587019
 20
58.0
 30
0.0
 11
155.28605897587019
 21
57.0
 31
0.0
  0
LINE
  5
B1
  8
0
 10
155.28605897587019
 20
63.0
 30
0.0
 11
155.28605897587019
 21
56.999999999999943
 31
0.0
  0
LINE
  5
B2
  8
0
 10
155.28605897587019
 20
57.0
 30
0.0
 11
164.78605897587019
 21
57.0
 31
0.0
  0
LINE
  5
B3
  8
0
 10
155.28605897587019
 20
62.999999999999972
 30
0.0
 11
164.78605897587019
 21
63.0
 31
0.0
  0
LINE
  5
B4
  8
0
 10
165.28605897587019
 20
62.199999999999982
 30
0.0
 11
166.78605897587019
 21
62.199999999999982
 31
0.0
  0
LINE
  5
B5
  8
0
 10
165.28605897587011
 20
57.800000000000011
 30
0.0
 11
166.78605897587019
 21
57.800000000000011
 31
0.0
  0
LINE
  5
B6
  8
0
 10
164.78605897587011
 20
63.0
 30
0.0
 11
164.78605897587011
 21
57.0
 31
0.0
  0
LINE
  5
B7
  8
0
 10
167.2860589758703
 20
65.0
 30
0.0
 11
167.28605897587011
 21
55.0
 31
0.0
  0
ARC
  5
B8
  8
0
 10
165.28605897587019
 20
62.699999999999989
 30
0.0
 40
0.5
 50
180.0
 51
269.99999999999989
  0
ARC
  5
B9
  8
0
 10
166.78605897587019
 20
62.699999999999989
 30
0.0
 40
0.5
 50
270.0
 51
0.0
  0
ARC
  5
BA
  8
0
 10
166.78605897587019
 20
57.300000000000011
 30
0.0
 40
0.5
 50
359.99999999999937
 51
90.0
  0
ARC
  5
BB
  8
0
 10
165.28605897587011
 20
57.300000000000011
 30
0.0
 40
0.5
 50
90.0
 51
179.99999999999989
  0
TEXT
  5
20F
  8
0
 62
     3
 10
0.0
 20
0.0
 30
0.0
 40
10.0
  1
RG40
  7
STANDARD1
  0
ENDSEC
  0
EOF
