  0
SECTION
  2
HEADER
  9
$ACADVER
  1
AC1009
  9
$INSBASE
 10
0.0
 20
0.0
 30
0.0
  9
$EXTMIN
 10
0.0
 20
-2.960436562073669
 30
0.0
  9
$EXTMAX
 10
306.5
 20
211.5
 30
0.0
  9
$LIMMIN
 10
0.0
 20
0.0
  9
$LIMMAX
 10
375.0
 20
270.0
  9
$ORTHOMODE
 70
     1
  9
$REGENMODE
 70
     1
  9
$FILLMODE
 70
     1
  9
$QTEXTMODE
 70
     0
  9
$MIRRTEXT
 70
     0
  9
$DRAGMODE
 70
     2
  9
$LTSCALE
 40
10.0
  9
$OSMODE
 70
    55
  9
$ATTMODE
 70
     1
  9
$TEXTSIZE
 40
5.0
  9
$TRACEWID
 40
0.05
  9
$TEXTSTYLE
  7
STANDARD
  9
$CLAYER
  8
0
  9
$CELTYPE
  6
BYLAYER
  9
$CECOLOR
 62
   256
  9
$DIMSCALE
 40
1.0
  9
$DIMASZ
 40
3.0
  9
$DIMEXO
 40
2.0
  9
$DIMDLI
 40
10.0
  9
$DIMRND
 40
0.0
  9
$DIMDLE
 40
0.0
  9
$DIMEXE
 40
2.0
  9
$DIMTP
 40
0.0
  9
$DIMTM
 40
0.0
  9
$DIMTXT
 40
3.2000000000000002
  9
$DIMCEN
 40
0.09
  9
$DIMTSZ
 40
0.0
  9
$DIMTOL
 70
     0
  9
$DIMLIM
 70
     0
  9
$DIMTIH
 70
     0
  9
$DIMTOH
 70
     0
  9
$DIMSE1
 70
     0
  9
$DIMSE2
 70
     0
  9
$DIMTAD
 70
     0
  9
$DIMZIN
 70
     0
  9
$DIMBLK
  1

  9
$DIMASO
 70
     1
  9
$DIMSHO
 70
     0
  9
$DIMPOST
  1

  9
$DIMAPOST
  1

  9
$DIMALT
 70
     0
  9
$DIMALTD
 70
     2
  9
$DIMALTF
 40
25.399999999999999
  9
$DIMLFAC
 40
1.0
  9
$DIMTOFL
 70
     1
  9
$DIMTVP
 40
1.0
  9
$DIMTIX
 70
     1
  9
$DIMSOXD
 70
     0
  9
$DIMSAH
 70
     0
  9
$DIMBLK1
  1

  9
$DIMBLK2
  1

  9
$DIMSTYLE
  2
STANDARD
  9
$DIMCLRD
 70
     0
  9
$DIMCLRE
 70
     0
  9
$DIMCLRT
 70
     0
  9
$DIMTFAC
 40
1.0
  9
$DIMGAP
 40
0.09
  9
$LUNITS
 70
     2
  9
$LUPREC
 70
     4
  9
$SKETCHINC
 40
0.1
  9
$FILLETRAD
 40
2.0
  9
$AUNITS
 70
     0
  9
$AUPREC
 70
     0
  9
$MENU
  1
E:\r13\win\SUPPORT\ACAD
  9
$ELEVATION
 40
0.0
  9
$PELEVATION
 40
0.0
  9
$THICKNESS
 40
0.0
  9
$LIMCHECK
 70
     0
  9
$BLIPMODE
 70
     0
  9
$CHAMFERA
 40
0.0
  9
$CHAMFERB
 40
0.0
  9
$SKPOLY
 70
     0
  9
$TDCREATE
 40
2449839.781354167
  9
$TDUPDATE
 40
2456598.5932486118
  9
$TDINDWG
 40
0.0001712153
  9
$TDUSRTIMER
 40
0.0001712153
  9
$USRTIMER
 70
     1
  9
$ANGBASE
 50
0.0
  9
$ANGDIR
 70
     0
  9
$PDMODE
 70
     0
  9
$PDSIZE
 40
0.0
  9
$PLINEWID
 40
0.0
  9
$COORDS
 70
     1
  9
$SPLFRAME
 70
     0
  9
$SPLINETYPE
 70
     6
  9
$SPLINESEGS
 70
     8
  9
$ATTDIA
 70
     0
  9
$ATTREQ
 70
     1
  9
$HANDLING
 70
     1
  9
$HANDSEED
  5
2A6
  9
$SURFTAB1
 70
     6
  9
$SURFTAB2
 70
     6
  9
$SURFTYPE
 70
     6
  9
$SURFU
 70
     6
  9
$SURFV
 70
     6
  9
$UCSNAME
  2

  9
$UCSORG
 10
0.0
 20
0.0
 30
0.0
  9
$UCSXDIR
 10
1.0
 20
0.0
 30
0.0
  9
$UCSYDIR
 10
0.0
 20
1.0
 30
0.0
  9
$PUCSNAME
  2

  9
$PUCSORG
 10
0.0
 20
0.0
 30
0.0
  9
$PUCSXDIR
 10
1.0
 20
0.0
 30
0.0
  9
$PUCSYDIR
 10
0.0
 20
1.0
 30
0.0
  9
$USERI1
 70
     0
  9
$USERI2
 70
     1
  9
$USERI3
 70
     1
  9
$USERI4
 70
     0
  9
$USERI5
 70
     0
  9
$USERR1
 40
0.0
  9
$USERR2
 40
0.0
  9
$USERR3
 40
0.0
  9
$USERR4
 40
0.0
  9
$USERR5
 40
0.0
  9
$WORLDVIEW
 70
     1
  9
$SHADEDGE
 70
     3
  9
$SHADEDIF
 70
    70
  9
$TILEMODE
 70
     1
  9
$MAXACTVP
 70
    16
  9
$PLIMCHECK
 70
     0
  9
$PEXTMIN
 10
1.0000000000000000E+020
 20
1.0000000000000000E+020
 30
1.0000000000000000E+020
  9
$PEXTMAX
 10
-1.0000000000000000E+020
 20
-1.0000000000000000E+020
 30
-1.0000000000000000E+020
  9
$PLIMMIN
 10
0.0
 20
0.0
  9
$PLIMMAX
 10
12.0
 20
9.0
  9
$UNITMODE
 70
     0
  9
$VISRETAIN
 70
     0
  9
$PLINEGEN
 70
     0
  9
$PSLTSCALE
 70
     0
  0
ENDSEC
  0
SECTION
  2
TABLES
  0
TABLE
  2
VPORT
 70
     1
  0
VPORT
  2
*ACTIVE
 70
     0
 10
0.0
 20
0.0
 11
1.0
 21
1.0
 12
187.49427839065231
 22
194.785247995265
 13
0.0
 23
0.0
 14
10.0
 24
10.0
 15
10.0
 25
10.0
 16
0.0
 26
0.0
 36
1.0
 17
0.0
 27
0.0
 37
0.0
 40
399.3463374158577
 41
1.7807262569832401
 42
50.0
 43
0.0
 44
0.0
 50
0.0
 51
0.0
 71
     0
 72
   500
 73
     1
 74
     0
 75
     0
 76
     0
 77
     0
 78
     2
  0
ENDTAB
  0
TABLE
  2
LTYPE
 70
     4
  0
LTYPE
  2
CONTINUOUS
 70
     0
  3
Solid Line
 72
    65
 73
     0
 40
0.0
  0
LTYPE
  2
CENTER
 70
     0
  3
____ _ ____ _ ____ _ ____ _ ____ _ ____ _ ____
 72
    65
 73
     4
 40
2.0
 49
1.25
 49
-0.25
 49
0.25
 49
-0.25
  0
LTYPE
  2
HIDDEN
 70
     0
  3
_ _ _ _ _ _ _ _ _ _ _ _ _ _ _ _ _ _ _ _ _ _ _
 72
    65
 73
     2
 40
0.375
 49
0.25
 49
-0.125
  0
LTYPE
  2
PHANTOM2
 70
     0
  3
___ _ _ ___ _ _ ___ _ _ ___ _ _
 72
    65
 73
     6
 40
1.25
 49
0.625
 49
-0.125
 49
0.125
 49
-0.125
 49
0.125
 49
-0.125
  0
ENDTAB
  0
TABLE
  2
LAYER
 70
     4
  0
LAYER
  2
0
 70
     0
 62
     7
  6
CONTINUOUS
  0
LAYER
  2
1
 70
     0
 62
     1
  6
CENTER
  0
LAYER
  2
3
 70
     0
 62
     3
  6
CONTINUOUS
  0
LAYER
  2
2
 70
     0
 62
     2
  6
HIDDEN
  0
ENDTAB
  0
TABLE
  2
STYLE
 70
     2
  0
STYLE
  2
STANDARD
 70
     0
 40
0.0
 41
1.0
 50
0.0
 71
     0
 42
5.0
  3
TXT
  4
BIGFONT
  0
STYLE
  2
STANDARD1
 70
     0
 40
0.0
 41
1.0
 50
0.0
 71
     0
 42
3.0
  3
txt
  4

  0
ENDTAB
  0
TABLE
  2
VIEW
 70
     1
  0
VIEW
  2
ALL
 70
     0
 40
270.0
 10
220.99159663865549
 20
135.0
 41
0.0
 11
0.0
 21
0.0
 31
1.0
 12
0.0
 22
0.0
 32
0.0
 42
0.0
 43
0.0
 44
0.0
 50
0.0
 71
     0
  0
ENDTAB
  0
TABLE
  2
UCS
 70
     0
  0
ENDTAB
  0
TABLE
  2
APPID
 70
     3
  0
APPID
  2
ACAD
 70
     0
  0
APPID
  2
ACAD_MLEADERVER
 70
     0
  0
APPID
  2
ACAD_NAV_VCDISPLAY
 70
     0
  0
ENDTAB
  0
TABLE
  2
DIMSTYLE
 70
     1
  0
DIMSTYLE
  2
STANDARD
 70
     0
  3

  4

  5

  6

  7

 40
1.0
 41
0.18
 42
0.0625
 43
0.38
 44
0.18
 45
0.0
 46
0.0
 47
0.0
 48
0.0
140
0.18
141
0.09
142
0.0
143
25.399999999999999
144
1.0
145
0.0
146
1.0
147
0.09
 71
     0
 72
     0
 73
     1
 74
     1
 75
     0
 76
     0
 77
     0
 78
     0
170
     0
171
     2
172
     0
173
     0
174
     0
175
     0
176
     0
177
     0
178
     0
  0
ENDTAB
  0
ENDSEC
  0
SECTION
  2
BLOCKS
  0
BLOCK
  8
0
  2
$MODEL_SPACE
 70
     0
 10
0.0
 20
0.0
 30
0.0
  3
$MODEL_SPACE
  1

  0
ENDBLK
  5
125
  8
0
  0
BLOCK
 67
     1
  8
0
  2
$PAPER_SPACE
 70
     0
 10
0.0
 20
0.0
 30
0.0
  3
$PAPER_SPACE
  1

  0
ENDBLK
  5
123
 67
     1
  8
0
  0
ENDSEC
  0
SECTION
  2
ENTITIES
  0
LINE
  5
36
  8
1
 10
142.28890882483739
 20
130.0
 30
0.0
 11
232.28890882483739
 21
130.0
 31
0.0
  0
CIRCLE
  5
37
  8
0
 10
80.0
 20
130.0
 30
0.0
 40
11.5
  0
CIRCLE
  5
38
  8
0
 10
80.0
 20
130.0
 30
0.0
 40
9.5
  0
CIRCLE
  5
39
  8
0
 10
80.0
 20
130.0
 30
0.0
 40
6.0
  0
CIRCLE
  5
3A
  8
0
 10
80.0
 20
130.0
 30
0.0
 40
4.0
  0
LINE
  5
3B
  8
0
 10
82.0
 20
128.8452994616207
 30
0.0
 11
82.0
 21
131.15470053837919
 31
0.0
  0
LINE
  5
3C
  8
0
 10
82.000000000000014
 20
131.15470053837919
 30
0.0
 11
80.0
 21
132.30940107675849
 31
0.0
  0
LINE
  5
3D
  8
0
 10
80.0
 20
132.30940107675849
 30
0.0
 11
78.0
 21
131.15470053837919
 31
0.0
  0
LINE
  5
3E
  8
0
 10
78.0
 20
131.15470053837919
 30
0.0
 11
78.0
 21
128.8452994616207
 31
0.0
  0
LINE
  5
3F
  8
0
 10
78.0
 20
128.8452994616207
 30
0.0
 11
80.0
 21
127.6905989232415
 31
0.0
  0
LINE
  5
40
  8
0
 10
79.999999999999986
 20
127.6905989232415
 30
0.0
 11
82.0
 21
128.8452994616207
 31
0.0
  0
LINE
  5
41
  8
0
 10
224.3394136042763
 20
141.5
 30
0.0
 11
189.28890882483739
 21
141.5
 31
0.0
  0
LINE
  5
42
  8
0
 10
163.514209829311
 20
139.56931093666469
 30
0.0
 11
189.28890882483739
 21
141.5
 31
0.0
  0
ARC
  5
43
  8
0
 10
177.28890882483739
 20
130.0
 30
0.0
 40
50.0
 50
0.0
 51
11.41515774273047
  0
ARC
  5
44
  8
0
 10
163.5889088248374
 20
138.57210480949189
 30
0.0
 40
1.0
 50
94.283818526272654
 51
179.99999999999989
  0
ARC
  5
45
  8
0
 10
177.28890882483739
 20
130.0
 30
0.0
 40
50.0
 50
348.58484225726949
 51
360.0
  0
LINE
  5
46
  8
0
 10
147.28890882483739
 20
133.0
 30
0.0
 11
147.28890882483739
 21
126.9999999999999
 31
0.0
  0
LINE
  5
47
  8
0
 10
163.51421172601729
 20
120.4306889212599
 30
0.0
 11
189.28890882483739
 21
118.5
 31
0.0
  0
LINE
  5
48
  8
0
 10
162.5889088248374
 20
124.0
 30
0.0
 11
162.5889088248374
 21
121.4278951905081
 31
0.0
  0
LINE
  5
49
  8
0
 10
162.28890882483739
 20
124.0
 30
0.0
 11
162.5889088248374
 21
124.0
 31
0.0
  0
LINE
  5
4A
  8
0
 10
224.3394136042763
 20
118.5
 30
0.0
 11
189.28890882483739
 21
118.5
 31
0.0
  0
LINE
  5
4B
  8
0
 10
189.28890882483731
 20
118.5
 30
0.0
 11
189.28890882483739
 21
141.5
 31
0.0
  0
LINE
  5
4C
  8
0
 10
162.5889088248374
 20
124.0
 30
0.0
 11
162.5889088248374
 21
138.57210615819099
 31
0.0
  0
LINE
  5
4D
  8
0
 10
225.60597061707381
 20
120.10238237259659
 30
0.0
 11
225.60597061707381
 21
139.89761762740329
 31
0.0
  0
LINE
  5
4E
  8
0
 10
162.28890882483739
 20
136.0
 30
0.0
 11
162.5889088248374
 21
136.0
 31
0.0
  0
LINE
  5
4F
  8
2
 10
151.28890882483731
 20
127.6905989232415
 30
0.0
 11
151.28890882483731
 21
132.30940107675849
 31
0.0
  0
LINE
  5
50
  8
2
 10
147.28890882483739
 20
132.30940107675849
 30
0.0
 11
151.28890882483731
 21
132.30940107675849
 31
0.0
  0
LINE
  5
51
  8
2
 10
147.28890882483739
 20
131.1547005383793
 30
0.0
 11
151.28890882483731
 21
131.1547005383793
 31
0.0
  0
LINE
  5
52
  8
2
 10
151.28890882483731
 20
132.30940107675849
 30
0.0
 11
152.12946207575979
 21
130.0
 31
0.0
  0
LINE
  5
53
  8
2
 10
151.28890882483731
 20
127.6905989232414
 30
0.0
 11
152.12946207575979
 21
130.0
 31
0.0
  0
LINE
  5
54
  8
2
 10
147.28890882483739
 20
128.84529946162061
 30
0.0
 11
151.28890882483731
 21
128.84529946162061
 31
0.0
  0
LINE
  5
55
  8
2
 10
147.28890882483739
 20
127.6905989232414
 30
0.0
 11
151.28890882483731
 21
127.6905989232415
 31
0.0
  0
LINE
  5
56
  8
0
 10
147.28890882483739
 20
133.0
 30
0.0
 11
148.28890882483739
 21
134.0
 31
0.0
  0
LINE
  5
57
  8
0
 10
147.28890882483739
 20
127.0
 30
0.0
 11
148.28890882483739
 21
126.0
 31
0.0
  0
LINE
  5
58
  8
0
 10
148.28890882483739
 20
126.0
 30
0.0
 11
148.28890882483731
 21
134.0
 31
0.0
  0
CIRCLE
  5
59
  8
3
 10
80.0
 20
130.0
 30
0.0
 40
3.3235000000000001
  0
LINE
  5
5A
  8
1
 10
96.5
 20
130.0
 30
0.0
 11
63.5
 21
130.0
 31
0.0
  0
LINE
  5
5B
  8
1
 10
80.0
 20
146.5
 30
0.0
 11
80.0
 21
113.5
 31
0.0
  0
LINE
  5
5C
  8
0
 10
148.28890882483731
 20
126.0
 30
0.0
 11
159.28890882483739
 21
126.0
 31
0.0
  0
LINE
  5
5D
  8
3
 10
147.61240882483739
 20
126.6764999999999
 30
0.0
 11
159.28890882483739
 21
126.6764999999999
 31
0.0
  0
LINE
  5
5E
  8
3
 10
147.6124088248375
 20
133.32350000000011
 30
0.0
 11
159.28890882483739
 21
133.32350000000011
 31
0.0
  0
LINE
  5
5F
  8
0
 10
148.28890882483739
 20
134.0
 30
0.0
 11
159.28890882483739
 21
133.99999999999989
 31
0.0
  0
LINE
  5
60
  8
0
 10
159.78890882483731
 20
133.25
 30
0.0
 11
161.78890882483739
 21
133.25
 31
0.0
  0
LINE
  5
61
  8
0
 10
159.78890882483739
 20
126.75
 30
0.0
 11
161.78890882483739
 21
126.75
 31
0.0
  0
LINE
  5
62
  8
0
 10
159.2889088248383
 20
133.99999999999989
 30
0.0
 11
159.28890882483739
 21
126.0
 31
0.0
  0
LINE
  5
63
  8
0
 10
162.28890882483739
 20
136.0
 30
0.0
 11
162.28890882483739
 21
124.0
 31
0.0
  0
ARC
  5
64
  8
0
 10
159.78890882483731
 20
133.75
 30
0.0
 40
0.5
 50
180.0
 51
270.00000000000023
  0
ARC
  5
65
  8
0
 10
161.78890882483739
 20
133.75
 30
0.0
 40
0.5
 50
270.00000000000028
 51
0.0
  0
ARC
  5
66
  8
0
 10
161.78890882483739
 20
126.25
 30
0.0
 40
0.5
 50
0.0
 51
90.000000000000256
  0
ARC
  5
67
  8
0
 10
159.78890882483739
 20
126.25
 30
0.0
 40
0.5
 50
90.000000000000327
 51
179.99999999999989
  0
ARC
  5
68
  8
0
 10
163.5889088248374
 20
121.4278951905081
 30
0.0
 40
1.0
 50
180.0
 51
265.71618147372732
  0
ARC
  5
69
  8
0
 10
224.3394136042763
 20
139.5
 30
0.0
 40
2.0
 50
11.41515774273053
 51
90.0
  0
ARC
  5
6A
  8
0
 10
224.3394136042763
 20
120.5
 30
0.0
 40
2.0
 50
270.0
 51
348.58484225726988
  0
LINE
  5
6B
  8
1
 10
290.0
 20
146.5
 30
0.0
 11
290.0
 21
113.5
 31
0.0
  0
LINE
  5
6C
  8
1
 10
306.5
 20
130.0
 30
0.0
 11
273.5
 21
130.0
 31
0.0
  0
CIRCLE
  5
6D
  8
0
 10
290.0
 20
130.0
 30
0.0
 40
11.5
  0
ARC
  5
6E
  8
0
 10
224.3394136042763
 20
190.5
 30
0.0
 40
2.0
 50
270.0
 51
348.58484225726988
  0
ARC
  5
6F
  8
0
 10
224.3394136042763
 20
209.5
 30
0.0
 40
2.0
 50
11.41515774273053
 51
90.0
  0
ARC
  5
70
  8
0
 10
163.5889088248374
 20
191.42789519050811
 30
0.0
 40
1.0
 50
180.0
 51
265.71618147372732
  0
ARC
  5
71
  8
0
 10
159.78890882483739
 20
196.25
 30
0.0
 40
0.5
 50
90.000000000000327
 51
179.99999999999989
  0
ARC
  5
72
  8
0
 10
161.78890882483739
 20
196.25
 30
0.0
 40
0.5
 50
0.0
 51
90.000000000000256
  0
ARC
  5
73
  8
0
 10
161.78890882483739
 20
203.75
 30
0.0
 40
0.5
 50
270.00000000000028
 51
0.0
  0
ARC
  5
74
  8
0
 10
159.78890882483731
 20
203.75
 30
0.0
 40
0.5
 50
180.0
 51
270.00000000000023
  0
LINE
  5
75
  8
0
 10
162.28890882483739
 20
206.0
 30
0.0
 11
162.28890882483739
 21
194.0
 31
0.0
  0
LINE
  5
76
  8
0
 10
159.2889088248383
 20
204.0
 30
0.0
 11
159.28890882483739
 21
195.99999999999989
 31
0.0
  0
LINE
  5
77
  8
0
 10
159.78890882483739
 20
196.75
 30
0.0
 11
161.78890882483739
 21
196.75
 31
0.0
  0
LINE
  5
78
  8
0
 10
159.78890882483731
 20
203.25
 30
0.0
 11
161.78890882483739
 21
203.25
 31
0.0
  0
LINE
  5
79
  8
0
 10
148.28890882483739
 20
204.0
 30
0.0
 11
159.28890882483739
 21
204.0
 31
0.0
  0
LINE
  5
7A
  8
3
 10
147.6124088248375
 20
203.32350000000011
 30
0.0
 11
159.28890882483739
 21
203.32350000000011
 31
0.0
  0
LINE
  5
7B
  8
3
 10
147.61240882483739
 20
196.67649999999981
 30
0.0
 11
159.28890882483739
 21
196.67649999999981
 31
0.0
  0
LINE
  5
7C
  8
0
 10
148.28890882483731
 20
195.99999999999989
 30
0.0
 11
159.28890882483739
 21
195.99999999999989
 31
0.0
  0
LINE
  5
7D
  8
0
 10
148.28890882483739
 20
195.99999999999989
 30
0.0
 11
148.28890882483731
 21
204.0
 31
0.0
  0
LINE
  5
7E
  8
0
 10
147.28890882483739
 20
196.99999999999989
 30
0.0
 11
148.28890882483739
 21
195.99999999999989
 31
0.0
  0
LINE
  5
7F
  8
0
 10
147.28890882483739
 20
203.0
 30
0.0
 11
148.28890882483739
 21
204.0
 31
0.0
  0
LINE
  5
80
  8
2
 10
151.28890882483731
 20
198.0
 30
0.0
 11
151.28890882483739
 21
202.0
 31
0.0
  0
LINE
  5
81
  8
0
 10
162.28890882483739
 20
206.0
 30
0.0
 11
162.5889088248374
 21
206.0
 31
0.0
  0
LINE
  5
82
  8
0
 10
225.60597061707381
 20
190.10238237259659
 30
0.0
 11
225.60597061707381
 21
209.89761762740329
 31
0.0
  0
LINE
  5
83
  8
0
 10
162.5889088248374
 20
194.0
 30
0.0
 11
162.5889088248374
 21
208.5721061581911
 31
0.0
  0
LINE
  5
84
  8
0
 10
189.28890882483731
 20
188.5
 30
0.0
 11
189.28890882483739
 21
211.5
 31
0.0
  0
LINE
  5
85
  8
0
 10
224.3394136042763
 20
188.49999999999989
 30
0.0
 11
189.28890882483739
 21
188.5
 31
0.0
  0
LINE
  5
86
  8
0
 10
162.28890882483739
 20
194.0
 30
0.0
 11
162.5889088248374
 21
194.0
 31
0.0
  0
LINE
  5
87
  8
0
 10
162.5889088248374
 20
194.0
 30
0.0
 11
162.5889088248374
 21
191.42789519050811
 31
0.0
  0
LINE
  5
88
  8
0
 10
163.51421172601729
 20
190.4306889212599
 30
0.0
 11
189.28890882483739
 21
188.5
 31
0.0
  0
LINE
  5
89
  8
0
 10
147.28890882483739
 20
203.0
 30
0.0
 11
147.28890882483739
 21
196.99999999999989
 31
0.0
  0
ARC
  5
8A
  8
0
 10
177.28890882483739
 20
200.0
 30
0.0
 40
50.0
 50
348.58484225726949
 51
360.0
  0
ARC
  5
8B
  8
0
 10
163.5889088248374
 20
208.57210480949189
 30
0.0
 40
1.0
 50
94.283818526272654
 51
179.99999999999989
  0
ARC
  5
8C
  8
0
 10
177.28890882483739
 20
200.0
 30
0.0
 40
50.0
 50
0.0
 51
11.41515774273047
  0
LINE
  5
8D
  8
0
 10
163.514209829311
 20
209.56931093666469
 30
0.0
 11
189.28890882483739
 21
211.5
 31
0.0
  0
LINE
  5
8E
  8
0
 10
224.3394136042763
 20
211.5
 30
0.0
 11
189.28890882483739
 21
211.5
 31
0.0
  0
LINE
  5
8F
  8
1
 10
142.28890882483739
 20
200.0
 30
0.0
 11
232.28890882483739
 21
200.0
 31
0.0
  0
LINE
  5
90
  8
2
 10
147.28890882483739
 20
202.0
 30
0.0
 11
151.28890882483731
 21
202.0
 31
0.0
  0
LINE
  5
91
  8
2
 10
147.28890882483739
 20
198.0
 30
0.0
 11
151.28890882483731
 21
198.0
 31
0.0
  0
LINE
  5
92
  8
2
 10
151.28890882483739
 20
202.0
 30
0.0
 11
152.12946207575979
 21
200.0
 31
0.0
  0
LINE
  5
93
  8
2
 10
152.12946207575979
 20
200.0
 30
0.0
 11
151.28890882483731
 21
198.0
 31
0.0
  0
LINE
  5
94
  8
2
 10
147.28890882483739
 20
200.0
 30
0.0
 11
151.28890882483731
 21
200.0
 31
0.0
  0
LINE
  5
95
  8
2
 10
147.28890882483739
 20
60.0
 30
0.0
 11
151.28890882483731
 21
60.0
 31
0.0
  0
LINE
  5
96
  8
2
 10
152.12946207575979
 20
60.0
 30
0.0
 11
151.28890882483731
 21
58.0
 31
0.0
  0
LINE
  5
97
  8
2
 10
151.28890882483739
 20
62.000000000000021
 30
0.0
 11
152.12946207575979
 21
60.0
 31
0.0
  0
LINE
  5
98
  8
2
 10
147.28890882483739
 20
58.0
 30
0.0
 11
151.28890882483731
 21
58.0
 31
0.0
  0
LINE
  5
99
  8
2
 10
147.28890882483739
 20
62.000000000000021
 30
0.0
 11
151.28890882483731
 21
62.000000000000021
 31
0.0
  0
LINE
  5
9A
  8
1
 10
142.28890882483739
 20
60.0
 30
0.0
 11
232.28890882483739
 21
60.0
 31
0.0
  0
LINE
  5
9B
  8
0
 10
224.3394136042763
 20
71.5
 30
0.0
 11
189.28890882483739
 21
71.5
 31
0.0
  0
LINE
  5
9C
  8
0
 10
163.514209829311
 20
69.569310936664692
 30
0.0
 11
189.28890882483739
 21
71.5
 31
0.0
  0
ARC
  5
9D
  8
0
 10
177.28890882483739
 20
60.0
 30
0.0
 40
50.0
 50
0.0
 51
11.41515774273047
  0
ARC
  5
9E
  8
0
 10
163.5889088248374
 20
68.572104809491904
 30
0.0
 40
1.0
 50
94.283818526272654
 51
179.99999999999989
  0
ARC
  5
9F
  8
0
 10
177.28890882483739
 20
60.0
 30
0.0
 40
50.0
 50
348.58484225726949
 51
360.0
  0
LINE
  5
A0
  8
0
 10
147.28890882483739
 20
62.999999999999972
 30
0.0
 11
147.28890882483739
 21
56.999999999999943
 31
0.0
  0
LINE
  5
A1
  8
0
 10
163.51421172601729
 20
50.430688921259957
 30
0.0
 11
189.28890882483739
 21
48.5
 31
0.0
  0
LINE
  5
A2
  8
0
 10
162.5889088248374
 20
54.0
 30
0.0
 11
162.5889088248374
 21
51.427895190508139
 31
0.0
  0
LINE
  5
A3
  8
0
 10
162.28890882483739
 20
54.0
 30
0.0
 11
162.5889088248374
 21
54.0
 31
0.0
  0
LINE
  5
A4
  8
0
 10
224.3394136042763
 20
48.499999999999972
 30
0.0
 11
189.28890882483739
 21
48.5
 31
0.0
  0
LINE
  5
A5
  8
0
 10
189.28890882483731
 20
48.5
 30
0.0
 11
189.28890882483739
 21
71.499999999999972
 31
0.0
  0
LINE
  5
A6
  8
0
 10
162.5889088248374
 20
54.0
 30
0.0
 11
162.5889088248374
 21
68.572106158191048
 31
0.0
  0
LINE
  5
A7
  8
0
 10
225.60597061707381
 20
50.102382372596651
 30
0.0
 11
225.60597061707381
 21
69.897617627403349
 31
0.0
  0
LINE
  5
A8
  8
0
 10
162.28890882483739
 20
66.0
 30
0.0
 11
162.5889088248374
 21
66.0
 31
0.0
  0
LINE
  5
A9
  8
2
 10
151.28890882483731
 20
57.999999999999972
 30
0.0
 11
151.28890882483739
 21
62.000000000000021
 31
0.0
  0
LINE
  5
AA
  8
0
 10
147.28890882483739
 20
63.0
 30
0.0
 11
148.28890882483739
 21
64.0
 31
0.0
  0
LINE
  5
AB
  8
0
 10
147.28890882483739
 20
56.999999999999972
 30
0.0
 11
148.28890882483739
 21
55.999999999999972
 31
0.0
  0
LINE
  5
AC
  8
0
 10
148.28890882483739
 20
55.999999999999972
 30
0.0
 11
148.28890882483731
 21
64.0
 31
0.0
  0
LINE
  5
AD
  8
0
 10
148.28890882483731
 20
55.999999999999972
 30
0.0
 11
159.28890882483739
 21
55.999999999999972
 31
0.0
  0
LINE
  5
AE
  8
3
 10
147.61240882483739
 20
56.676499999999862
 30
0.0
 11
159.28890882483739
 21
56.676499999999862
 31
0.0
  0
LINE
  5
AF
  8
3
 10
147.6124088248375
 20
63.323500000000081
 30
0.0
 11
159.28890882483739
 21
63.323500000000109
 31
0.0
  0
LINE
  5
B0
  8
0
 10
148.28890882483739
 20
64.0
 30
0.0
 11
159.28890882483739
 21
63.999999999999972
 31
0.0
  0
LINE
  5
B1
  8
0
 10
159.78890882483731
 20
63.25
 30
0.0
 11
161.78890882483739
 21
63.25
 31
0.0
  0
LINE
  5
B2
  8
0
 10
159.78890882483739
 20
56.75
 30
0.0
 11
161.78890882483739
 21
56.75
 31
0.0
  0
LINE
  5
B3
  8
0
 10
159.2889088248383
 20
63.999999999999972
 30
0.0
 11
159.28890882483739
 21
55.999999999999972
 31
0.0
  0
LINE
  5
B4
  8
0
 10
162.28890882483739
 20
66.0
 30
0.0
 11
162.28890882483739
 21
54.0
 31
0.0
  0
ARC
  5
B5
  8
0
 10
159.78890882483731
 20
63.75
 30
0.0
 40
0.5
 50
180.0
 51
270.00000000000023
  0
ARC
  5
B6
  8
0
 10
161.78890882483739
 20
63.75
 30
0.0
 40
0.5
 50
270.00000000000028
 51
0.0
  0
ARC
  5
B7
  8
0
 10
161.78890882483739
 20
56.25
 30
0.0
 40
0.5
 50
0.0
 51
90.000000000000256
  0
ARC
  5
B8
  8
0
 10
159.78890882483739
 20
56.25
 30
0.0
 40
0.5
 50
90.000000000000327
 51
179.99999999999989
  0
ARC
  5
B9
  8
0
 10
163.5889088248374
 20
51.427895190508139
 30
0.0
 40
1.0
 50
180.0
 51
265.71618147372732
  0
ARC
  5
BA
  8
0
 10
224.3394136042763
 20
69.5
 30
0.0
 40
2.0
 50
11.41515774273053
 51
90.0
  0
ARC
  5
BB
  8
0
 10
224.3394136042763
 20
50.5
 30
0.0
 40
2.0
 50
270.0
 51
348.58484225726988
  0
TEXT
  5
20F
  8
0
 62
     3
 10
0.0
 20
0.0
 30
0.0
 40
10.0
  1
RG65
  7
STANDARD1
  0
ENDSEC
  0
EOF
