  0
SECTION
  2
HEADER
  9
$ACADVER
  1
AC1009
  9
$INSBASE
 10
0.0
 20
0.0
 30
0.0
  9
$EXTMIN
 10
0.0
 20
-2.960436562073669
 30
0.0
  9
$EXTMAX
 10
247.5
 20
122.0
 30
0.0
  9
$LIMMIN
 10
0.0
 20
0.0
  9
$LIMMAX
 10
375.0
 20
270.0
  9
$ORTHOMODE
 70
     1
  9
$REGENMODE
 70
     1
  9
$FILLMODE
 70
     1
  9
$QTEXTMODE
 70
     0
  9
$MIRRTEXT
 70
     0
  9
$DRAGMODE
 70
     2
  9
$LTSCALE
 40
5.0
  9
$OSMODE
 70
    37
  9
$ATTMODE
 70
     1
  9
$TEXTSIZE
 40
4.000000000000048
  9
$TRACEWID
 40
0.05
  9
$TEXTSTYLE
  7
STANDARD
  9
$CLAYER
  8
0
  9
$CELTYPE
  6
BYLAYER
  9
$CECOLOR
 62
   256
  9
$DIMSCALE
 40
1.0
  9
$DIMASZ
 40
3.0
  9
$DIMEXO
 40
2.0
  9
$DIMDLI
 40
10.0
  9
$DIMRND
 40
0.0
  9
$DIMDLE
 40
0.0
  9
$DIMEXE
 40
2.0
  9
$DIMTP
 40
0.0
  9
$DIMTM
 40
0.0
  9
$DIMTXT
 40
3.2000000000000002
  9
$DIMCEN
 40
0.0
  9
$DIMTSZ
 40
0.0
  9
$DIMTOL
 70
     0
  9
$DIMLIM
 70
     0
  9
$DIMTIH
 70
     0
  9
$DIMTOH
 70
     0
  9
$DIMSE1
 70
     0
  9
$DIMSE2
 70
     0
  9
$DIMTAD
 70
     1
  9
$DIMZIN
 70
     0
  9
$DIMBLK
  1

  9
$DIMASO
 70
     1
  9
$DIMSHO
 70
     0
  9
$DIMPOST
  1

  9
$DIMAPOST
  1

  9
$DIMALT
 70
     0
  9
$DIMALTD
 70
     2
  9
$DIMALTF
 40
25.399999999999999
  9
$DIMLFAC
 40
1.0
  9
$DIMTOFL
 70
     1
  9
$DIMTVP
 40
1.6000000000000001
  9
$DIMTIX
 70
     1
  9
$DIMSOXD
 70
     0
  9
$DIMSAH
 70
     0
  9
$DIMBLK1
  1

  9
$DIMBLK2
  1

  9
$DIMSTYLE
  2
STANDARD
  9
$DIMCLRD
 70
     0
  9
$DIMCLRE
 70
     0
  9
$DIMCLRT
 70
     0
  9
$DIMTFAC
 40
1.0
  9
$DIMGAP
 40
0.09
  9
$LUNITS
 70
     2
  9
$LUPREC
 70
     1
  9
$SKETCHINC
 40
0.1
  9
$FILLETRAD
 40
1.25
  9
$AUNITS
 70
     0
  9
$AUPREC
 70
     1
  9
$MENU
  1
E:\r13\win\SUPPORT\ACAD
  9
$ELEVATION
 40
0.0
  9
$PELEVATION
 40
0.0
  9
$THICKNESS
 40
0.0
  9
$LIMCHECK
 70
     0
  9
$BLIPMODE
 70
     0
  9
$CHAMFERA
 40
0.0
  9
$CHAMFERB
 40
0.0
  9
$SKPOLY
 70
     0
  9
$TDCREATE
 40
2449839.7816203702
  9
$TDUPDATE
 40
2457163.6135454401
  9
$TDINDWG
 40
0.0167473148
  9
$TDUSRTIMER
 40
0.0167473148
  9
$USRTIMER
 70
     1
  9
$ANGBASE
 50
0.0
  9
$ANGDIR
 70
     0
  9
$PDMODE
 70
    35
  9
$PDSIZE
 40
0.0
  9
$PLINEWID
 40
0.0
  9
$COORDS
 70
     1
  9
$SPLFRAME
 70
     0
  9
$SPLINETYPE
 70
     6
  9
$SPLINESEGS
 70
     8
  9
$ATTDIA
 70
     0
  9
$ATTREQ
 70
     1
  9
$HANDLING
 70
     1
  9
$HANDSEED
  5
691
  9
$SURFTAB1
 70
     6
  9
$SURFTAB2
 70
     6
  9
$SURFTYPE
 70
     6
  9
$SURFU
 70
     6
  9
$SURFV
 70
     6
  9
$UCSNAME
  2

  9
$UCSORG
 10
0.0
 20
0.0
 30
0.0
  9
$UCSXDIR
 10
1.0
 20
0.0
 30
0.0
  9
$UCSYDIR
 10
0.0
 20
1.0
 30
0.0
  9
$PUCSNAME
  2

  9
$PUCSORG
 10
0.0
 20
0.0
 30
0.0
  9
$PUCSXDIR
 10
1.0
 20
0.0
 30
0.0
  9
$PUCSYDIR
 10
0.0
 20
1.0
 30
0.0
  9
$USERI1
 70
     0
  9
$USERI2
 70
     1
  9
$USERI3
 70
     1
  9
$USERI4
 70
     0
  9
$USERI5
 70
     0
  9
$USERR1
 40
0.0
  9
$USERR2
 40
0.0
  9
$USERR3
 40
0.0
  9
$USERR4
 40
0.0
  9
$USERR5
 40
0.0
  9
$WORLDVIEW
 70
     1
  9
$SHADEDGE
 70
     3
  9
$SHADEDIF
 70
    70
  9
$TILEMODE
 70
     1
  9
$MAXACTVP
 70
    16
  9
$PLIMCHECK
 70
     0
  9
$PEXTMIN
 10
1.0000000000000000E+020
 20
1.0000000000000000E+020
 30
1.0000000000000000E+020
  9
$PEXTMAX
 10
-1.0000000000000000E+020
 20
-1.0000000000000000E+020
 30
-1.0000000000000000E+020
  9
$PLIMMIN
 10
0.0
 20
0.0
  9
$PLIMMAX
 10
12.0
 20
9.0
  9
$UNITMODE
 70
     0
  9
$VISRETAIN
 70
     0
  9
$PLINEGEN
 70
     0
  9
$PSLTSCALE
 70
     0
  0
ENDSEC
  0
SECTION
  2
TABLES
  0
TABLE
  2
VPORT
 70
     1
  0
VPORT
  2
*ACTIVE
 70
     0
 10
0.0
 20
0.0
 11
1.0
 21
1.0
 12
181.62393162393161
 22
100.0
 13
0.0
 23
0.0
 14
10.0
 24
10.0
 15
10.0
 25
10.0
 16
0.0
 26
0.0
 36
1.0
 17
0.0
 27
0.0
 37
0.0
 40
200.0
 41
1.816239316239316
 42
50.0
 43
0.0
 44
0.0
 50
0.0
 51
0.0
 71
     0
 72
   500
 73
     1
 74
     0
 75
     0
 76
     0
 77
     0
 78
     2
  0
ENDTAB
  0
TABLE
  2
LTYPE
 70
     3
  0
LTYPE
  2
CONTINUOUS
 70
     0
  3
Solid Line
 72
    65
 73
     0
 40
0.0
  0
LTYPE
  2
CENTER
 70
     0
  3
____ _ ____ _ ____ _ ____ _ ____ _ ____ _ ____
 72
    65
 73
     4
 40
2.0
 49
1.25
 49
-0.25
 49
0.25
 49
-0.25
  0
LTYPE
  2
PHANTOM2
 70
     0
  3
___ _ _ ___ _ _ ___ _ _ ___ _ _
 72
    65
 73
     6
 40
1.25
 49
0.625
 49
-0.125
 49
0.125
 49
-0.125
 49
0.125
 49
-0.125
  0
ENDTAB
  0
TABLE
  2
LAYER
 70
     3
  0
LAYER
  2
0
 70
     0
 62
     7
  6
CONTINUOUS
  0
LAYER
  2
1
 70
     0
 62
     1
  6
CENTER
  0
LAYER
  2
3
 70
     0
 62
     3
  6
CONTINUOUS
  0
ENDTAB
  0
TABLE
  2
STYLE
 70
     2
  0
STYLE
  2
STANDARD
 70
     0
 40
0.0
 41
1.0
 50
0.0
 71
     0
 42
4.000000000000048
  3
ROMANS
  4
BIGFONT
  0
STYLE
  2
STANDARD1
 70
     0
 40
0.0
 41
1.0
 50
0.0
 71
     0
 42
3.0
  3
txt
  4

  0
ENDTAB
  0
TABLE
  2
VIEW
 70
     1
  0
VIEW
  2
ALL
 70
     0
 40
270.33333333333343
 10
221.26442577030821
 20
134.83333333333329
 41
0.0
 11
0.0
 21
0.0
 31
1.0
 12
0.0
 22
0.0
 32
0.0
 42
0.0
 43
0.0
 44
0.0
 50
0.0
 71
     0
  0
ENDTAB
  0
TABLE
  2
UCS
 70
     0
  0
ENDTAB
  0
TABLE
  2
APPID
 70
     6
  0
APPID
  2
ACAD
 70
     0
  0
APPID
  2
ACAD_MLEADERVER
 70
     0
  0
APPID
  2
ACAD_EXEMPT_FROM_CAD_STANDARDS
 70
     0
  0
APPID
  2
ACAD_NAV_VCDISPLAY
 70
     0
  0
APPID
  2
ACAD_DSTYLE_DIMJAG
 70
     0
  0
APPID
  2
ACAD_DSTYLE_DIMTALN
 70
     0
  0
ENDTAB
  0
TABLE
  2
DIMSTYLE
 70
     1
  0
DIMSTYLE
  2
STANDARD
 70
     0
  3

  4

  5

  6

  7

 40
1.0
 41
0.18
 42
0.0625
 43
0.38
 44
0.18
 45
0.0
 46
0.0
 47
0.0
 48
0.0
140
0.18
141
0.09
142
0.0
143
25.399999999999999
144
1.0
145
0.0
146
1.0
147
0.09
 71
     0
 72
     0
 73
     1
 74
     1
 75
     0
 76
     0
 77
     0
 78
     0
170
     0
171
     2
172
     0
173
     0
174
     0
175
     0
176
     0
177
     0
178
     0
  0
ENDTAB
  0
ENDSEC
  0
SECTION
  2
BLOCKS
  0
BLOCK
  8
0
  2
$MODEL_SPACE
 70
     0
 10
0.0
 20
0.0
 30
0.0
  3
$MODEL_SPACE
  1

  0
ENDBLK
  5
F7
  8
0
  0
BLOCK
 67
     1
  8
0
  2
$PAPER_SPACE
 70
     0
 10
0.0
 20
0.0
 30
0.0
  3
$PAPER_SPACE
  1

  0
ENDBLK
  5
F5
 67
     1
  8
0
  0
ENDSEC
  0
SECTION
  2
ENTITIES
  0
TEXT
  5
1E1
  8
0
 62
     3
 10
0.0
 20
0.0
 30
0.0
 40
10.0
  1
RGF65-M8
  7
STANDARD1
  0
LINE
  5
297
  8
1
 10
186.5
 20
50.0
 30
0.0
 11
97.0
 21
50.0
 31
0.0
  0
LINE
  5
299
  8
0
 10
172.69999999999999
 20
53.233000000000061
 30
0.0
 11
171.5
 21
53.233000000000061
 31
0.0
  0
LINE
  5
29A
  8
0
 10
171.5
 20
46.767000000000053
 30
0.0
 11
172.69999999999999
 21
46.767000000000053
 31
0.0
  0
LINE
  5
29B
  8
0
 10
172.69999999999999
 20
46.767000000000053
 30
0.0
 11
172.69999999999999
 21
53.233000000000061
 31
0.0
  0
LINE
  5
29C
  8
0
 10
172.69999999999999
 20
46.767000000000053
 30
0.0
 11
173.46700000000001
 21
46.0
 31
0.0
  0
LINE
  5
29D
  8
0
 10
173.46700000000001
 20
54.0
 30
0.0
 11
172.69999999999999
 21
53.233000000000061
 31
0.0
  0
LINE
  5
29E
  8
0
 10
183.5
 20
46.767000000000053
 30
0.0
 11
183.5
 21
53.233000000000061
 31
0.0
  0
LINE
  5
29F
  8
0
 10
183.5
 20
53.233000000000061
 30
0.0
 11
182.73299999999989
 21
54.0
 31
0.0
  0
LINE
  5
2A0
  8
0
 10
182.73299999999989
 20
46.0
 30
0.0
 11
183.5
 21
46.767000000000053
 31
0.0
  0
LINE
  5
2A1
  8
0
 10
173.46700000000001
 20
46.0
 30
0.0
 11
173.46700000000001
 21
54.0
 31
0.0
  0
LINE
  5
2A2
  8
0
 10
182.73299999999989
 20
46.0
 30
0.0
 11
182.73299999999989
 21
54.0
 31
0.0
  0
LINE
  5
2A3
  8
0
 10
182.73299999999989
 20
54.0
 30
0.0
 11
173.46700000000001
 21
54.0
 31
0.0
  0
LINE
  5
2A4
  8
0
 10
173.46700000000001
 20
46.0
 30
0.0
 11
182.73299999999989
 21
46.0
 31
0.0
  0
LINE
  5
2A5
  8
0
 10
170.5
 20
58.800000000000011
 30
0.0
 11
165.0
 21
58.800000000000011
 31
0.0
  0
LINE
  5
2A6
  8
0
 10
165.0
 20
41.200000000000038
 30
0.0
 11
170.5
 21
41.200000000000038
 31
0.0
  0
LINE
  5
2A7
  8
0
 10
170.5
 20
53.666060555964691
 30
0.0
 11
165.0
 21
53.666060555964691
 31
0.0
  0
LINE
  5
2A8
  8
0
 10
165.0
 20
46.333939444035359
 30
0.0
 11
170.5
 21
46.333939444035359
 31
0.0
  0
LINE
  5
2A9
  8
0
 10
171.5
 20
42.200000000000053
 30
0.0
 11
171.5
 21
57.800000000000011
 31
0.0
  0
LINE
  5
2AA
  8
0
 10
170.5
 20
53.666060555964691
 30
0.0
 11
170.5
 21
58.800000000000011
 31
0.0
  0
POLYLINE
  5
2AB
  8
0
 66
     1
 10
0.0
 20
0.0
 30
0.0
  0
VERTEX
  5
664
  8
0
 10
170.5
 20
53.666060555964691
 30
0.0
  0
VERTEX
  5
665
  8
0
 10
170.56303879102401
 20
53.661283780306057
 30
0.0
  0
VERTEX
  5
666
  8
0
 10
170.69817376029459
 20
53.618194421442468
 30
0.0
  0
VERTEX
  5
667
  8
0
 10
170.7866252982358
 20
53.564138732129891
 30
0.0
  0
VERTEX
  5
668
  8
0
 10
170.8655715759987
 20
53.4966520879264
 30
0.0
  0
VERTEX
  5
669
  8
0
 10
170.9773600725218
 20
53.364688900501562
 30
0.0
  0
VERTEX
  5
66A
  8
0
 10
171.06852217037559
 20
53.217204132081122
 30
0.0
  0
VERTEX
  5
66B
  8
0
 10
171.16913462103901
 20
52.998863547754347
 30
0.0
  0
VERTEX
  5
66C
  8
0
 10
171.24632581803189
 20
52.77020149823511
 30
0.0
  0
VERTEX
  5
66D
  8
0
 10
171.3055924864918
 20
52.536445019237483
 30
0.0
  0
VERTEX
  5
66E
  8
0
 10
171.3943206323878
 20
52.036335257427872
 30
0.0
  0
VERTEX
  5
66F
  8
0
 10
171.44634945212081
 20
51.53030216602906
 30
0.0
  0
VERTEX
  5
670
  8
0
 10
171.47143453996799
 20
51.020679453611308
 30
0.0
  0
VERTEX
  5
671
  8
0
 10
171.4793314902065
 20
50.509800828744851
 30
0.0
  0
VERTEX
  5
672
  8
0
 10
171.47979589711321
 20
50.0
 30
0.0
  0
VERTEX
  5
673
  8
0
 10
171.47559476363381
 20
49.332127550454629
 30
0.0
  0
VERTEX
  5
674
  8
0
 10
171.4525340222344
 20
48.664655066352623
 30
0.0
  0
VERTEX
  5
675
  8
0
 10
171.39492766147379
 20
48.0
 30
0.0
  0
VERTEX
  5
676
  8
0
 10
171.3466960442997
 20
47.667483155712937
 30
0.0
  0
VERTEX
  5
677
  8
0
 10
171.27653669733411
 20
47.33873434514561
 30
0.0
  0
VERTEX
  5
678
  8
0
 10
171.17560041837999
 20
47.019237586379568
 30
0.0
  0
VERTEX
  5
679
  8
0
 10
171.07160336759989
 20
46.7878416473024
 30
0.0
  0
VERTEX
  5
67A
  8
0
 10
170.9325116527429
 20
46.576794509131382
 30
0.0
  0
VERTEX
  5
67B
  8
0
 10
170.7947563662683
 20
46.4419037787573
 30
0.0
  0
VERTEX
  5
67C
  8
0
 10
170.7125015465667
 20
46.38919013117777
 30
0.0
  0
VERTEX
  5
67D
  8
0
 10
170.62237111879691
 20
46.352016701507061
 30
0.0
  0
VERTEX
  5
67E
  8
0
 10
170.5
 20
46.333939444035359
 30
0.0
  0
SEQEND
  5
67F
  8
0
  0
ARC
  5
2AC
  8
0
 10
170.5
 20
57.800000000000011
 30
0.0
 40
1.0000000000000051
 50
0.0
 51
90.0
  0
ARC
  5
2AD
  8
0
 10
170.5
 20
42.200000000000053
 30
0.0
 40
1.0000000000000031
 50
270.0
 51
0.0
  0
LINE
  5
2AE
  8
0
 10
170.5
 20
41.200000000000038
 30
0.0
 11
170.5
 21
46.333939444035359
 31
0.0
  0
LINE
  5
2AF
  8
0
 10
165.0
 20
41.0
 30
0.0
 11
165.0
 21
59.0
 31
0.0
  0
LINE
  5
2B0
  8
0
 10
165.0
 20
59.0
 30
0.0
 11
144.0
 21
59.0
 31
0.0
  0
LINE
  5
2B1
  8
0
 10
144.0
 20
41.0
 30
0.0
 11
165.0
 21
41.0
 31
0.0
  0
ARC
  5
2B2
  8
0
 10
111.0
 20
50.0
 30
0.0
 40
11.0
 50
90.0
 51
270.0
  0
LINE
  5
2B3
  8
0
 10
144.0
 20
41.0
 30
0.0
 11
144.0
 21
59.0
 31
0.0
  0
ARC
  5
2B4
  8
0
 10
142.0
 20
59.0
 30
0.0
 40
2.0000000000000142
 50
0.0
 51
90.0
  0
ARC
  5
2B5
  8
0
 10
142.0
 20
41.00000000000005
 30
0.0
 40
2.0000000000000142
 50
270.0
 51
0.0
  0
LINE
  5
2B6
  8
0
 10
111.0
 20
39.0
 30
0.0
 11
111.0
 21
61.0
 31
0.0
  0
LINE
  5
2B7
  8
0
 10
142.0
 20
39.0
 30
0.0
 11
142.0
 21
61.0
 31
0.0
  0
LINE
  5
2B8
  8
0
 10
142.0
 20
61.0
 30
0.0
 11
111.0
 21
61.0
 31
0.0
  0
LINE
  5
2B9
  8
0
 10
111.0
 20
39.0
 30
0.0
 11
142.0
 21
39.0
 31
0.0
  0
LINE
  5
2BA
  8
3
 10
183.5
 20
53.233000000000061
 30
0.0
 11
172.69999999999999
 21
53.233000000000061
 31
0.0
  0
LINE
  5
2BB
  8
3
 10
183.5
 20
46.767000000000053
 30
0.0
 11
172.69999999999999
 21
46.767000000000053
 31
0.0
  0
LINE
  5
2C4
  8
1
 10
64.0
 20
50.0
 30
0.0
 11
36.0
 21
50.0
 31
0.0
  0
LINE
  5
2C5
  8
1
 10
50.0
 20
64.0
 30
0.0
 11
50.0
 21
36.0
 31
0.0
  0
CIRCLE
  5
2C6
  8
0
 10
50.0
 20
50.0
 30
0.0
 40
11.0
  0
LINE
  5
2C8
  8
1
 10
247.5
 20
50.0
 30
0.0
 11
219.5
 21
50.0
 31
0.0
  0
LINE
  5
2C9
  8
1
 10
233.5
 20
64.0
 30
0.0
 11
233.5
 21
36.0
 31
0.0
  0
CIRCLE
  5
2CA
  8
0
 10
233.5
 20
50.0
 30
0.0
 40
9.0000000000000018
  0
ARC
  5
2CC
  8
0
 10
233.5
 20
50.0
 30
0.0
 40
8.8000000000000007
 50
24.61997732865823
 51
155.38002267134181
  0
LINE
  5
2CD
  8
0
 10
225.5
 20
53.666060555964691
 30
0.0
 11
225.5
 21
46.333939444035309
 31
0.0
  0
ARC
  5
2CE
  8
0
 10
233.5
 20
50.0
 30
0.0
 40
8.8000000000000007
 50
204.61997732865819
 51
335.38002267134169
  0
LINE
  5
2CF
  8
0
 10
241.5
 20
46.333939444035359
 30
0.0
 11
241.5
 21
53.666060555964691
 31
0.0
  0
CIRCLE
  5
2D0
  8
0
 10
233.5
 20
50.0
 30
0.0
 40
4.0
  0
CIRCLE
  5
2D2
  8
0
 10
233.5
 20
50.0
 30
0.0
 40
11.0
  0
LINE
  5
2D3
  8
1
 10
186.5
 20
111.0
 30
0.0
 11
97.0
 21
111.0
 31
0.0
  0
LINE
  5
2D5
  8
0
 10
172.69999999999999
 20
114.233
 30
0.0
 11
171.5
 21
114.233
 31
0.0
  0
LINE
  5
2D6
  8
0
 10
171.5
 20
107.767
 30
0.0
 11
172.69999999999999
 21
107.767
 31
0.0
  0
LINE
  5
2D7
  8
0
 10
172.69999999999999
 20
107.767
 30
0.0
 11
172.69999999999999
 21
114.233
 31
0.0
  0
LINE
  5
2D8
  8
0
 10
172.69999999999999
 20
107.767
 30
0.0
 11
173.46700000000001
 21
107.0
 31
0.0
  0
LINE
  5
2D9
  8
0
 10
173.46700000000001
 20
115.0
 30
0.0
 11
172.69999999999999
 21
114.233
 31
0.0
  0
LINE
  5
2DA
  8
0
 10
183.5
 20
107.767
 30
0.0
 11
183.5
 21
114.233
 31
0.0
  0
LINE
  5
2DB
  8
0
 10
183.5
 20
114.233
 30
0.0
 11
182.73299999999989
 21
115.0
 31
0.0
  0
LINE
  5
2DC
  8
0
 10
182.73299999999989
 20
107.0
 30
0.0
 11
183.5
 21
107.767
 31
0.0
  0
LINE
  5
2DD
  8
0
 10
173.46700000000001
 20
107.0
 30
0.0
 11
173.46700000000001
 21
115.0
 31
0.0
  0
LINE
  5
2DE
  8
0
 10
182.73299999999989
 20
107.0
 30
0.0
 11
182.73299999999989
 21
115.0
 31
0.0
  0
LINE
  5
2DF
  8
0
 10
182.73299999999989
 20
115.0
 30
0.0
 11
173.46700000000001
 21
115.0
 31
0.0
  0
LINE
  5
2E0
  8
0
 10
173.46700000000001
 20
107.0
 30
0.0
 11
182.73299999999989
 21
107.0
 31
0.0
  0
LINE
  5
2E2
  8
0
 10
165.0
 20
119.0
 30
0.0
 11
171.47979589699909
 21
119.0
 31
0.0
  0
LINE
  5
2E3
  8
0
 10
171.5
 20
103.2
 30
0.0
 11
171.5
 21
118.79999999994411
 31
0.0
  0
LINE
  5
2E4
  8
0
 10
170.5
 20
103.0
 30
0.0
 11
170.5
 21
119.0
 31
0.0
  0
POLYLINE
  5
2E5
  8
0
 66
     1
 10
0.0
 20
0.0
 30
0.0
  0
VERTEX
  5
680
  8
0
 10
165.0
 20
103.0
 30
0.0
  0
VERTEX
  5
681
  8
0
 10
170.56303879102401
 20
103.0
 30
0.0
  0
VERTEX
  5
682
  8
0
 10
170.69817376029459
 20
103.0
 30
0.0
  0
VERTEX
  5
683
  8
0
 10
170.78556488489721
 20
103.0
 30
0.0
  0
VERTEX
  5
684
  8
0
 10
170.8655715759987
 20
103.0
 30
0.0
  0
VERTEX
  5
685
  8
0
 10
170.97614918503459
 20
103.0
 30
0.0
  0
VERTEX
  5
686
  8
0
 10
171.06852217037559
 20
103.0
 30
0.0
  0
VERTEX
  5
687
  8
0
 10
171.14523734202609
 20
103.0
 30
0.0
  0
VERTEX
  5
688
  8
0
 10
171.2087105292247
 20
103.0
 30
0.0
  0
VERTEX
  5
689
  8
0
 10
171.3055924864918
 20
103.0
 30
0.0
  0
VERTEX
  5
68A
  8
0
 10
171.36367609350529
 20
103.0
 30
0.0
  0
VERTEX
  5
68B
  8
0
 10
171.40475241753299
 20
103.0
 30
0.0
  0
VERTEX
  5
68C
  8
0
 10
171.4533013731934
 20
103.0
 30
0.0
  0
VERTEX
  5
68D
  8
0
 10
171.4742067201162
 20
103.0
 30
0.0
  0
VERTEX
  5
68E
  8
0
 10
171.47979589711321
 20
103.0
 30
0.0
  0
VERTEX
  5
68F
  8
0
 10
171.47979589710269
 20
103.0
 30
0.0
  0
SEQEND
  5
690
  8
0
  0
ARC
  5
2E6
  8
0
 10
170.4999999999998
 20
118.7999999999999
 30
0.0
 40
1.0000000000001741
 50
0.0
 51
11.54544857325433
  0
ARC
  5
2E7
  8
0
 10
170.49999999999949
 20
103.2
 30
0.0
 40
1.0000000000004221
 50
348.45963184659928
 51
0.0
  0
LINE
  5
2E8
  8
0
 10
165.0
 20
102.0
 30
0.0
 11
165.0
 21
120.0
 31
0.0
  0
LINE
  5
2E9
  8
0
 10
165.0
 20
120.0
 30
0.0
 11
144.0
 21
120.0
 31
0.0
  0
LINE
  5
2EA
  8
0
 10
144.0
 20
102.0
 30
0.0
 11
165.0
 21
102.0
 31
0.0
  0
LINE
  5
2EB
  8
0
 10
144.0
 20
102.0
 30
0.0
 11
144.0
 21
119.99999999999871
 31
0.0
  0
ARC
  5
2EC
  8
0
 10
142.0
 20
120.0
 30
0.0
 40
2.0000000000000062
 50
0.0
 51
90.0
  0
ARC
  5
2ED
  8
0
 10
142.0
 20
102.0
 30
0.0
 40
2.000000000000024
 50
270.0
 51
0.0
  0
ARC
  5
2EE
  8
0
 10
111.0
 20
111.0
 30
0.0
 40
11.0
 50
90.0
 51
270.0
  0
LINE
  5
2EF
  8
0
 10
111.0
 20
100.0
 30
0.0
 11
111.0
 21
122.0
 31
0.0
  0
LINE
  5
2F0
  8
0
 10
142.0
 20
100.0
 30
0.0
 11
142.0
 21
122.0
 31
0.0
  0
LINE
  5
2F1
  8
0
 10
142.0
 20
122.0
 30
0.0
 11
111.0
 21
122.0
 31
0.0
  0
LINE
  5
2F2
  8
0
 10
111.0
 20
100.0
 30
0.0
 11
142.0
 21
100.0
 31
0.0
  0
LINE
  5
2F3
  8
3
 10
183.5
 20
107.767
 30
0.0
 11
172.69999999999999
 21
107.767
 31
0.0
  0
LINE
  5
2F4
  8
3
 10
183.5
 20
114.233
 30
0.0
 11
172.69999999999999
 21
114.233
 31
0.0
  0
CIRCLE
  5
3AF
  8
3
 10
233.5
 20
50.0
 30
0.0
 40
3.2329999999999961
  0
ENDSEC
  0
EOF
