  0
SECTION
  2
HEADER
  9
$ACADVER
  1
AC1009
  9
$INSBASE
 10
0.0
 20
0.0
 30
0.0
  9
$EXTMIN
 10
0.0
 20
-2.960436562073669
 30
0.0
  9
$EXTMAX
 10
236.99999999999989
 20
131.5
 30
0.0
  9
$LIMMIN
 10
0.0
 20
0.0
  9
$LIMMAX
 10
375.0
 20
270.0
  9
$ORTHOMODE
 70
     1
  9
$REGENMODE
 70
     1
  9
$FILLMODE
 70
     1
  9
$QTEXTMODE
 70
     0
  9
$MIRRTEXT
 70
     0
  9
$DRAGMODE
 70
     2
  9
$LTSCALE
 40
5.0
  9
$OSMODE
 70
    37
  9
$ATTMODE
 70
     1
  9
$TEXTSIZE
 40
4.000000000000048
  9
$TRACEWID
 40
0.05
  9
$TEXTSTYLE
  7
STANDARD
  9
$CLAYER
  8
0
  9
$CELTYPE
  6
BYLAYER
  9
$CECOLOR
 62
   256
  9
$DIMSCALE
 40
1.0
  9
$DIMASZ
 40
3.0
  9
$DIMEXO
 40
2.0
  9
$DIMDLI
 40
0.38
  9
$DIMRND
 40
0.0
  9
$DIMDLE
 40
0.0
  9
$DIMEXE
 40
2.0
  9
$DIMTP
 40
0.0
  9
$DIMTM
 40
0.0
  9
$DIMTXT
 40
3.2000000000000002
  9
$DIMCEN
 40
0.0
  9
$DIMTSZ
 40
0.0
  9
$DIMTOL
 70
     0
  9
$DIMLIM
 70
     0
  9
$DIMTIH
 70
     0
  9
$DIMTOH
 70
     0
  9
$DIMSE1
 70
     0
  9
$DIMSE2
 70
     0
  9
$DIMTAD
 70
     1
  9
$DIMZIN
 70
     8
  9
$DIMBLK
  1

  9
$DIMASO
 70
     1
  9
$DIMSHO
 70
     0
  9
$DIMPOST
  1

  9
$DIMAPOST
  1

  9
$DIMALT
 70
     0
  9
$DIMALTD
 70
     2
  9
$DIMALTF
 40
25.399999999999999
  9
$DIMLFAC
 40
1.0
  9
$DIMTOFL
 70
     1
  9
$DIMTVP
 40
1.6000000000000001
  9
$DIMTIX
 70
     1
  9
$DIMSOXD
 70
     0
  9
$DIMSAH
 70
     0
  9
$DIMBLK1
  1

  9
$DIMBLK2
  1

  9
$DIMSTYLE
  2
STANDARD
  9
$DIMCLRD
 70
     0
  9
$DIMCLRE
 70
     0
  9
$DIMCLRT
 70
     0
  9
$DIMTFAC
 40
1.0
  9
$DIMGAP
 40
0.09
  9
$LUNITS
 70
     2
  9
$LUPREC
 70
     1
  9
$SKETCHINC
 40
0.1
  9
$FILLETRAD
 40
0.5
  9
$AUNITS
 70
     0
  9
$AUPREC
 70
     0
  9
$MENU
  1
E:\r13\win\SUPPORT\ACAD
  9
$ELEVATION
 40
0.0
  9
$PELEVATION
 40
0.0
  9
$THICKNESS
 40
0.0
  9
$LIMCHECK
 70
     0
  9
$BLIPMODE
 70
     0
  9
$CHAMFERA
 40
0.0
  9
$CHAMFERB
 40
0.0
  9
$SKPOLY
 70
     0
  9
$TDCREATE
 40
2449839.7814699081
  9
$TDUPDATE
 40
2459492.4546701498
  9
$TDINDWG
 40
0.0164695602
  9
$TDUSRTIMER
 40
0.0164695602
  9
$USRTIMER
 70
     1
  9
$ANGBASE
 50
0.0
  9
$ANGDIR
 70
     0
  9
$PDMODE
 70
     0
  9
$PDSIZE
 40
0.0
  9
$PLINEWID
 40
0.0
  9
$COORDS
 70
     1
  9
$SPLFRAME
 70
     0
  9
$SPLINETYPE
 70
     6
  9
$SPLINESEGS
 70
     8
  9
$ATTDIA
 70
     0
  9
$ATTREQ
 70
     1
  9
$HANDLING
 70
     1
  9
$HANDSEED
  5
425
  9
$SURFTAB1
 70
     6
  9
$SURFTAB2
 70
     6
  9
$SURFTYPE
 70
     6
  9
$SURFU
 70
     6
  9
$SURFV
 70
     6
  9
$UCSNAME
  2

  9
$UCSORG
 10
0.0
 20
0.0
 30
0.0
  9
$UCSXDIR
 10
1.0
 20
0.0
 30
0.0
  9
$UCSYDIR
 10
0.0
 20
1.0
 30
0.0
  9
$PUCSNAME
  2

  9
$PUCSORG
 10
0.0
 20
0.0
 30
0.0
  9
$PUCSXDIR
 10
1.0
 20
0.0
 30
0.0
  9
$PUCSYDIR
 10
0.0
 20
1.0
 30
0.0
  9
$USERI1
 70
     0
  9
$USERI2
 70
     1
  9
$USERI3
 70
     1
  9
$USERI4
 70
     0
  9
$USERI5
 70
     0
  9
$USERR1
 40
0.0
  9
$USERR2
 40
0.0
  9
$USERR3
 40
0.0
  9
$USERR4
 40
0.0
  9
$USERR5
 40
0.0
  9
$WORLDVIEW
 70
     1
  9
$SHADEDGE
 70
     3
  9
$SHADEDIF
 70
    70
  9
$TILEMODE
 70
     1
  9
$MAXACTVP
 70
    16
  9
$PLIMCHECK
 70
     0
  9
$PEXTMIN
 10
1.0000000000000000E+020
 20
1.0000000000000000E+020
 30
1.0000000000000000E+020
  9
$PEXTMAX
 10
-1.0000000000000000E+020
 20
-1.0000000000000000E+020
 30
-1.0000000000000000E+020
  9
$PLIMMIN
 10
0.0
 20
0.0
  9
$PLIMMAX
 10
12.0
 20
9.0
  9
$UNITMODE
 70
     0
  9
$VISRETAIN
 70
     0
  9
$PLINEGEN
 70
     0
  9
$PSLTSCALE
 70
     0
  0
ENDSEC
  0
SECTION
  2
TABLES
  0
TABLE
  2
VPORT
 70
     1
  0
VPORT
  2
*ACTIVE
 70
     0
 10
0.0
 20
0.0
 11
1.0
 21
1.0
 12
390.29363784665583
 22
150.0
 13
0.0
 23
0.0
 14
10.0
 24
10.0
 15
10.0
 25
10.0
 16
0.0
 26
0.0
 36
1.0
 17
0.0
 27
0.0
 37
0.0
 40
300.0
 41
2.6019575856443709
 42
50.0
 43
0.0
 44
0.0
 50
0.0
 51
0.0
 71
     0
 72
   500
 73
     1
 74
     0
 75
     0
 76
     0
 77
     0
 78
     2
  0
ENDTAB
  0
TABLE
  2
LTYPE
 70
     4
  0
LTYPE
  2
CONTINUOUS
 70
     0
  3
Solid Line
 72
    65
 73
     0
 40
0.0
  0
LTYPE
  2
CENTER
 70
     0
  3
____ _ ____ _ ____ _ ____ _ ____ _ ____ _ ____
 72
    65
 73
     4
 40
2.0
 49
1.25
 49
-0.25
 49
0.25
 49
-0.25
  0
LTYPE
  2
HIDDEN
 70
     0
  3
_ _ _ _ _ _ _ _ _ _ _ _ _ _ _ _ _ _ _ _ _ _ _
 72
    65
 73
     2
 40
0.375
 49
0.25
 49
-0.125
  0
LTYPE
  2
PHANTOM2
 70
     0
  3
___ _ _ ___ _ _ ___ _ _ ___ _ _
 72
    65
 73
     6
 40
1.25
 49
0.625
 49
-0.125
 49
0.125
 49
-0.125
 49
0.125
 49
-0.125
  0
ENDTAB
  0
TABLE
  2
LAYER
 70
     4
  0
LAYER
  2
0
 70
     0
 62
     7
  6
CONTINUOUS
  0
LAYER
  2
1
 70
     0
 62
     1
  6
CENTER
  0
LAYER
  2
2
 70
     0
 62
     2
  6
HIDDEN
  0
LAYER
  2
3
 70
     0
 62
     3
  6
CONTINUOUS
  0
ENDTAB
  0
TABLE
  2
STYLE
 70
     2
  0
STYLE
  2
STANDARD
 70
     0
 40
0.0
 41
1.0
 50
0.0
 71
     0
 42
4.000000000000048
  3
TXT
  4
BIGFONT
  0
STYLE
  2
STANDARD1
 70
     0
 40
0.0
 41
1.0
 50
0.0
 71
     0
 42
3.0
  3
txt
  4

  0
ENDTAB
  0
TABLE
  2
VIEW
 70
     1
  0
VIEW
  2
ALL
 70
     0
 40
270.0
 10
220.99159663865549
 20
135.0
 41
0.0
 11
0.0
 21
0.0
 31
1.0
 12
0.0
 22
0.0
 32
0.0
 42
0.0
 43
0.0
 44
0.0
 50
0.0
 71
     0
  0
ENDTAB
  0
TABLE
  2
UCS
 70
     0
  0
ENDTAB
  0
TABLE
  2
APPID
 70
     6
  0
APPID
  2
ACAD
 70
     0
  0
APPID
  2
ACAD_MLEADERVER
 70
     0
  0
APPID
  2
ACAD_EXEMPT_FROM_CAD_STANDARDS
 70
     0
  0
APPID
  2
ACAD_DSTYLE_DIMJAG
 70
     0
  0
APPID
  2
ACAD_DSTYLE_DIMTALN
 70
     0
  0
APPID
  2
ACAD_NAV_VCDISPLAY
 70
     0
  0
ENDTAB
  0
TABLE
  2
DIMSTYLE
 70
     1
  0
DIMSTYLE
  2
STANDARD
 70
     0
  3

  4

  5

  6

  7

 40
1.0
 41
0.18
 42
0.0625
 43
0.38
 44
0.18
 45
0.0
 46
0.0
 47
0.0
 48
0.0
140
0.18
141
0.09
142
0.0
143
25.399999999999999
144
1.0
145
0.0
146
1.0
147
0.09
 71
     0
 72
     0
 73
     1
 74
     1
 75
     0
 76
     0
 77
     0
 78
     0
170
     0
171
     2
172
     0
173
     0
174
     0
175
     0
176
     0
177
     0
178
     0
  0
ENDTAB
  0
ENDSEC
  0
SECTION
  2
BLOCKS
  0
BLOCK
  8
0
  2
$MODEL_SPACE
 70
     0
 10
0.0
 20
0.0
 30
0.0
  3
$MODEL_SPACE
  1

  0
ENDBLK
  5
136
  8
0
  0
BLOCK
 67
     1
  8
0
  2
$PAPER_SPACE
 70
     0
 10
0.0
 20
0.0
 30
0.0
  3
$PAPER_SPACE
  1

  0
ENDBLK
  5
134
 67
     1
  8
0
  0
ENDSEC
  0
SECTION
  2
ENTITIES
  0
TEXT
  5
220
  8
0
 62
     3
 10
0.0
 20
0.0
 30
0.0
 40
10.0
  1
RGPA50-SUS
  7
STANDARD1
  0
LINE
  5
36C
  8
0
 10
60.499999999999631
 20
62.232050806158377
 30
0.0
 11
61.999999999999631
 21
61.366025402374298
 31
0.0
  0
LINE
  5
36D
  8
0
 10
59.000000001221082
 20
61.366025403079838
 30
0.0
 11
60.500000001221082
 21
62.232050806864379
 31
0.0
  0
LINE
  5
36E
  8
0
 10
59.000000001221082
 20
59.63397459692095
 30
0.0
 11
59.000000001221082
 21
61.36602540448979
 31
0.0
  0
LINE
  5
36F
  8
0
 10
60.499999999999631
 20
58.767949193841503
 30
0.0
 11
58.999999999999631
 21
59.633974597625581
 31
0.0
  0
LINE
  5
370
  8
0
 10
61.99999999877727
 20
59.633974596920041
 30
0.0
 11
60.499999998779089
 21
58.7679491931355
 31
0.0
  0
LINE
  5
371
  8
0
 10
61.999999998779089
 20
61.36602540308008
 30
0.0
 11
61.999999998779089
 21
59.633974595511233
 31
0.0
  0
CIRCLE
  5
372
  8
0
 10
60.499999999999972
 20
60.5
 30
0.0
 40
3.0
  0
CIRCLE
  5
373
  8
3
 10
60.499999999999972
 20
60.5
 30
0.0
 40
2.458499999999999
  0
CIRCLE
  5
374
  8
0
 10
60.499999999999972
 20
60.5
 30
0.0
 40
5.0
  0
CIRCLE
  5
375
  8
0
 10
60.499999999999972
 20
60.5
 30
0.0
 40
8.5
  0
CIRCLE
  5
376
  8
0
 10
60.499999999999972
 20
60.5
 30
0.0
 40
10.5
  0
LINE
  5
377
  8
0
 10
123.6999999999999
 20
55.5
 30
0.0
 11
123.4999999999999
 21
55.5
 31
0.0
  0
LINE
  5
378
  8
0
 10
121.9999999999999
 20
62.849999999999959
 30
0.0
 11
122.9999999999999
 21
62.850000000000001
 31
0.0
  0
LINE
  5
379
  8
0
 10
121.9999999999999
 20
58.150000000000013
 30
0.0
 11
122.9999999999999
 21
58.150000000000013
 31
0.0
  0
LINE
  5
37A
  8
0
 10
121.4999999999999
 20
57.499999999999972
 30
0.0
 11
121.4999999999999
 21
63.5
 31
0.0
  0
LINE
  5
37B
  8
0
 10
123.4999999999999
 20
55.5
 30
0.0
 11
123.4999999999999
 21
65.5
 31
0.0
  0
ARC
  5
37C
  8
0
 10
122.9999999999999
 20
63.349999999999987
 30
0.0
 40
0.5
 50
270.0
 51
0.0
  0
ARC
  5
37D
  8
0
 10
122.9999999999999
 20
57.649999999999999
 30
0.0
 40
0.5
 50
0.0
 51
90.0
  0
LINE
  5
37E
  8
0
 10
110.4999999999999
 20
58.5
 30
0.0
 11
110.4999999999999
 21
62.5
 31
0.0
  0
LINE
  5
37F
  8
0
 10
121.4999999999999
 20
63.5
 30
0.0
 11
111.4999999999999
 21
63.5
 31
0.0
  0
LINE
  5
380
  8
3
 10
121.4999999999999
 20
62.958500000000072
 30
0.0
 11
110.9585000000001
 21
62.958500000000072
 31
0.0
  0
LINE
  5
381
  8
3
 10
121.4999999999999
 20
58.041499999999921
 30
0.0
 11
110.9585
 21
58.0414999999999
 31
0.0
  0
LINE
  5
382
  8
0
 10
121.4999999999999
 20
57.499999999999972
 30
0.0
 11
111.4999999999999
 21
57.5
 31
0.0
  0
LINE
  5
383
  8
0
 10
111.4999999999999
 20
57.5
 30
0.0
 11
110.4999999999999
 21
58.5
 31
0.0
  0
LINE
  5
384
  8
0
 10
110.4999999999999
 20
62.5
 30
0.0
 11
111.4999999999999
 21
63.5
 31
0.0
  0
LINE
  5
385
  8
0
 10
111.4999999999999
 20
63.5
 30
0.0
 11
111.4999999999999
 21
57.5
 31
0.0
  0
LINE
  5
386
  8
2
 10
110.4999999999999
 20
58.767949193840991
 30
0.0
 11
114.5
 21
58.767949193840991
 31
0.0
  0
LINE
  5
387
  8
2
 10
110.4999999999999
 20
59.633974596921291
 30
0.0
 11
114.5
 21
59.633974596921291
 31
0.0
  0
LINE
  5
388
  8
2
 10
110.4999999999999
 20
61.366025403079163
 30
0.0
 11
114.5
 21
61.366025403079163
 31
0.0
  0
LINE
  5
389
  8
2
 10
110.5
 20
62.232050806158441
 30
0.0
 11
114.5
 21
62.232050806158441
 31
0.0
  0
LINE
  5
38A
  8
2
 10
114.5
 20
62.232050806158441
 30
0.0
 11
114.5
 21
58.767949193840991
 31
0.0
  0
LINE
  5
38B
  8
2
 10
114.5
 20
58.767949193840991
 30
0.0
 11
115.4999999991861
 21
60.500000000000107
 31
0.0
  0
LINE
  5
38C
  8
2
 10
114.5
 20
62.2320508061593
 30
0.0
 11
115.4999999991861
 21
60.500000000000107
 31
0.0
  0
LINE
  5
38D
  8
0
 10
123.6999999999999
 20
65.5
 30
0.0
 11
123.4999999999999
 21
65.5
 31
0.0
  0
LINE
  5
38E
  8
0
 10
170.4596258176116
 20
51.0
 30
0.0
 11
170.4596258176116
 21
70.0
 31
0.0
  0
ARC
  5
38F
  8
0
 10
170.4596258176116
 20
51.5
 30
0.0
 40
1.5
 50
270.0
 51
340.5755558002848
  0
ARC
  5
390
  8
0
 10
170.4596258176116
 20
69.5
 30
0.0
 40
1.5
 50
19.424444199714721
 51
90.0
  0
ARC
  5
391
  8
0
 10
144.93749999999989
 20
60.5
 30
0.0
 40
28.562499999999972
 50
340.57555580028531
 51
19.424444199714721
  0
ARC
  5
392
  8
0
 10
124.1999999999999
 20
52.458408538287607
 30
0.0
 40
0.5
 50
180.0
 51
265.03025927188952
  0
ARC
  5
393
  8
0
 10
124.1999999999999
 20
68.541591461712386
 30
0.0
 40
0.5
 50
94.969740728110082
 51
180.0
  0
LINE
  5
394
  8
0
 10
124.15668329878289
 20
51.96028840880146
 30
0.0
 11
146.6999999999999
 21
50.0
 31
0.0
  0
LINE
  5
395
  8
0
 10
124.15668191298541
 20
69.039711470694385
 30
0.0
 11
146.6999999999999
 21
71.0
 31
0.0
  0
LINE
  5
396
  8
0
 10
146.6999999999999
 20
50.0
 30
0.0
 11
146.6999999999999
 21
71.0
 31
0.0
  0
LINE
  5
397
  8
1
 10
107.4999999999999
 20
60.5
 30
0.0
 11
176.49999999999989
 21
60.5
 31
0.0
  0
LINE
  5
398
  8
0
 10
170.4596258176116
 20
50.0
 30
0.0
 11
146.6999999999999
 21
50.0
 31
0.0
  0
LINE
  5
399
  8
0
 10
146.6999999999999
 20
71.0
 30
0.0
 11
170.4596258176116
 21
71.0
 31
0.0
  0
LINE
  5
39A
  8
0
 10
123.6999999999999
 20
52.458406015102518
 30
0.0
 11
123.6999999999999
 21
68.541591461712386
 31
0.0
  0
ARC
  5
39B
  8
0
 10
121.9999999999999
 20
63.349999999999973
 30
0.0
 40
0.5
 50
180.0
 51
270.0
  0
ARC
  5
39C
  8
0
 10
121.9999999999999
 20
57.649999999999999
 30
0.0
 40
0.5
 50
90.0
 51
180.0
  0
CIRCLE
  5
39D
  8
0
 10
223.49999999999989
 20
60.5
 30
0.0
 40
10.5
  0
ARC
  5
39E
  8
0
 10
121.9999999999999
 20
118.15000000000001
 30
0.0
 40
0.5
 50
90.0
 51
180.0
  0
ARC
  5
39F
  8
0
 10
121.9999999999999
 20
123.84999999999989
 30
0.0
 40
0.5
 50
180.0
 51
270.0
  0
LINE
  5
3A0
  8
0
 10
123.6999999999999
 20
112.9584060151025
 30
0.0
 11
123.6999999999999
 21
129.04159146171239
 31
0.0
  0
LINE
  5
3A1
  8
0
 10
146.6999999999999
 20
131.5
 30
0.0
 11
170.4596258176116
 21
131.5
 31
0.0
  0
LINE
  5
3A2
  8
0
 10
170.4596258176116
 20
110.5
 30
0.0
 11
146.6999999999999
 21
110.5
 31
0.0
  0
LINE
  5
3A3
  8
1
 10
107.4999999999999
 20
121.0
 30
0.0
 11
176.49999999999989
 21
121.0
 31
0.0
  0
LINE
  5
3A4
  8
0
 10
146.6999999999999
 20
110.5
 30
0.0
 11
146.6999999999999
 21
131.5
 31
0.0
  0
LINE
  5
3A5
  8
0
 10
124.15668191298541
 20
129.53971147069441
 30
0.0
 11
146.6999999999999
 21
131.5
 31
0.0
  0
LINE
  5
3A6
  8
0
 10
124.15668329878289
 20
112.4602884088014
 30
0.0
 11
146.6999999999999
 21
110.5
 31
0.0
  0
ARC
  5
3A7
  8
0
 10
124.1999999999999
 20
129.04159146171239
 30
0.0
 40
0.5
 50
94.969740728110082
 51
180.0
  0
ARC
  5
3A8
  8
0
 10
124.1999999999999
 20
112.9584085382876
 30
0.0
 40
0.5
 50
180.0
 51
265.03025927188952
  0
ARC
  5
3A9
  8
0
 10
144.93749999999989
 20
121.0
 30
0.0
 40
28.562499999999972
 50
340.57555580028531
 51
19.424444199714721
  0
ARC
  5
3AA
  8
0
 10
170.4596258176116
 20
130.0
 30
0.0
 40
1.5
 50
19.424444199714291
 51
90.0
  0
ARC
  5
3AB
  8
0
 10
170.4596258176116
 20
112.0
 30
0.0
 40
1.5
 50
270.0
 51
340.5755558002848
  0
LINE
  5
3AC
  8
0
 10
170.4596258176116
 20
111.5
 30
0.0
 11
170.4596258176116
 21
130.5
 31
0.0
  0
LINE
  5
3AD
  8
0
 10
123.6999999999999
 20
126.0
 30
0.0
 11
123.4999999999999
 21
126.0
 31
0.0
  0
LINE
  5
3AE
  8
2
 10
114.5
 20
122.4999999987791
 30
0.0
 11
114.5
 21
119.5000000012211
 31
0.0
  0
LINE
  5
3AF
  8
0
 10
111.4999999999999
 20
124.0
 30
0.0
 11
111.4999999999999
 21
118.0
 31
0.0
  0
LINE
  5
3B0
  8
0
 10
110.4999999999999
 20
123.0
 30
0.0
 11
111.4999999999999
 21
124.0
 31
0.0
  0
LINE
  5
3B1
  8
0
 10
111.4999999999999
 20
118.0
 30
0.0
 11
110.4999999999999
 21
119.0
 31
0.0
  0
LINE
  5
3B2
  8
0
 10
121.4999999999999
 20
117.9999999999999
 30
0.0
 11
111.4999999999999
 21
118.0
 31
0.0
  0
LINE
  5
3B3
  8
3
 10
121.4999999999999
 20
118.5414999999999
 30
0.0
 11
110.9585
 21
118.5414999999999
 31
0.0
  0
LINE
  5
3B4
  8
3
 10
121.4999999999999
 20
123.4585
 30
0.0
 11
110.9585000000001
 21
123.4585
 31
0.0
  0
LINE
  5
3B5
  8
0
 10
121.4999999999999
 20
124.0
 30
0.0
 11
111.4999999999999
 21
124.0
 31
0.0
  0
LINE
  5
3B6
  8
0
 10
110.4999999999999
 20
119.0
 30
0.0
 11
110.4999999999999
 21
123.0
 31
0.0
  0
ARC
  5
3B7
  8
0
 10
122.9999999999999
 20
118.15000000000001
 30
0.0
 40
0.5
 50
0.0
 51
90.0
  0
ARC
  5
3B8
  8
0
 10
122.9999999999999
 20
123.84999999999999
 30
0.0
 40
0.5
 50
270.0
 51
0.0
  0
LINE
  5
3B9
  8
0
 10
123.4999999999999
 20
116.0
 30
0.0
 11
123.4999999999999
 21
126.0
 31
0.0
  0
LINE
  5
3BA
  8
0
 10
121.4999999999999
 20
117.9999999999999
 30
0.0
 11
121.4999999999999
 21
124.0
 31
0.0
  0
LINE
  5
3BB
  8
0
 10
121.9999999999999
 20
118.65000000000001
 30
0.0
 11
122.9999999999999
 21
118.65000000000001
 31
0.0
  0
LINE
  5
3BC
  8
0
 10
121.9999999999999
 20
123.34999999999989
 30
0.0
 11
122.9999999999999
 21
123.34999999999999
 31
0.0
  0
LINE
  5
3BD
  8
0
 10
123.6999999999999
 20
116.0
 30
0.0
 11
123.4999999999999
 21
116.0
 31
0.0
  0
LINE
  5
3BE
  8
2
 10
110.4999999999999
 20
122.4999999987791
 30
0.0
 11
114.5
 21
122.4999999987791
 31
0.0
  0
LINE
  5
3BF
  8
2
 10
114.5
 20
122.4999999987791
 30
0.0
 11
115.4999999991861
 21
121.0000000000001
 31
0.0
  0
LINE
  5
3C0
  8
2
 10
110.4999999999999
 20
119.5000000012211
 30
0.0
 11
114.5
 21
119.5000000012211
 31
0.0
  0
LINE
  5
3C1
  8
2
 10
114.5
 20
119.5000000012211
 30
0.0
 11
115.4999999991862
 21
121.0
 31
0.0
  0
LINE
  5
3C2
  8
2
 10
110.4999999999999
 20
121.0
 30
0.0
 11
114.5
 21
121.0
 31
0.0
  0
LINE
  5
3C3
  8
1
 10
236.99999999999989
 20
60.5
 30
0.0
 11
209.99999999999989
 21
60.5
 31
0.0
  0
LINE
  5
3C4
  8
1
 10
223.49999999999989
 20
74.0
 30
0.0
 11
223.49999999999989
 21
47.0
 31
0.0
  0
LINE
  5
3C5
  8
1
 10
73.999999999999972
 20
60.5
 30
0.0
 11
46.999999999999972
 21
60.5
 31
0.0
  0
LINE
  5
3C6
  8
1
 10
60.499999999999972
 20
74.0
 30
0.0
 11
60.499999999999972
 21
47.0
 31
0.0
  0
ENDSEC
  0
EOF
