  0
SECTION
  2
HEADER
  9
$ACADVER
  1
AC1009
  9
$INSBASE
 10
0.0
 20
0.0
 30
0.0
  9
$EXTMIN
 10
0.0
 20
-2.960436562073669
 30
0.0
  9
$EXTMAX
 10
287.5
 20
156.75
 30
0.0
  9
$LIMMIN
 10
0.0
 20
0.0
  9
$LIMMAX
 10
375.0
 20
270.0
  9
$ORTHOMODE
 70
     1
  9
$REGENMODE
 70
     1
  9
$FILLMODE
 70
     1
  9
$QTEXTMODE
 70
     0
  9
$MIRRTEXT
 70
     0
  9
$DRAGMODE
 70
     2
  9
$LTSCALE
 40
5.0
  9
$OSMODE
 70
    37
  9
$ATTMODE
 70
     1
  9
$TEXTSIZE
 40
4.000000000000048
  9
$TRACEWID
 40
0.05
  9
$TEXTSTYLE
  7
STANDARD
  9
$CLAYER
  8
0
  9
$CELTYPE
  6
BYLAYER
  9
$CECOLOR
 62
   256
  9
$DIMSCALE
 40
1.0
  9
$DIMASZ
 40
3.0
  9
$DIMEXO
 40
2.0
  9
$DIMDLI
 40
0.38
  9
$DIMRND
 40
0.0
  9
$DIMDLE
 40
0.0
  9
$DIMEXE
 40
2.0
  9
$DIMTP
 40
0.0
  9
$DIMTM
 40
0.0
  9
$DIMTXT
 40
3.2000000000000002
  9
$DIMCEN
 40
0.0
  9
$DIMTSZ
 40
0.0
  9
$DIMTOL
 70
     0
  9
$DIMLIM
 70
     0
  9
$DIMTIH
 70
     0
  9
$DIMTOH
 70
     0
  9
$DIMSE1
 70
     0
  9
$DIMSE2
 70
     0
  9
$DIMTAD
 70
     1
  9
$DIMZIN
 70
     8
  9
$DIMBLK
  1

  9
$DIMASO
 70
     1
  9
$DIMSHO
 70
     0
  9
$DIMPOST
  1

  9
$DIMAPOST
  1

  9
$DIMALT
 70
     0
  9
$DIMALTD
 70
     2
  9
$DIMALTF
 40
25.399999999999999
  9
$DIMLFAC
 40
1.0
  9
$DIMTOFL
 70
     1
  9
$DIMTVP
 40
1.6000000000000001
  9
$DIMTIX
 70
     1
  9
$DIMSOXD
 70
     0
  9
$DIMSAH
 70
     0
  9
$DIMBLK1
  1

  9
$DIMBLK2
  1

  9
$DIMSTYLE
  2
STANDARD
  9
$DIMCLRD
 70
     0
  9
$DIMCLRE
 70
     0
  9
$DIMCLRT
 70
     0
  9
$DIMTFAC
 40
1.0
  9
$DIMGAP
 40
0.09
  9
$LUNITS
 70
     2
  9
$LUPREC
 70
     1
  9
$SKETCHINC
 40
0.1
  9
$FILLETRAD
 40
0.5
  9
$AUNITS
 70
     0
  9
$AUPREC
 70
     0
  9
$MENU
  1
E:\r13\win\SUPPORT\ACAD
  9
$ELEVATION
 40
0.0
  9
$PELEVATION
 40
0.0
  9
$THICKNESS
 40
0.0
  9
$LIMCHECK
 70
     0
  9
$BLIPMODE
 70
     0
  9
$CHAMFERA
 40
0.0
  9
$CHAMFERB
 40
0.0
  9
$SKPOLY
 70
     0
  9
$TDCREATE
 40
2449839.7814930561
  9
$TDUPDATE
 40
2459492.4546824531
  9
$TDINDWG
 40
0.0554716204
  9
$TDUSRTIMER
 40
0.0554716204
  9
$USRTIMER
 70
     1
  9
$ANGBASE
 50
0.0
  9
$ANGDIR
 70
     0
  9
$PDMODE
 70
     0
  9
$PDSIZE
 40
0.0
  9
$PLINEWID
 40
0.0
  9
$COORDS
 70
     1
  9
$SPLFRAME
 70
     0
  9
$SPLINETYPE
 70
     6
  9
$SPLINESEGS
 70
     8
  9
$ATTDIA
 70
     0
  9
$ATTREQ
 70
     1
  9
$HANDLING
 70
     1
  9
$HANDSEED
  5
658
  9
$SURFTAB1
 70
     6
  9
$SURFTAB2
 70
     6
  9
$SURFTYPE
 70
     6
  9
$SURFU
 70
     6
  9
$SURFV
 70
     6
  9
$UCSNAME
  2

  9
$UCSORG
 10
0.0
 20
0.0
 30
0.0
  9
$UCSXDIR
 10
1.0
 20
0.0
 30
0.0
  9
$UCSYDIR
 10
0.0
 20
1.0
 30
0.0
  9
$PUCSNAME
  2

  9
$PUCSORG
 10
0.0
 20
0.0
 30
0.0
  9
$PUCSXDIR
 10
1.0
 20
0.0
 30
0.0
  9
$PUCSYDIR
 10
0.0
 20
1.0
 30
0.0
  9
$USERI1
 70
     0
  9
$USERI2
 70
     1
  9
$USERI3
 70
     1
  9
$USERI4
 70
     0
  9
$USERI5
 70
     0
  9
$USERR1
 40
0.0
  9
$USERR2
 40
0.0
  9
$USERR3
 40
0.0
  9
$USERR4
 40
0.0
  9
$USERR5
 40
0.0
  9
$WORLDVIEW
 70
     1
  9
$SHADEDGE
 70
     3
  9
$SHADEDIF
 70
    70
  9
$TILEMODE
 70
     1
  9
$MAXACTVP
 70
    16
  9
$PLIMCHECK
 70
     0
  9
$PEXTMIN
 10
1.0000000000000000E+020
 20
1.0000000000000000E+020
 30
1.0000000000000000E+020
  9
$PEXTMAX
 10
-1.0000000000000000E+020
 20
-1.0000000000000000E+020
 30
-1.0000000000000000E+020
  9
$PLIMMIN
 10
0.0
 20
0.0
  9
$PLIMMAX
 10
12.0
 20
9.0
  9
$UNITMODE
 70
     0
  9
$VISRETAIN
 70
     0
  9
$PLINEGEN
 70
     0
  9
$PSLTSCALE
 70
     0
  0
ENDSEC
  0
SECTION
  2
TABLES
  0
TABLE
  2
VPORT
 70
     1
  0
VPORT
  2
*ACTIVE
 70
     0
 10
0.0
 20
0.0
 11
1.0
 21
1.0
 12
390.29363784665583
 22
150.0
 13
0.0
 23
0.0
 14
10.0
 24
10.0
 15
10.0
 25
10.0
 16
0.0
 26
0.0
 36
1.0
 17
0.0
 27
0.0
 37
0.0
 40
300.0
 41
2.6019575856443709
 42
50.0
 43
0.0
 44
0.0
 50
0.0
 51
0.0
 71
     0
 72
   500
 73
     1
 74
     0
 75
     0
 76
     0
 77
     0
 78
     2
  0
ENDTAB
  0
TABLE
  2
LTYPE
 70
     4
  0
LTYPE
  2
CONTINUOUS
 70
     0
  3
Solid Line
 72
    65
 73
     0
 40
0.0
  0
LTYPE
  2
CENTER
 70
     0
  3
____ _ ____ _ ____ _ ____ _ ____ _ ____ _ ____
 72
    65
 73
     4
 40
2.0
 49
1.25
 49
-0.25
 49
0.25
 49
-0.25
  0
LTYPE
  2
HIDDEN
 70
     0
  3
_ _ _ _ _ _ _ _ _ _ _ _ _ _ _ _ _ _ _ _ _ _ _
 72
    65
 73
     2
 40
0.375
 49
0.25
 49
-0.125
  0
LTYPE
  2
PHANTOM2
 70
     0
  3
___ _ _ ___ _ _ ___ _ _ ___ _ _
 72
    65
 73
     6
 40
1.25
 49
0.625
 49
-0.125
 49
0.125
 49
-0.125
 49
0.125
 49
-0.125
  0
ENDTAB
  0
TABLE
  2
LAYER
 70
     5
  0
LAYER
  2
0
 70
     0
 62
     7
  6
CONTINUOUS
  0
LAYER
  2
1
 70
     0
 62
     1
  6
CENTER
  0
LAYER
  2
2
 70
     0
 62
     2
  6
HIDDEN
  0
LAYER
  2
3
 70
     0
 62
     3
  6
CONTINUOUS
  0
LAYER
  2
DEFPOINTS
 70
     0
 62
     7
  6
CONTINUOUS
  0
ENDTAB
  0
TABLE
  2
STYLE
 70
     2
  0
STYLE
  2
STANDARD
 70
     0
 40
0.0
 41
1.0
 50
0.0
 71
     0
 42
4.000000000000048
  3
TXT
  4
BIGFONT
  0
STYLE
  2
STANDARD1
 70
     0
 40
0.0
 41
1.0
 50
0.0
 71
     0
 42
3.0
  3
txt
  4

  0
ENDTAB
  0
TABLE
  2
VIEW
 70
     1
  0
VIEW
  2
ALL
 70
     0
 40
270.0
 10
220.99159663865549
 20
135.0
 41
0.0
 11
0.0
 21
0.0
 31
1.0
 12
0.0
 22
0.0
 32
0.0
 42
0.0
 43
0.0
 44
0.0
 50
0.0
 71
     0
  0
ENDTAB
  0
TABLE
  2
UCS
 70
     0
  0
ENDTAB
  0
TABLE
  2
APPID
 70
     6
  0
APPID
  2
ACAD
 70
     0
  0
APPID
  2
ACAD_MLEADERVER
 70
     0
  0
APPID
  2
ACAD_EXEMPT_FROM_CAD_STANDARDS
 70
     0
  0
APPID
  2
ACAD_NAV_VCDISPLAY
 70
     0
  0
APPID
  2
ACAD_DSTYLE_DIMJAG
 70
     0
  0
APPID
  2
ACAD_DSTYLE_DIMTALN
 70
     0
  0
ENDTAB
  0
TABLE
  2
DIMSTYLE
 70
     1
  0
DIMSTYLE
  2
STANDARD
 70
     0
  3

  4

  5

  6

  7

 40
1.0
 41
0.18
 42
0.0625
 43
0.38
 44
0.18
 45
0.0
 46
0.0
 47
0.0
 48
0.0
140
0.18
141
0.09
142
0.0
143
25.399999999999999
144
1.0
145
0.0
146
1.0
147
0.09
 71
     0
 72
     0
 73
     1
 74
     1
 75
     0
 76
     0
 77
     0
 78
     0
170
     0
171
     2
172
     0
173
     0
174
     0
175
     0
176
     0
177
     0
178
     0
  0
ENDTAB
  0
ENDSEC
  0
SECTION
  2
BLOCKS
  0
BLOCK
  8
0
  2
$MODEL_SPACE
 70
     0
 10
0.0
 20
0.0
 30
0.0
  3
$MODEL_SPACE
  1

  0
ENDBLK
  5
136
  8
0
  0
BLOCK
 67
     1
  8
0
  2
$PAPER_SPACE
 70
     0
 10
0.0
 20
0.0
 30
0.0
  3
$PAPER_SPACE
  1

  0
ENDBLK
  5
134
 67
     1
  8
0
  0
ENDSEC
  0
SECTION
  2
ENTITIES
  0
TEXT
  5
220
  8
0
 62
     3
 10
0.0
 20
0.0
 30
0.0
 40
10.0
  1
RGPA65
  7
STANDARD1
  0
LINE
  5
3BD
  8
0
 10
147.25
 20
149.5
 30
0.0
 11
147.25
 21
139.5
 31
0.0
  0
LINE
  5
3BE
  8
0
 10
147.25
 20
139.5
 30
0.0
 11
149.25
 21
139.5
 31
0.0
  0
LINE
  5
3BF
  8
0
 10
149.25
 20
149.5
 30
0.0
 11
147.25
 21
149.5
 31
0.0
  0
LINE
  5
3C0
  8
0
 10
149.25
 20
154.29183441299131
 30
0.0
 11
149.25
 21
134.70816558710661
 31
0.0
  0
ARC
  5
3C1
  8
0
 10
149.75
 20
134.70816558700869
 30
0.0
 40
0.4999999999999964
 50
180.0
 51
265.00000000000023
  0
ARC
  5
3C2
  8
0
 10
149.75
 20
154.29183441299131
 30
0.0
 40
0.4999999999999952
 50
94.999999999999758
 51
180.0
  0
ARC
  5
3C3
  8
0
 10
168.5000000000004
 20
144.5
 30
0.0
 40
43.749999999999659
 50
345.39951425499811
 51
14.600485745001871
  0
LINE
  5
3C5
  8
0
 10
149.7064221286262
 20
134.21006823796279
 30
0.0
 11
172.11010460552271
 21
132.25
 31
0.0
  0
LINE
  5
3C6
  8
0
 10
172.11010460552271
 20
156.75
 30
0.0
 11
149.7064221286262
 21
154.7899317620371
 31
0.0
  0
ARC
  5
3C8
  8
0
 10
209.256594558427
 20
133.8833333333333
 30
0.0
 40
1.633333333333377
 50
270.0
 51
345.39951425499657
  0
ARC
  5
3C9
  8
0
 10
209.256594558427
 20
155.11666666666659
 30
0.0
 40
1.633333333333379
 50
14.600485745003351
 51
90.0
  0
LINE
  5
3CA
  8
0
 10
209.256594558427
 20
155.75
 30
0.0
 11
209.256594558427
 21
133.25
 31
0.0
  0
LINE
  5
3CB
  8
0
 10
172.11010460552271
 20
156.75
 30
0.0
 11
172.11010460552271
 21
132.25
 31
0.0
  0
LINE
  5
3CC
  8
0
 10
172.11010460552271
 20
132.25
 30
0.0
 11
209.256594558427
 21
132.25
 31
0.0
  0
LINE
  5
3CD
  8
0
 10
209.256594558427
 20
156.75
 30
0.0
 11
172.11010460552271
 21
156.75
 31
0.0
  0
CIRCLE
  5
3F1
  8
0
 10
272.25000000000011
 20
72.250000000000057
 30
0.0
 40
12.25
  0
LINE
  5
41C
  8
0
 10
147.25
 20
67.25
 30
0.0
 11
149.25
 21
67.25
 31
0.0
  0
LINE
  5
41D
  8
0
 10
149.25
 20
77.25
 30
0.0
 11
147.25
 21
77.25
 31
0.0
  0
LINE
  5
41E
  8
0
 10
147.25
 20
77.25
 30
0.0
 11
147.25
 21
67.25
 31
0.0
  0
LINE
  5
41F
  8
0
 10
149.25
 20
82.041834412991264
 30
0.0
 11
149.25
 21
62.4581655870087
 31
0.0
  0
ARC
  5
420
  8
0
 10
149.75
 20
62.4581655870087
 30
0.0
 40
0.4999999999999964
 50
180.0
 51
265.00000000000023
  0
ARC
  5
421
  8
0
 10
149.75
 20
82.041834412991307
 30
0.0
 40
0.4999999999999952
 50
94.999999999999758
 51
180.0
  0
ARC
  5
422
  8
0
 10
168.5000000000004
 20
72.250000000000057
 30
0.0
 40
43.749999999999659
 50
345.39951425499811
 51
14.600485745001871
  0
LINE
  5
423
  8
0
 10
149.7064221286262
 20
61.960068237962851
 30
0.0
 11
172.11010460552271
 21
60.0
 31
0.0
  0
LINE
  5
424
  8
0
 10
172.11010460552271
 20
84.500000000000014
 30
0.0
 11
149.7064221286262
 21
82.539931762037156
 31
0.0
  0
ARC
  5
426
  8
0
 10
209.256594558427
 20
61.633333333333383
 30
0.0
 40
1.633333333333377
 50
270.0
 51
345.39951425499657
  0
ARC
  5
427
  8
0
 10
209.256594558427
 20
82.866666666666603
 30
0.0
 40
1.633333333333379
 50
14.600485745003351
 51
90.0
  0
LINE
  5
429
  8
0
 10
172.11010460552271
 20
60.0
 30
0.0
 11
209.256594558427
 21
60.0
 31
0.0
  0
LINE
  5
42A
  8
0
 10
209.256594558427
 20
84.500000000000014
 30
0.0
 11
172.11010460552271
 21
84.500000000000014
 31
0.0
  0
LINE
  5
42B
  8
0
 10
209.256594558427
 20
83.499999999999986
 30
0.0
 11
209.256594558427
 21
61.0
 31
0.0
  0
LINE
  5
42C
  8
0
 10
172.11010460552271
 20
84.500000000000014
 30
0.0
 11
172.11010460552271
 21
60.0
 31
0.0
  0
CIRCLE
  5
496
  8
0
 10
72.25
 20
72.25
 30
0.0
 40
5.0
  0
CIRCLE
  5
498
  8
0
 10
72.25
 20
72.25
 30
0.0
 40
10.28993176203716
  0
CIRCLE
  5
499
  8
0
 10
72.25
 20
72.25
 30
0.0
 40
12.25
  0
LINE
  5
4D9
  8
0
 10
144.75
 20
75.500000000000057
 30
0.0
 11
146.75
 21
75.500000000000057
 31
0.0
  0
LINE
  5
4DA
  8
0
 10
144.75
 20
69.0
 30
0.0
 11
146.75
 21
69.0
 31
0.0
  0
LINE
  5
4DB
  8
0
 10
144.25
 20
68.25
 30
0.0
 11
144.25
 21
76.25
 31
0.0
  0
ARC
  5
4DC
  8
0
 10
146.75
 20
76.000000000000057
 30
0.0
 40
0.5
 50
270.0
 51
0.0
  0
ARC
  5
4DD
  8
0
 10
146.75
 20
68.5
 30
0.0
 40
0.5
 50
0.0
 51
90.0
  0
LINE
  5
4DE
  8
0
 10
132.25
 20
69.450000000000017
 30
0.0
 11
132.25
 21
75.050000000000011
 31
0.0
  0
LINE
  5
4DF
  8
0
 10
144.25
 20
76.25
 30
0.0
 11
133.44999999999999
 21
76.250000000000028
 31
0.0
  0
LINE
  5
4E0
  8
3
 10
144.25
 20
75.573500000000124
 30
0.0
 11
132.77350000000021
 21
75.573500000000109
 31
0.0
  0
LINE
  5
4E1
  8
3
 10
144.25
 20
68.926499999999919
 30
0.0
 11
132.7735000000001
 21
68.926499999999919
 31
0.0
  0
LINE
  5
4E2
  8
0
 10
144.25
 20
68.25
 30
0.0
 11
133.44999999999999
 21
68.250000000000014
 31
0.0
  0
LINE
  5
4E3
  8
0
 10
133.44999999999999
 20
68.250000000000014
 30
0.0
 11
132.25
 21
69.450000000000017
 31
0.0
  0
LINE
  5
4E4
  8
0
 10
132.25
 20
75.050000000000011
 30
0.0
 11
133.44999999999999
 21
76.250000000000028
 31
0.0
  0
LINE
  5
4E5
  8
0
 10
133.44999999999999
 20
68.25
 30
0.0
 11
133.44999999999999
 21
76.250000000000028
 31
0.0
  0
LINE
  5
4E6
  8
2
 10
138.25
 20
74.559401074878906
 30
0.0
 11
139.58333333224829
 21
72.249999999999943
 31
0.0
  0
LINE
  5
4E7
  8
2
 10
138.25
 20
69.94059892512098
 30
0.0
 11
139.5833333322482
 21
72.249999999999943
 31
0.0
  0
LINE
  5
4E8
  8
2
 10
138.25
 20
69.940598925121037
 30
0.0
 11
138.25
 21
74.559401074878849
 31
0.0
  0
LINE
  5
4E9
  8
2
 10
132.25
 20
69.940598925121037
 30
0.0
 11
138.25
 21
69.940598925121037
 31
0.0
  0
LINE
  5
4EA
  8
2
 10
132.25
 20
71.095299462561229
 30
0.0
 11
138.25
 21
71.095299462561229
 31
0.0
  0
LINE
  5
4EB
  8
2
 10
132.25
 20
73.4047005374386
 30
0.0
 11
138.25
 21
73.4047005374386
 31
0.0
  0
LINE
  5
4EC
  8
2
 10
132.25
 20
74.559401074878849
 30
0.0
 11
138.25
 21
74.559401074878849
 31
0.0
  0
ARC
  5
4ED
  8
0
 10
144.75
 20
76.000000000000057
 30
0.0
 40
0.5
 50
180.0
 51
270.0
  0
ARC
  5
4EE
  8
0
 10
144.75
 20
68.5
 30
0.0
 40
0.5
 50
90.0
 51
180.0
  0
ARC
  5
4EF
  8
0
 10
144.75
 20
140.74999999999949
 30
0.0
 40
0.5
 50
90.0
 51
180.0
  0
ARC
  5
4F0
  8
0
 10
144.75000000000011
 20
148.24999999999949
 30
0.0
 40
0.5
 50
180.0
 51
270.0
  0
LINE
  5
4F1
  8
2
 10
138.25
 20
142.5000000016268
 30
0.0
 11
138.25
 21
146.49999999837081
 31
0.0
  0
LINE
  5
4F2
  8
0
 10
133.44999999999999
 20
140.49999999999949
 30
0.0
 11
133.4500000000001
 21
148.49999999999949
 31
0.0
  0
LINE
  5
4F3
  8
0
 10
132.25000000000011
 20
147.2999999999995
 30
0.0
 11
133.4500000000001
 21
148.49999999999949
 31
0.0
  0
LINE
  5
4F4
  8
0
 10
133.44999999999999
 20
140.49999999999949
 30
0.0
 11
132.25
 21
141.69999999999951
 31
0.0
  0
LINE
  5
4F5
  8
0
 10
144.25
 20
140.49999999999949
 30
0.0
 11
133.44999999999999
 21
140.49999999999949
 31
0.0
  0
LINE
  5
4F6
  8
3
 10
144.25
 20
141.17649999999941
 30
0.0
 11
132.77350000000021
 21
141.17649999999941
 31
0.0
  0
LINE
  5
4F7
  8
3
 10
144.25
 20
147.8234999999996
 30
0.0
 11
132.77350000000021
 21
147.8234999999996
 31
0.0
  0
LINE
  5
4F8
  8
0
 10
144.25
 20
148.49999999999949
 30
0.0
 11
133.4500000000001
 21
148.49999999999949
 31
0.0
  0
LINE
  5
4F9
  8
0
 10
132.25
 20
141.69999999999951
 30
0.0
 11
132.25000000000011
 21
147.2999999999995
 31
0.0
  0
ARC
  5
4FA
  8
0
 10
146.75
 20
140.74999999999949
 30
0.0
 40
0.5
 50
0.0
 51
90.0
  0
ARC
  5
4FB
  8
0
 10
146.75
 20
148.24999999999949
 30
0.0
 40
0.5
 50
270.0
 51
0.0
  0
LINE
  5
4FC
  8
0
 10
144.25
 20
140.49999999999949
 30
0.0
 11
144.25
 21
148.49999999999949
 31
0.0
  0
LINE
  5
4FD
  8
0
 10
144.75
 20
141.24999999999949
 30
0.0
 11
146.75
 21
141.24999999999949
 31
0.0
  0
LINE
  5
4FE
  8
0
 10
144.75000000000011
 20
147.7499999999996
 30
0.0
 11
146.75
 21
147.7499999999996
 31
0.0
  0
LINE
  5
4FF
  8
2
 10
132.25
 20
146.49999999837081
 30
0.0
 11
138.25
 21
146.49999999837081
 31
0.0
  0
LINE
  5
500
  8
2
 10
138.25
 20
146.49999999837081
 30
0.0
 11
139.58333333224829
 21
144.49999999999949
 31
0.0
  0
LINE
  5
501
  8
2
 10
132.25
 20
142.5000000016268
 30
0.0
 11
138.25
 21
142.50000000162669
 31
0.0
  0
LINE
  5
502
  8
2
 10
138.25
 20
142.50000000162669
 30
0.0
 11
139.58333333224829
 21
144.49999999999949
 31
0.0
  0
LINE
  5
503
  8
2
 10
132.25
 20
144.5
 30
0.0
 11
138.25
 21
144.5
 31
0.0
  0
LINE
  5
508
  8
0
 10
72.249999999999318
 20
74.559401074878053
 30
0.0
 11
74.249999999999318
 21
73.404700536499206
 31
0.0
  0
LINE
  5
509
  8
0
 10
70.250000001627313
 20
73.404700537439851
 30
0.0
 11
72.250000001627313
 21
74.55940107581938
 31
0.0
  0
LINE
  5
50A
  8
0
 10
70.250000001627313
 20
71.0952994625614
 30
0.0
 11
70.250000001627313
 21
73.404700539319776
 31
0.0
  0
LINE
  5
50B
  8
0
 10
72.249999999999318
 20
69.94059892512206
 30
0.0
 11
70.249999999999304
 21
71.095299463500893
 31
0.0
  0
LINE
  5
50C
  8
0
 10
74.249999998369503
 20
71.095299462560263
 30
0.0
 11
72.249999998371322
 21
69.940598924180733
 31
0.0
  0
LINE
  5
50D
  8
0
 10
74.249999998371322
 20
73.404700537440078
 30
0.0
 11
74.249999998371322
 21
71.095299460681701
 31
0.0
  0
CIRCLE
  5
50E
  8
0
 10
72.25
 20
72.25
 30
0.0
 40
4.000000000000056
  0
CIRCLE
  5
50F
  8
3
 10
72.25
 20
72.25
 30
0.0
 40
3.3235000000002231
  0
LINE
  5
569
  8
1
 10
57.0
 20
72.25
 30
0.0
 11
87.5
 21
72.25
 31
0.0
  0
LINE
  5
56A
  8
1
 10
129.25
 20
144.49999999999949
 30
0.0
 11
215.25000000000011
 21
144.49999999999949
 31
0.0
  0
LINE
  5
56B
  8
1
 10
72.25
 20
57.0
 30
0.0
 11
72.25
 21
87.5
 31
0.0
  0
LINE
  5
56C
  8
1
 10
272.25000000000011
 20
57.000000000000057
 30
0.0
 11
272.25000000000011
 21
87.500000000000057
 31
0.0
  0
LINE
  5
571
  8
1
 10
129.25
 20
72.25
 30
0.0
 11
215.25000000000011
 21
72.25
 31
0.0
  0
LINE
  5
574
  8
1
 10
257.00000000000011
 20
72.250000000000057
 30
0.0
 11
287.5
 21
72.250000000000057
 31
0.0
  0
ENDSEC
  0
EOF
