  0
SECTION
  2
HEADER
  9
$ACADVER
  1
AC1009
  9
$INSBASE
 10
0.0
 20
0.0
 30
0.0
  9
$EXTMIN
 10
0.0
 20
-2.960436562073669
 30
0.0
  9
$EXTMAX
 10
308.5
 20
159.74999999990541
 30
0.0
  9
$LIMMIN
 10
0.0
 20
0.0
  9
$LIMMAX
 10
375.0
 20
270.0
  9
$ORTHOMODE
 70
     1
  9
$REGENMODE
 70
     1
  9
$FILLMODE
 70
     1
  9
$QTEXTMODE
 70
     0
  9
$MIRRTEXT
 70
     0
  9
$DRAGMODE
 70
     2
  9
$LTSCALE
 40
5.0
  9
$OSMODE
 70
    37
  9
$ATTMODE
 70
     1
  9
$TEXTSIZE
 40
4.000000000000048
  9
$TRACEWID
 40
0.05
  9
$TEXTSTYLE
  7
STANDARD
  9
$CLAYER
  8
0
  9
$CELTYPE
  6
BYLAYER
  9
$CECOLOR
 62
   256
  9
$DIMSCALE
 40
1.0
  9
$DIMASZ
 40
3.0
  9
$DIMEXO
 40
2.0
  9
$DIMDLI
 40
0.38
  9
$DIMRND
 40
0.0
  9
$DIMDLE
 40
0.0
  9
$DIMEXE
 40
2.0
  9
$DIMTP
 40
0.0
  9
$DIMTM
 40
0.0
  9
$DIMTXT
 40
3.2000000000000002
  9
$DIMCEN
 40
0.0
  9
$DIMTSZ
 40
0.0
  9
$DIMTOL
 70
     0
  9
$DIMLIM
 70
     0
  9
$DIMTIH
 70
     0
  9
$DIMTOH
 70
     0
  9
$DIMSE1
 70
     0
  9
$DIMSE2
 70
     0
  9
$DIMTAD
 70
     1
  9
$DIMZIN
 70
     8
  9
$DIMBLK
  1

  9
$DIMASO
 70
     1
  9
$DIMSHO
 70
     0
  9
$DIMPOST
  1

  9
$DIMAPOST
  1

  9
$DIMALT
 70
     0
  9
$DIMALTD
 70
     2
  9
$DIMALTF
 40
25.399999999999999
  9
$DIMLFAC
 40
1.0
  9
$DIMTOFL
 70
     1
  9
$DIMTVP
 40
1.6000000000000001
  9
$DIMTIX
 70
     1
  9
$DIMSOXD
 70
     0
  9
$DIMSAH
 70
     0
  9
$DIMBLK1
  1

  9
$DIMBLK2
  1

  9
$DIMSTYLE
  2
STANDARD
  9
$DIMCLRD
 70
     0
  9
$DIMCLRE
 70
     0
  9
$DIMCLRT
 70
     0
  9
$DIMTFAC
 40
1.0
  9
$DIMGAP
 40
0.09
  9
$LUNITS
 70
     2
  9
$LUPREC
 70
     1
  9
$SKETCHINC
 40
0.1
  9
$FILLETRAD
 40
0.5
  9
$AUNITS
 70
     0
  9
$AUPREC
 70
     0
  9
$MENU
  1
E:\r13\win\SUPPORT\ACAD
  9
$ELEVATION
 40
0.0
  9
$PELEVATION
 40
0.0
  9
$THICKNESS
 40
0.0
  9
$LIMCHECK
 70
     0
  9
$BLIPMODE
 70
     0
  9
$CHAMFERA
 40
0.0
  9
$CHAMFERB
 40
0.0
  9
$SKPOLY
 70
     0
  9
$TDCREATE
 40
2449839.7815046301
  9
$TDUPDATE
 40
2459492.4546898608
  9
$TDINDWG
 40
0.0493625116
  9
$TDUSRTIMER
 40
0.0493625116
  9
$USRTIMER
 70
     1
  9
$ANGBASE
 50
0.0
  9
$ANGDIR
 70
     0
  9
$PDMODE
 70
     0
  9
$PDSIZE
 40
0.0
  9
$PLINEWID
 40
0.0
  9
$COORDS
 70
     1
  9
$SPLFRAME
 70
     0
  9
$SPLINETYPE
 70
     6
  9
$SPLINESEGS
 70
     8
  9
$ATTDIA
 70
     0
  9
$ATTREQ
 70
     1
  9
$HANDLING
 70
     1
  9
$HANDSEED
  5
61C
  9
$SURFTAB1
 70
     6
  9
$SURFTAB2
 70
     6
  9
$SURFTYPE
 70
     6
  9
$SURFU
 70
     6
  9
$SURFV
 70
     6
  9
$UCSNAME
  2

  9
$UCSORG
 10
0.0
 20
0.0
 30
0.0
  9
$UCSXDIR
 10
1.0
 20
0.0
 30
0.0
  9
$UCSYDIR
 10
0.0
 20
1.0
 30
0.0
  9
$PUCSNAME
  2

  9
$PUCSORG
 10
0.0
 20
0.0
 30
0.0
  9
$PUCSXDIR
 10
1.0
 20
0.0
 30
0.0
  9
$PUCSYDIR
 10
0.0
 20
1.0
 30
0.0
  9
$USERI1
 70
     0
  9
$USERI2
 70
     1
  9
$USERI3
 70
     1
  9
$USERI4
 70
     0
  9
$USERI5
 70
     0
  9
$USERR1
 40
0.0
  9
$USERR2
 40
0.0
  9
$USERR3
 40
0.0
  9
$USERR4
 40
0.0
  9
$USERR5
 40
0.0
  9
$WORLDVIEW
 70
     1
  9
$SHADEDGE
 70
     3
  9
$SHADEDIF
 70
    70
  9
$TILEMODE
 70
     1
  9
$MAXACTVP
 70
    16
  9
$PLIMCHECK
 70
     0
  9
$PEXTMIN
 10
1.0000000000000000E+020
 20
1.0000000000000000E+020
 30
1.0000000000000000E+020
  9
$PEXTMAX
 10
-1.0000000000000000E+020
 20
-1.0000000000000000E+020
 30
-1.0000000000000000E+020
  9
$PLIMMIN
 10
0.0
 20
0.0
  9
$PLIMMAX
 10
12.0
 20
9.0
  9
$UNITMODE
 70
     0
  9
$VISRETAIN
 70
     0
  9
$PLINEGEN
 70
     0
  9
$PSLTSCALE
 70
     0
  0
ENDSEC
  0
SECTION
  2
TABLES
  0
TABLE
  2
VPORT
 70
     1
  0
VPORT
  2
*ACTIVE
 70
     0
 10
0.0
 20
0.0
 11
1.0
 21
1.0
 12
390.29363784665583
 22
150.0
 13
0.0
 23
0.0
 14
10.0
 24
10.0
 15
10.0
 25
10.0
 16
0.0
 26
0.0
 36
1.0
 17
0.0
 27
0.0
 37
0.0
 40
300.0
 41
2.6019575856443709
 42
50.0
 43
0.0
 44
0.0
 50
0.0
 51
0.0
 71
     0
 72
   500
 73
     1
 74
     0
 75
     0
 76
     0
 77
     0
 78
     2
  0
ENDTAB
  0
TABLE
  2
LTYPE
 70
     4
  0
LTYPE
  2
CONTINUOUS
 70
     0
  3
Solid Line
 72
    65
 73
     0
 40
0.0
  0
LTYPE
  2
CENTER
 70
     0
  3
____ _ ____ _ ____ _ ____ _ ____ _ ____ _ ____
 72
    65
 73
     4
 40
2.0
 49
1.25
 49
-0.25
 49
0.25
 49
-0.25
  0
LTYPE
  2
HIDDEN
 70
     0
  3
_ _ _ _ _ _ _ _ _ _ _ _ _ _ _ _ _ _ _ _ _ _ _
 72
    65
 73
     2
 40
0.375
 49
0.25
 49
-0.125
  0
LTYPE
  2
PHANTOM2
 70
     0
  3
___ _ _ ___ _ _ ___ _ _ ___ _ _
 72
    65
 73
     6
 40
1.25
 49
0.625
 49
-0.125
 49
0.125
 49
-0.125
 49
0.125
 49
-0.125
  0
ENDTAB
  0
TABLE
  2
LAYER
 70
     5
  0
LAYER
  2
0
 70
     0
 62
     7
  6
CONTINUOUS
  0
LAYER
  2
1
 70
     0
 62
     1
  6
CENTER
  0
LAYER
  2
2
 70
     0
 62
     2
  6
HIDDEN
  0
LAYER
  2
3
 70
     0
 62
     3
  6
CONTINUOUS
  0
LAYER
  2
DEFPOINTS
 70
     0
 62
     7
  6
CONTINUOUS
  0
ENDTAB
  0
TABLE
  2
STYLE
 70
     2
  0
STYLE
  2
STANDARD
 70
     0
 40
0.0
 41
1.0
 50
0.0
 71
     0
 42
4.000000000000048
  3
TXT
  4
BIGFONT
  0
STYLE
  2
STANDARD1
 70
     0
 40
0.0
 41
1.0
 50
0.0
 71
     0
 42
3.0
  3
txt
  4

  0
ENDTAB
  0
TABLE
  2
VIEW
 70
     1
  0
VIEW
  2
ALL
 70
     0
 40
270.0
 10
220.99159663865549
 20
135.0
 41
0.0
 11
0.0
 21
0.0
 31
1.0
 12
0.0
 22
0.0
 32
0.0
 42
0.0
 43
0.0
 44
0.0
 50
0.0
 71
     0
  0
ENDTAB
  0
TABLE
  2
UCS
 70
     0
  0
ENDTAB
  0
TABLE
  2
APPID
 70
     6
  0
APPID
  2
ACAD
 70
     0
  0
APPID
  2
ACAD_MLEADERVER
 70
     0
  0
APPID
  2
ACAD_EXEMPT_FROM_CAD_STANDARDS
 70
     0
  0
APPID
  2
ACAD_NAV_VCDISPLAY
 70
     0
  0
APPID
  2
ACAD_DSTYLE_DIMJAG
 70
     0
  0
APPID
  2
ACAD_DSTYLE_DIMTALN
 70
     0
  0
ENDTAB
  0
TABLE
  2
DIMSTYLE
 70
     1
  0
DIMSTYLE
  2
STANDARD
 70
     0
  3

  4

  5

  6

  7

 40
1.0
 41
0.18
 42
0.0625
 43
0.38
 44
0.18
 45
0.0
 46
0.0
 47
0.0
 48
0.0
140
0.18
141
0.09
142
0.0
143
25.399999999999999
144
1.0
145
0.0
146
1.0
147
0.09
 71
     0
 72
     0
 73
     1
 74
     1
 75
     0
 76
     0
 77
     0
 78
     0
170
     0
171
     2
172
     0
173
     0
174
     0
175
     0
176
     0
177
     0
178
     0
  0
ENDTAB
  0
ENDSEC
  0
SECTION
  2
BLOCKS
  0
BLOCK
  8
0
  2
$MODEL_SPACE
 70
     0
 10
0.0
 20
0.0
 30
0.0
  3
$MODEL_SPACE
  1

  0
ENDBLK
  5
13C
  8
0
  0
BLOCK
 67
     1
  8
0
  2
$PAPER_SPACE
 70
     0
 10
0.0
 20
0.0
 30
0.0
  3
$PAPER_SPACE
  1

  0
ENDBLK
  5
13A
 67
     1
  8
0
  0
ENDSEC
  0
SECTION
  2
ENTITIES
  0
TEXT
  5
226
  8
0
 62
     3
 10
0.0
 20
0.0
 30
0.0
 40
10.0
  1
RGPA80
  7
STANDARD1
  0
LINE
  5
3B6
  8
0
 10
150.25
 20
152.49999999990541
 30
0.0
 11
150.25
 21
140.49999999990541
 31
0.0
  0
LINE
  5
3B7
  8
0
 10
150.25
 20
140.49999999990541
 30
0.0
 11
152.25
 21
140.49999999990541
 31
0.0
  0
LINE
  5
3B8
  8
0
 10
152.25
 20
152.49999999990541
 30
0.0
 11
150.25
 21
152.49999999990541
 31
0.0
  0
LINE
  5
3B9
  8
0
 10
152.25
 20
156.54183441289669
 30
0.0
 11
152.25
 21
136.45816558710331
 31
0.0
  0
ARC
  5
3BA
  8
0
 10
152.75
 20
136.45816558691411
 30
0.0
 40
0.4999999999999964
 50
180.0
 51
265.00000000000023
  0
ARC
  5
3BB
  8
0
 10
152.75
 20
156.54183441289669
 30
0.0
 40
0.4999999999999966
 50
94.999999999999758
 51
180.0
  0
ARC
  5
3BC
  8
0
 10
182.9285714285719
 20
146.49999999990541
 30
0.0
 40
47.321428571428072
 50
345.39951449023721
 51
14.600485509762811
  0
LINE
  5
3BE
  8
0
 10
152.70642212862609
 20
135.9600682378682
 30
0.0
 11
183.6826438325937
 21
133.24999999990541
 31
0.0
  0
LINE
  5
3BF
  8
0
 10
183.6826438325937
 20
159.74999999990541
 30
0.0
 11
152.70642212862609
 21
157.03993176194251
 31
0.0
  0
ARC
  5
3C1
  8
0
 10
227.01223493054351
 20
135.01666666657209
 30
0.0
 40
1.766666666666693
 50
270.0
 51
345.39952055604192
  0
ARC
  5
3C2
  8
0
 10
227.01223493054351
 20
157.9833333332387
 30
0.0
 40
1.766666666666699
 50
14.60047944395729
 51
90.0
  0
LINE
  5
3C3
  8
0
 10
227.01223493054351
 20
158.74999999990541
 30
0.0
 11
227.01223493054351
 21
134.24999999990541
 31
0.0
  0
LINE
  5
3C4
  8
0
 10
183.6826438325937
 20
159.74999999990541
 30
0.0
 11
183.6826438325937
 21
133.24999999990541
 31
0.0
  0
LINE
  5
3C5
  8
0
 10
183.6826438325937
 20
133.24999999990541
 30
0.0
 11
227.01223493054351
 21
133.24999999990541
 31
0.0
  0
LINE
  5
3C6
  8
0
 10
227.01223493054351
 20
159.74999999990541
 30
0.0
 11
183.6826438325937
 21
159.74999999990541
 31
0.0
  0
CIRCLE
  5
3E7
  8
0
 10
73.25
 20
73.25
 30
0.0
 40
6.0
  0
CIRCLE
  5
3E9
  8
0
 10
73.25
 20
73.25
 30
0.0
 40
10.53993176203716
  0
CIRCLE
  5
3EA
  8
0
 10
73.25
 20
73.25
 30
0.0
 40
13.25
  0
LINE
  5
415
  8
0
 10
150.25
 20
67.25
 30
0.0
 11
152.25
 21
67.25
 31
0.0
  0
LINE
  5
416
  8
0
 10
152.25
 20
79.25
 30
0.0
 11
150.25
 21
79.25
 31
0.0
  0
LINE
  5
417
  8
0
 10
150.25
 20
79.25
 30
0.0
 11
150.25
 21
67.25
 31
0.0
  0
LINE
  5
418
  8
0
 10
152.25
 20
83.291834412991264
 30
0.0
 11
152.25
 21
63.208165587008722
 31
0.0
  0
ARC
  5
419
  8
0
 10
152.75
 20
63.208165587008722
 30
0.0
 40
0.4999999999999964
 50
180.0
 51
265.00000000000023
  0
ARC
  5
41A
  8
0
 10
152.75
 20
83.291834412991264
 30
0.0
 40
0.4999999999999966
 50
94.999999999999758
 51
180.0
  0
ARC
  5
41B
  8
0
 10
182.9285714285719
 20
73.250000000000057
 30
0.0
 40
47.3214285714281
 50
345.39951449023721
 51
14.600485509762811
  0
LINE
  5
41C
  8
0
 10
152.70642212862609
 20
62.710068237962837
 30
0.0
 11
183.6826438325937
 21
60.0
 31
0.0
  0
LINE
  5
41D
  8
0
 10
183.6826438325937
 20
86.5
 30
0.0
 11
152.70642212862609
 21
83.789931762037156
 31
0.0
  0
ARC
  5
41F
  8
0
 10
227.01223493054351
 20
61.76666666666668
 30
0.0
 40
1.766666666666693
 50
270.0
 51
345.39952055604272
  0
ARC
  5
420
  8
0
 10
227.01223493054351
 20
84.73333333333332
 30
0.0
 40
1.766666666666699
 50
14.60047944395729
 51
90.0
  0
LINE
  5
422
  8
0
 10
183.6826438325937
 20
60.0
 30
0.0
 11
227.01223493054351
 21
60.0
 31
0.0
  0
LINE
  5
423
  8
0
 10
227.01223493054351
 20
86.5
 30
0.0
 11
183.6826438325937
 21
86.5
 31
0.0
  0
LINE
  5
424
  8
0
 10
227.01223493054351
 20
85.5
 30
0.0
 11
227.01223493054351
 21
61.0
 31
0.0
  0
LINE
  5
425
  8
0
 10
183.6826438325937
 20
86.5
 30
0.0
 11
183.6826438325937
 21
60.0
 31
0.0
  0
ARC
  5
4AC
  8
0
 10
147.75
 20
142.1999999999054
 30
0.0
 40
0.5
 50
90.0
 51
180.0
  0
ARC
  5
4AD
  8
0
 10
147.75000000000011
 20
150.7999999999054
 30
0.0
 40
0.5
 50
180.0
 51
270.0
  0
LINE
  5
4AE
  8
2
 10
139.25
 20
148.99999999786991
 30
0.0
 11
139.25
 21
144.0000000019389
 31
0.0
  0
LINE
  5
4AF
  8
0
 10
134.75
 20
141.4999999999055
 30
0.0
 11
134.75000000000011
 21
151.49999999990541
 31
0.0
  0
LINE
  5
4B0
  8
0
 10
133.25
 20
149.99999999990541
 30
0.0
 11
134.75000000000011
 21
151.49999999990541
 31
0.0
  0
LINE
  5
4B1
  8
0
 10
134.75
 20
141.4999999999055
 30
0.0
 11
133.25
 21
142.99999999990541
 31
0.0
  0
LINE
  5
4B2
  8
0
 10
147.25
 20
141.4999999999055
 30
0.0
 11
134.75
 21
141.4999999999055
 31
0.0
  0
LINE
  5
4B3
  8
3
 10
147.25
 20
142.3119999999054
 30
0.0
 11
133.9380000000001
 21
142.3119999999054
 31
0.0
  0
LINE
  5
4B4
  8
3
 10
147.25000000000011
 20
150.6879999999056
 30
0.0
 11
133.9380000000001
 21
150.68799999990549
 31
0.0
  0
LINE
  5
4B5
  8
0
 10
147.25
 20
151.4999999999055
 30
0.0
 11
134.75000000000011
 21
151.49999999990541
 31
0.0
  0
LINE
  5
4B6
  8
0
 10
133.25
 20
142.99999999990541
 30
0.0
 11
133.25
 21
149.99999999990541
 31
0.0
  0
ARC
  5
4B7
  8
0
 10
149.75
 20
142.1999999999054
 30
0.0
 40
0.5
 50
0.0
 51
90.0
  0
ARC
  5
4B8
  8
0
 10
149.75
 20
150.7999999999054
 30
0.0
 40
0.5
 50
270.0
 51
0.0
  0
LINE
  5
4B9
  8
0
 10
147.75
 20
142.6999999999054
 30
0.0
 11
149.75
 21
142.6999999999054
 31
0.0
  0
LINE
  5
4BA
  8
0
 10
147.75000000000011
 20
150.29999999990551
 30
0.0
 11
149.75
 21
150.29999999990551
 31
0.0
  0
LINE
  5
4BB
  8
0
 10
147.25
 20
141.4999999999055
 30
0.0
 11
147.25
 21
151.4999999999055
 31
0.0
  0
LINE
  5
4BC
  8
2
 10
133.25
 20
148.99999999786979
 30
0.0
 11
139.25
 21
148.99999999786991
 31
0.0
  0
LINE
  5
4BD
  8
2
 10
139.25
 20
148.99999999786991
 30
0.0
 11
140.91666666531
 21
146.4999999999053
 31
0.0
  0
LINE
  5
4BE
  8
2
 10
133.25
 20
144.0000000019389
 30
0.0
 11
139.25
 21
144.0000000019389
 31
0.0
  0
LINE
  5
4BF
  8
2
 10
139.25
 20
144.0000000019389
 30
0.0
 11
140.91666666531
 21
146.49999999990541
 31
0.0
  0
LINE
  5
4C0
  8
2
 10
133.25
 20
146.49999999990641
 30
0.0
 11
139.25
 21
146.49999999990641
 31
0.0
  0
LINE
  5
4C2
  8
0
 10
147.25
 20
68.250000000000014
 30
0.0
 11
147.25
 21
78.250000000000057
 31
0.0
  0
LINE
  5
4C3
  8
0
 10
147.75000000000011
 20
77.050000000000011
 30
0.0
 11
149.75
 21
77.050000000000011
 31
0.0
  0
LINE
  5
4C4
  8
0
 10
147.75
 20
69.449999999999989
 30
0.0
 11
149.75
 21
69.449999999999989
 31
0.0
  0
ARC
  5
4C5
  8
0
 10
149.75
 20
77.550000000000011
 30
0.0
 40
0.5
 50
270.0
 51
0.0
  0
ARC
  5
4C6
  8
0
 10
149.75
 20
68.949999999999989
 30
0.0
 40
0.5
 50
0.0
 51
90.0
  0
LINE
  5
4C7
  8
0
 10
133.25
 20
69.75
 30
0.0
 11
133.25
 21
76.75
 31
0.0
  0
LINE
  5
4C8
  8
0
 10
147.25
 20
78.250000000000057
 30
0.0
 11
134.75000000000011
 21
78.25
 31
0.0
  0
LINE
  5
4C9
  8
3
 10
147.25000000000011
 20
77.438000000000159
 30
0.0
 11
133.9380000000001
 21
77.438000000000073
 31
0.0
  0
LINE
  5
4CA
  8
3
 10
147.25
 20
69.061999999999955
 30
0.0
 11
133.9380000000001
 21
69.061999999999898
 31
0.0
  0
LINE
  5
4CB
  8
0
 10
147.25
 20
68.250000000000057
 30
0.0
 11
134.75
 21
68.25
 31
0.0
  0
LINE
  5
4CC
  8
0
 10
134.75
 20
68.25
 30
0.0
 11
133.25
 21
69.75
 31
0.0
  0
LINE
  5
4CD
  8
0
 10
133.25
 20
76.75
 30
0.0
 11
134.75000000000011
 21
78.25
 31
0.0
  0
LINE
  5
4CE
  8
0
 10
134.75
 20
68.25
 30
0.0
 11
134.75000000000011
 21
78.25
 31
0.0
  0
LINE
  5
4CF
  8
2
 10
139.25
 20
76.136751343598149
 30
0.0
 11
140.91666666531
 21
73.249999999999801
 31
0.0
  0
LINE
  5
4D0
  8
2
 10
139.25
 20
70.363248656401453
 30
0.0
 11
140.91666666531
 21
73.249999999999801
 31
0.0
  0
LINE
  5
4D1
  8
2
 10
139.25
 20
76.13675134359849
 30
0.0
 11
139.25
 21
70.363248656401453
 31
0.0
  0
LINE
  5
4D2
  8
2
 10
139.25
 20
76.13675134359849
 30
0.0
 11
133.25
 21
76.13675134359849
 31
0.0
  0
LINE
  5
4D3
  8
2
 10
139.25
 20
74.693375671798904
 30
0.0
 11
133.25
 21
74.693375671798904
 31
0.0
  0
LINE
  5
4D4
  8
2
 10
139.25
 20
71.806624328201025
 30
0.0
 11
133.25
 21
71.806624328201025
 31
0.0
  0
LINE
  5
4D5
  8
2
 10
139.25
 20
70.363248656401453
 30
0.0
 11
133.25
 21
70.363248656401453
 31
0.0
  0
ARC
  5
4D6
  8
0
 10
147.75000000000011
 20
77.550000000000011
 30
0.0
 40
0.5
 50
180.0
 51
270.0
  0
ARC
  5
4D7
  8
0
 10
147.75
 20
68.949999999999989
 30
0.0
 40
0.5
 50
90.0
 51
180.0
  0
LINE
  5
4DC
  8
1
 10
235.25
 20
146.5
 30
0.0
 11
128.25
 21
146.5
 31
0.0
  0
LINE
  5
4DD
  8
1
 10
235.25
 20
73.25
 30
0.0
 11
128.25
 21
73.25
 31
0.0
  0
LINE
  5
4E1
  8
0
 10
73.249999999999773
 20
76.136751343597439
 30
0.0
 11
75.749999999999773
 21
74.693375670623823
 31
0.0
  0
LINE
  5
4E2
  8
0
 10
70.750000002033403
 20
74.693375671799799
 30
0.0
 11
73.250000002033403
 21
76.13675134477387
 31
0.0
  0
LINE
  5
4E3
  8
0
 10
70.750000002033403
 20
71.806624328201792
 30
0.0
 11
70.750000002033403
 21
74.693375674149479
 31
0.0
  0
LINE
  5
4E4
  8
0
 10
73.249999999999773
 20
70.363248656402334
 30
0.0
 11
70.749999999999773
 21
71.806624329375936
 31
0.0
  0
LINE
  5
4E5
  8
0
 10
75.749999997962504
 20
71.806624328199973
 30
0.0
 11
73.249999997964323
 21
70.363248655225902
 31
0.0
  0
LINE
  5
4E6
  8
0
 10
75.749999997964323
 20
74.693375671799799
 30
0.0
 11
75.749999997964323
 21
71.806624325852113
 31
0.0
  0
CIRCLE
  5
4E7
  8
3
 10
73.25
 20
73.25
 30
0.0
 40
4.1879999999998736
  0
CIRCLE
  5
4E8
  8
0
 10
73.25
 20
73.25
 30
0.0
 40
5.0
  0
LINE
  5
546
  8
1
 10
73.25
 20
91.5
 30
0.0
 11
73.25
 21
55.0
 31
0.0
  0
LINE
  5
547
  8
1
 10
55.0
 20
73.25
 30
0.0
 11
91.5
 21
73.25
 31
0.0
  0
CIRCLE
  5
569
  8
0
 10
290.25
 20
73.25
 30
0.0
 40
13.25
  0
LINE
  5
58B
  8
1
 10
290.25
 20
91.5
 30
0.0
 11
290.25
 21
55.0
 31
0.0
  0
LINE
  5
58C
  8
1
 10
272.0
 20
73.25
 30
0.0
 11
308.5
 21
73.25
 31
0.0
  0
ENDSEC
  0
EOF
