  0
SECTION
  2
HEADER
  9
$ACADVER
  1
AC1009
  9
$INSBASE
 10
0.0
 20
0.0
 30
0.0
  9
$EXTMIN
 10
0.0
 20
-2.960436562073669
 30
0.0
  9
$EXTMAX
 10
323.5
 20
162.74999999990141
 30
0.0
  9
$LIMMIN
 10
0.0
 20
0.0
  9
$LIMMAX
 10
375.0
 20
270.0
  9
$ORTHOMODE
 70
     1
  9
$REGENMODE
 70
     1
  9
$FILLMODE
 70
     1
  9
$QTEXTMODE
 70
     0
  9
$MIRRTEXT
 70
     0
  9
$DRAGMODE
 70
     2
  9
$LTSCALE
 40
5.0
  9
$OSMODE
 70
    37
  9
$ATTMODE
 70
     1
  9
$TEXTSIZE
 40
4.000000000000048
  9
$TRACEWID
 40
0.05
  9
$TEXTSTYLE
  7
STANDARD
  9
$CLAYER
  8
0
  9
$CELTYPE
  6
BYLAYER
  9
$CECOLOR
 62
   256
  9
$DIMSCALE
 40
1.0
  9
$DIMASZ
 40
3.0
  9
$DIMEXO
 40
2.0
  9
$DIMDLI
 40
0.38
  9
$DIMRND
 40
0.0
  9
$DIMDLE
 40
0.0
  9
$DIMEXE
 40
2.0
  9
$DIMTP
 40
0.0
  9
$DIMTM
 40
0.0
  9
$DIMTXT
 40
3.2000000000000002
  9
$DIMCEN
 40
0.0
  9
$DIMTSZ
 40
0.0
  9
$DIMTOL
 70
     0
  9
$DIMLIM
 70
     0
  9
$DIMTIH
 70
     0
  9
$DIMTOH
 70
     0
  9
$DIMSE1
 70
     0
  9
$DIMSE2
 70
     0
  9
$DIMTAD
 70
     1
  9
$DIMZIN
 70
     8
  9
$DIMBLK
  1

  9
$DIMASO
 70
     1
  9
$DIMSHO
 70
     0
  9
$DIMPOST
  1

  9
$DIMAPOST
  1

  9
$DIMALT
 70
     0
  9
$DIMALTD
 70
     2
  9
$DIMALTF
 40
25.399999999999999
  9
$DIMLFAC
 40
1.0
  9
$DIMTOFL
 70
     1
  9
$DIMTVP
 40
1.6000000000000001
  9
$DIMTIX
 70
     1
  9
$DIMSOXD
 70
     0
  9
$DIMSAH
 70
     0
  9
$DIMBLK1
  1

  9
$DIMBLK2
  1

  9
$DIMSTYLE
  2
STANDARD
  9
$DIMCLRD
 70
     0
  9
$DIMCLRE
 70
     0
  9
$DIMCLRT
 70
     0
  9
$DIMTFAC
 40
1.0
  9
$DIMGAP
 40
0.09
  9
$LUNITS
 70
     2
  9
$LUPREC
 70
     1
  9
$SKETCHINC
 40
0.1
  9
$FILLETRAD
 40
0.5
  9
$AUNITS
 70
     0
  9
$AUPREC
 70
     0
  9
$MENU
  1
E:\r13\win\SUPPORT\ACAD
  9
$ELEVATION
 40
0.0
  9
$PELEVATION
 40
0.0
  9
$THICKNESS
 40
0.0
  9
$LIMCHECK
 70
     0
  9
$BLIPMODE
 70
     0
  9
$CHAMFERA
 40
0.0
  9
$CHAMFERB
 40
0.0
  9
$SKPOLY
 70
     0
  9
$TDCREATE
 40
2449839.7815277781
  9
$TDUPDATE
 40
2459492.4546974539
  9
$TDINDWG
 40
0.0411660532
  9
$TDUSRTIMER
 40
0.0411660532
  9
$USRTIMER
 70
     1
  9
$ANGBASE
 50
0.0
  9
$ANGDIR
 70
     0
  9
$PDMODE
 70
     0
  9
$PDSIZE
 40
0.0
  9
$PLINEWID
 40
0.0
  9
$COORDS
 70
     1
  9
$SPLFRAME
 70
     0
  9
$SPLINETYPE
 70
     6
  9
$SPLINESEGS
 70
     8
  9
$ATTDIA
 70
     0
  9
$ATTREQ
 70
     1
  9
$HANDLING
 70
     1
  9
$HANDSEED
  5
732
  9
$SURFTAB1
 70
     6
  9
$SURFTAB2
 70
     6
  9
$SURFTYPE
 70
     6
  9
$SURFU
 70
     6
  9
$SURFV
 70
     6
  9
$UCSNAME
  2

  9
$UCSORG
 10
0.0
 20
0.0
 30
0.0
  9
$UCSXDIR
 10
1.0
 20
0.0
 30
0.0
  9
$UCSYDIR
 10
0.0
 20
1.0
 30
0.0
  9
$PUCSNAME
  2

  9
$PUCSORG
 10
0.0
 20
0.0
 30
0.0
  9
$PUCSXDIR
 10
1.0
 20
0.0
 30
0.0
  9
$PUCSYDIR
 10
0.0
 20
1.0
 30
0.0
  9
$USERI1
 70
     0
  9
$USERI2
 70
     1
  9
$USERI3
 70
     1
  9
$USERI4
 70
     0
  9
$USERI5
 70
     0
  9
$USERR1
 40
0.0
  9
$USERR2
 40
0.0
  9
$USERR3
 40
0.0
  9
$USERR4
 40
0.0
  9
$USERR5
 40
0.0
  9
$WORLDVIEW
 70
     1
  9
$SHADEDGE
 70
     3
  9
$SHADEDIF
 70
    70
  9
$TILEMODE
 70
     1
  9
$MAXACTVP
 70
    16
  9
$PLIMCHECK
 70
     0
  9
$PEXTMIN
 10
1.0000000000000000E+020
 20
1.0000000000000000E+020
 30
1.0000000000000000E+020
  9
$PEXTMAX
 10
-1.0000000000000000E+020
 20
-1.0000000000000000E+020
 30
-1.0000000000000000E+020
  9
$PLIMMIN
 10
0.0
 20
0.0
  9
$PLIMMAX
 10
12.0
 20
9.0
  9
$UNITMODE
 70
     0
  9
$VISRETAIN
 70
     0
  9
$PLINEGEN
 70
     0
  9
$PSLTSCALE
 70
     0
  0
ENDSEC
  0
SECTION
  2
TABLES
  0
TABLE
  2
VPORT
 70
     1
  0
VPORT
  2
*ACTIVE
 70
     0
 10
0.0
 20
0.0
 11
1.0
 21
1.0
 12
390.29363784665583
 22
150.0
 13
0.0
 23
0.0
 14
10.0
 24
10.0
 15
10.0
 25
10.0
 16
0.0
 26
0.0
 36
1.0
 17
0.0
 27
0.0
 37
0.0
 40
300.0
 41
2.6019575856443709
 42
50.0
 43
0.0
 44
0.0
 50
0.0
 51
0.0
 71
     0
 72
   500
 73
     1
 74
     0
 75
     0
 76
     0
 77
     0
 78
     2
  0
ENDTAB
  0
TABLE
  2
LTYPE
 70
     4
  0
LTYPE
  2
CONTINUOUS
 70
     0
  3
Solid Line
 72
    65
 73
     0
 40
0.0
  0
LTYPE
  2
CENTER
 70
     0
  3
____ _ ____ _ ____ _ ____ _ ____ _ ____ _ ____
 72
    65
 73
     4
 40
2.0
 49
1.25
 49
-0.25
 49
0.25
 49
-0.25
  0
LTYPE
  2
HIDDEN
 70
     0
  3
_ _ _ _ _ _ _ _ _ _ _ _ _ _ _ _ _ _ _ _ _ _ _
 72
    65
 73
     2
 40
0.375
 49
0.25
 49
-0.125
  0
LTYPE
  2
PHANTOM2
 70
     0
  3
___ _ _ ___ _ _ ___ _ _ ___ _ _
 72
    65
 73
     6
 40
1.25
 49
0.625
 49
-0.125
 49
0.125
 49
-0.125
 49
0.125
 49
-0.125
  0
ENDTAB
  0
TABLE
  2
LAYER
 70
     5
  0
LAYER
  2
0
 70
     0
 62
     7
  6
CONTINUOUS
  0
LAYER
  2
1
 70
     0
 62
     1
  6
CENTER
  0
LAYER
  2
2
 70
     0
 62
     2
  6
HIDDEN
  0
LAYER
  2
3
 70
     0
 62
     3
  6
CONTINUOUS
  0
LAYER
  2
DEFPOINTS
 70
     0
 62
     7
  6
CONTINUOUS
  0
ENDTAB
  0
TABLE
  2
STYLE
 70
     2
  0
STYLE
  2
STANDARD
 70
     0
 40
0.0
 41
1.0
 50
0.0
 71
     0
 42
4.000000000000048
  3
TXT
  4
BIGFONT
  0
STYLE
  2
STANDARD1
 70
     0
 40
0.0
 41
1.0
 50
0.0
 71
     0
 42
3.0
  3
txt
  4

  0
ENDTAB
  0
TABLE
  2
VIEW
 70
     1
  0
VIEW
  2
ALL
 70
     0
 40
270.0
 10
220.99159663865549
 20
135.0
 41
0.0
 11
0.0
 21
0.0
 31
1.0
 12
0.0
 22
0.0
 32
0.0
 42
0.0
 43
0.0
 44
0.0
 50
0.0
 71
     0
  0
ENDTAB
  0
TABLE
  2
UCS
 70
     0
  0
ENDTAB
  0
TABLE
  2
APPID
 70
     6
  0
APPID
  2
ACAD
 70
     0
  0
APPID
  2
ACAD_MLEADERVER
 70
     0
  0
APPID
  2
ACAD_EXEMPT_FROM_CAD_STANDARDS
 70
     0
  0
APPID
  2
ACAD_NAV_VCDISPLAY
 70
     0
  0
APPID
  2
ACAD_DSTYLE_DIMJAG
 70
     0
  0
APPID
  2
ACAD_DSTYLE_DIMTALN
 70
     0
  0
ENDTAB
  0
TABLE
  2
DIMSTYLE
 70
     1
  0
DIMSTYLE
  2
STANDARD
 70
     0
  3

  4

  5

  6

  7

 40
1.0
 41
0.18
 42
0.0625
 43
0.38
 44
0.18
 45
0.0
 46
0.0
 47
0.0
 48
0.0
140
0.18
141
0.09
142
0.0
143
25.399999999999999
144
1.0
145
0.0
146
1.0
147
0.09
 71
     0
 72
     0
 73
     1
 74
     1
 75
     0
 76
     0
 77
     0
 78
     0
170
     0
171
     2
172
     0
173
     0
174
     0
175
     0
176
     0
177
     0
178
     0
  0
ENDTAB
  0
ENDSEC
  0
SECTION
  2
BLOCKS
  0
BLOCK
  8
0
  2
$MODEL_SPACE
 70
     0
 10
0.0
 20
0.0
 30
0.0
  3
$MODEL_SPACE
  1

  0
ENDBLK
  5
139
  8
0
  0
BLOCK
 67
     1
  8
0
  2
$PAPER_SPACE
 70
     0
 10
0.0
 20
0.0
 30
0.0
  3
$PAPER_SPACE
  1

  0
ENDBLK
  5
137
 67
     1
  8
0
  0
ENDSEC
  0
SECTION
  2
ENTITIES
  0
TEXT
  5
223
  8
0
 62
     3
 10
0.0
 20
0.0
 30
0.0
 40
10.0
  1
RGPA90-SUS
  7
STANDARD1
  0
LINE
  5
679
  8
0
 10
154.25
 20
68.249999999999972
 30
0.0
 11
156.25
 21
68.249999999999972
 31
0.0
  0
LINE
  5
67A
  8
0
 10
156.25
 20
80.249999999999957
 30
0.0
 11
154.25
 21
80.249999999999957
 31
0.0
  0
LINE
  5
67B
  8
0
 10
154.25
 20
80.249999999999957
 30
0.0
 11
154.25
 21
68.249999999999972
 31
0.0
  0
LINE
  5
67C
  8
0
 10
156.25
 20
85.041834412991236
 30
0.0
 11
156.25
 21
63.458165587008693
 31
0.0
  0
ARC
  5
67D
  8
0
 10
156.75
 20
63.458165587008693
 30
0.0
 40
0.4999999999999893
 50
180.0
 51
265.00000000000023
  0
ARC
  5
67E
  8
0
 10
156.75
 20
85.041834412991236
 30
0.0
 40
0.4999999999999902
 50
94.999999999999758
 51
180.0
  0
ARC
  5
67F
  8
0
 10
193.3571428571436
 20
74.250000000000057
 30
0.0
 40
50.892857142856379
 50
345.39951404817111
 51
14.60048595182883
  0
LINE
  5
680
  8
0
 10
156.70642212862609
 20
62.960068237962822
 30
0.0
 11
190.54015690828399
 21
59.999999999999972
 31
0.0
  0
LINE
  5
681
  8
0
 10
190.54015690828399
 20
88.499999999999972
 30
0.0
 11
156.70642212862609
 21
85.539931762037128
 31
0.0
  0
ARC
  5
682
  8
0
 10
240.76787530265989
 20
61.899999999999949
 30
0.0
 40
1.899999999999985
 50
270.0
 51
345.39950871498371
  0
ARC
  5
683
  8
0
 10
240.76787530265989
 20
86.599999999999994
 30
0.0
 40
1.899999999999993
 50
14.60049128501589
 51
90.0
  0
LINE
  5
684
  8
0
 10
190.54015690828399
 20
59.999999999999972
 30
0.0
 11
240.76787530265989
 21
59.999999999999972
 31
0.0
  0
LINE
  5
685
  8
0
 10
240.76787530265989
 20
88.499999999999972
 30
0.0
 11
190.54015690828399
 21
88.499999999999972
 31
0.0
  0
LINE
  5
686
  8
0
 10
240.76787530265989
 20
87.5
 30
0.0
 11
240.76787530266009
 21
60.999999999999972
 31
0.0
  0
LINE
  5
687
  8
0
 10
190.54015690828399
 20
88.499999999999972
 30
0.0
 11
190.54015690828399
 21
59.999999999999972
 31
0.0
  0
CIRCLE
  5
688
  8
0
 10
74.25
 20
74.25
 30
0.0
 40
6.0
  0
CIRCLE
  5
689
  8
0
 10
74.25
 20
74.25
 30
0.0
 40
11.28993176203716
  0
CIRCLE
  5
68A
  8
0
 10
74.25
 20
74.25
 30
0.0
 40
14.25
  0
LINE
  5
68B
  8
0
 10
154.25
 20
154.49999999990141
 30
0.0
 11
154.25
 21
142.49999999990141
 31
0.0
  0
LINE
  5
68C
  8
0
 10
154.25
 20
142.49999999990141
 30
0.0
 11
156.25
 21
142.49999999990141
 31
0.0
  0
LINE
  5
68D
  8
0
 10
156.25
 20
154.49999999990141
 30
0.0
 11
154.25
 21
154.49999999990141
 31
0.0
  0
LINE
  5
68E
  8
0
 10
156.25
 20
159.29183441289271
 30
0.0
 11
156.25
 21
137.7081655871072
 31
0.0
  0
ARC
  5
68F
  8
0
 10
156.75
 20
137.7081655869101
 30
0.0
 40
0.4999999999999893
 50
180.0
 51
265.00000000000023
  0
ARC
  5
690
  8
0
 10
156.75
 20
159.29183441289271
 30
0.0
 40
0.4999999999999902
 50
94.999999999999758
 51
180.0
  0
ARC
  5
691
  8
0
 10
193.35714285714371
 20
148.49999999990141
 30
0.0
 40
50.892857142856357
 50
345.39951404817111
 51
14.60048595182883
  0
LINE
  5
692
  8
0
 10
156.70642212862609
 20
137.21006823786419
 30
0.0
 11
190.54015690828399
 21
134.24999999990141
 31
0.0
  0
LINE
  5
693
  8
0
 10
190.54015690828399
 20
162.74999999990141
 30
0.0
 11
156.70642212862609
 21
159.7899317619385
 31
0.0
  0
ARC
  5
694
  8
0
 10
240.76787530265989
 20
136.14999999990141
 30
0.0
 40
1.899999999999985
 50
270.0
 51
345.39950871498371
  0
ARC
  5
695
  8
0
 10
240.76787530265989
 20
160.8499999999014
 30
0.0
 40
1.899999999999993
 50
14.60049128501589
 51
90.0
  0
LINE
  5
696
  8
0
 10
240.76787530266009
 20
161.74999999990141
 30
0.0
 11
240.76787530266009
 21
135.24999999990129
 31
0.0
  0
LINE
  5
697
  8
0
 10
190.54015690828399
 20
162.74999999990141
 30
0.0
 11
190.54015690828399
 21
134.24999999990141
 31
0.0
  0
LINE
  5
698
  8
0
 10
190.54015690828399
 20
134.24999999990141
 30
0.0
 11
240.76787530265989
 21
134.24999999990141
 31
0.0
  0
LINE
  5
699
  8
0
 10
240.76787530265989
 20
162.74999999990141
 30
0.0
 11
190.54015690828399
 21
162.74999999990141
 31
0.0
  0
LINE
  5
69A
  8
0
 10
150.25
 20
69.250000000000028
 30
0.0
 11
150.24999999999949
 21
79.250000000000028
 31
0.0
  0
LINE
  5
69B
  8
0
 10
150.75
 20
78.050000000000011
 30
0.0
 11
153.75
 21
78.050000000000011
 31
0.0
  0
LINE
  5
69C
  8
0
 10
150.74999999999989
 20
70.450000000000017
 30
0.0
 11
153.75
 21
70.449999999999989
 31
0.0
  0
ARC
  5
69D
  8
0
 10
153.75
 20
78.550000000000011
 30
0.0
 40
0.5
 50
270.0
 51
0.0
  0
ARC
  5
69E
  8
0
 10
153.75
 20
69.949999999999989
 30
0.0
 40
0.5
 50
0.0
 51
90.0
  0
LINE
  5
69F
  8
0
 10
134.25
 20
70.75
 30
0.0
 11
134.25
 21
77.75
 31
0.0
  0
LINE
  5
6A0
  8
0
 10
150.25
 20
79.250000000000057
 30
0.0
 11
135.75
 21
79.25
 31
0.0
  0
LINE
  5
6A1
  8
3
 10
150.25
 20
78.438000000000144
 30
0.0
 11
134.9380000000001
 21
78.438000000000073
 31
0.0
  0
LINE
  5
6A2
  8
3
 10
150.24999999999989
 20
70.061999999999955
 30
0.0
 11
134.93799999999999
 21
70.061999999999884
 31
0.0
  0
LINE
  5
6A3
  8
0
 10
150.25
 20
69.250000000000057
 30
0.0
 11
135.74999999999989
 21
69.25
 31
0.0
  0
LINE
  5
6A4
  8
0
 10
135.74999999999989
 20
69.25
 30
0.0
 11
134.25
 21
70.75
 31
0.0
  0
LINE
  5
6A5
  8
0
 10
134.25
 20
77.75
 30
0.0
 11
135.75
 21
79.25
 31
0.0
  0
LINE
  5
6A6
  8
0
 10
135.74999999999989
 20
69.25
 30
0.0
 11
135.75
 21
79.25
 31
0.0
  0
LINE
  5
6A7
  8
2
 10
139.25
 20
77.136751343598149
 30
0.0
 11
140.91666666531
 21
74.249999999999801
 31
0.0
  0
LINE
  5
6A8
  8
2
 10
139.25
 20
71.363248656401453
 30
0.0
 11
140.91666666531
 21
74.249999999999801
 31
0.0
  0
LINE
  5
6A9
  8
2
 10
139.24999999999989
 20
77.13675134359849
 30
0.0
 11
139.25
 21
71.363248656401453
 31
0.0
  0
LINE
  5
6AA
  8
2
 10
139.24999999999989
 20
77.13675134359849
 30
0.0
 11
134.24999999999989
 21
77.13675134359849
 31
0.0
  0
LINE
  5
6AB
  8
2
 10
139.24999999999989
 20
75.693375671798918
 30
0.0
 11
134.24999999999989
 21
75.693375671798918
 31
0.0
  0
LINE
  5
6AC
  8
2
 10
139.24999999999989
 20
72.806624328201025
 30
0.0
 11
134.24999999999989
 21
72.806624328201025
 31
0.0
  0
LINE
  5
6AD
  8
2
 10
139.24999999999989
 20
71.363248656401453
 30
0.0
 11
134.24999999999989
 21
71.363248656401453
 31
0.0
  0
ARC
  5
6AE
  8
0
 10
150.75
 20
78.550000000000011
 30
0.0
 40
0.5
 50
180.0
 51
270.0
  0
ARC
  5
6AF
  8
0
 10
150.74999999999989
 20
69.950000000000017
 30
0.0
 40
0.5
 50
90.0
 51
180.0000000000008
  0
ARC
  5
6B0
  8
0
 10
150.74999999999989
 20
144.19999999990051
 30
0.0
 40
0.5
 50
90.0
 51
180.0000000000008
  0
ARC
  5
6B1
  8
0
 10
150.75
 20
152.79999999990039
 30
0.0
 40
0.5
 50
180.0
 51
270.0
  0
LINE
  5
6B2
  8
2
 10
139.24999999999989
 20
150.9999999978649
 30
0.0
 11
139.25
 21
146.0000000019339
 31
0.0
  0
LINE
  5
6B3
  8
0
 10
135.74999999999989
 20
143.49999999990041
 30
0.0
 11
135.75
 21
153.49999999990041
 31
0.0
  0
LINE
  5
6B4
  8
0
 10
134.25
 20
151.99999999990041
 30
0.0
 11
135.75
 21
153.49999999990041
 31
0.0
  0
LINE
  5
6B5
  8
0
 10
135.74999999999989
 20
143.49999999990041
 30
0.0
 11
134.25
 21
144.99999999990041
 31
0.0
  0
LINE
  5
6B6
  8
0
 10
150.25
 20
143.4999999999005
 30
0.0
 11
135.74999999999989
 21
143.49999999990041
 31
0.0
  0
LINE
  5
6B7
  8
3
 10
150.24999999999989
 20
144.31199999990039
 30
0.0
 11
134.93799999999999
 21
144.31199999990031
 31
0.0
  0
LINE
  5
6B8
  8
3
 10
150.25
 20
152.6879999999006
 30
0.0
 11
134.9380000000001
 21
152.68799999990051
 31
0.0
  0
LINE
  5
6B9
  8
0
 10
150.25
 20
153.4999999999005
 30
0.0
 11
135.75
 21
153.49999999990041
 31
0.0
  0
LINE
  5
6BA
  8
0
 10
134.25
 20
144.99999999990041
 30
0.0
 11
134.25
 21
151.99999999990041
 31
0.0
  0
ARC
  5
6BB
  8
0
 10
153.75
 20
144.1999999999004
 30
0.0
 40
0.5
 50
0.0
 51
90.0
  0
ARC
  5
6BC
  8
0
 10
153.75
 20
152.79999999990039
 30
0.0
 40
0.5
 50
270.0
 51
0.0
  0
LINE
  5
6BD
  8
0
 10
150.74999999999989
 20
144.69999999990051
 30
0.0
 11
153.75
 21
144.6999999999004
 31
0.0
  0
LINE
  5
6BE
  8
0
 10
150.75
 20
152.29999999990051
 30
0.0
 11
153.75
 21
152.29999999990051
 31
0.0
  0
LINE
  5
6BF
  8
0
 10
150.25
 20
143.4999999999005
 30
0.0
 11
150.24999999999949
 21
153.4999999999005
 31
0.0
  0
LINE
  5
6C0
  8
2
 10
134.25
 20
150.9999999978649
 30
0.0
 11
139.24999999999989
 21
150.9999999978649
 31
0.0
  0
LINE
  5
6C1
  8
2
 10
139.24999999999989
 20
150.9999999978649
 30
0.0
 11
140.91666666531
 21
148.4999999999003
 31
0.0
  0
LINE
  5
6C2
  8
2
 10
134.25
 20
146.0000000019339
 30
0.0
 11
139.25
 21
146.00000000193401
 31
0.0
  0
LINE
  5
6C3
  8
2
 10
139.25
 20
146.00000000193401
 30
0.0
 11
140.91666666530969
 21
148.49999999990061
 31
0.0
  0
LINE
  5
6C4
  8
2
 10
134.25
 20
148.49999999990141
 30
0.0
 11
139.24999999999989
 21
148.49999999990149
 31
0.0
  0
LINE
  5
6C5
  8
0
 10
74.249999999999773
 20
77.136751343597439
 30
0.0
 11
76.749999999999773
 21
75.693375670623823
 31
0.0
  0
LINE
  5
6C6
  8
0
 10
71.750000002033403
 20
75.693375671799799
 30
0.0
 11
74.250000002033403
 21
77.13675134477387
 31
0.0
  0
LINE
  5
6C7
  8
0
 10
71.750000002033403
 20
72.806624328201792
 30
0.0
 11
71.750000002033403
 21
75.693375674149465
 31
0.0
  0
LINE
  5
6C8
  8
0
 10
74.249999999999773
 20
71.363248656402334
 30
0.0
 11
71.749999999999773
 21
72.80662432937595
 31
0.0
  0
LINE
  5
6C9
  8
0
 10
76.749999997962504
 20
72.806624328199973
 30
0.0
 11
74.249999997964323
 21
71.363248655225902
 31
0.0
  0
LINE
  5
6CA
  8
0
 10
76.749999997964323
 20
75.693375671799799
 30
0.0
 11
76.749999997964323
 21
72.806624325852113
 31
0.0
  0
CIRCLE
  5
6CB
  8
3
 10
74.25
 20
74.25
 30
0.0
 40
4.1879999999998736
  0
CIRCLE
  5
6CC
  8
0
 10
74.25
 20
74.25
 30
0.0
 40
5.0
  0
LINE
  5
6CD
  8
1
 10
93.499999999999986
 20
74.25
 30
0.0
 11
55.0
 21
74.25
 31
0.0
  0
LINE
  5
6CE
  8
1
 10
74.25
 20
93.499999999999986
 30
0.0
 11
74.25
 21
55.0
 31
0.0
  0
LINE
  5
6CF
  8
1
 10
249.25
 20
148.49999999999989
 30
0.0
 11
129.25
 21
148.49999999999989
 31
0.0
  0
LINE
  5
6D0
  8
1
 10
249.25
 20
74.250000000000028
 30
0.0
 11
129.25
 21
74.250000000000028
 31
0.0
  0
CIRCLE
  5
6D1
  8
0
 10
304.25
 20
74.25
 30
0.0
 40
14.25
  0
LINE
  5
6D2
  8
1
 10
323.5
 20
74.25
 30
0.0
 11
285.0
 21
74.25
 31
0.0
  0
LINE
  5
6D3
  8
1
 10
304.25
 20
93.499999999999986
 30
0.0
 11
304.25
 21
55.0
 31
0.0
  0
ENDSEC
  0
EOF
