  0
SECTION
  2
HEADER
  9
$ACADVER
  1
AC1009
  9
$INSBASE
 10
0.0
 20
0.0
 30
0.0
  9
$EXTMIN
 10
0.0
 20
-1.4802182810368341
 30
0.0
  9
$EXTMAX
 10
117.1269816235493
 20
183.55396324709849
 30
0.0
  9
$LIMMIN
 10
0.0
 20
0.0
  9
$LIMMAX
 10
192.5
 20
135.0
  9
$ORTHOMODE
 70
     1
  9
$REGENMODE
 70
     1
  9
$FILLMODE
 70
     1
  9
$QTEXTMODE
 70
     0
  9
$MIRRTEXT
 70
     0
  9
$DRAGMODE
 70
     2
  9
$LTSCALE
 40
5.0
  9
$OSMODE
 70
    37
  9
$ATTMODE
 70
     1
  9
$TEXTSIZE
 40
1.6000000000000489
  9
$TRACEWID
 40
0.05
  9
$TEXTSTYLE
  7
STANDARD
  9
$CLAYER
  8
0
  9
$CELTYPE
  6
BYLAYER
  9
$CECOLOR
 62
   256
  9
$DIMSCALE
 40
1.0
  9
$DIMASZ
 40
3.0
  9
$DIMEXO
 40
2.0
  9
$DIMDLI
 40
0.38
  9
$DIMRND
 40
0.0
  9
$DIMDLE
 40
0.0
  9
$DIMEXE
 40
2.0
  9
$DIMTP
 40
0.0
  9
$DIMTM
 40
0.0
  9
$DIMTXT
 40
3.0
  9
$DIMCEN
 40
0.0
  9
$DIMTSZ
 40
0.0
  9
$DIMTOL
 70
     0
  9
$DIMLIM
 70
     0
  9
$DIMTIH
 70
     0
  9
$DIMTOH
 70
     0
  9
$DIMSE1
 70
     0
  9
$DIMSE2
 70
     0
  9
$DIMTAD
 70
     1
  9
$DIMZIN
 70
     9
  9
$DIMBLK
  1

  9
$DIMASO
 70
     0
  9
$DIMSHO
 70
     0
  9
$DIMPOST
  1

  9
$DIMAPOST
  1

  9
$DIMALT
 70
     0
  9
$DIMALTD
 70
     2
  9
$DIMALTF
 40
25.399999999999999
  9
$DIMLFAC
 40
1.0
  9
$DIMTOFL
 70
     1
  9
$DIMTVP
 40
1.6000000000000001
  9
$DIMTIX
 70
     1
  9
$DIMSOXD
 70
     0
  9
$DIMSAH
 70
     0
  9
$DIMBLK1
  1

  9
$DIMBLK2
  1

  9
$DIMSTYLE
  2
STANDARD
  9
$DIMCLRD
 70
     0
  9
$DIMCLRE
 70
     0
  9
$DIMCLRT
 70
     0
  9
$DIMTFAC
 40
1.0
  9
$DIMGAP
 40
0.09
  9
$LUNITS
 70
     2
  9
$LUPREC
 70
     1
  9
$SKETCHINC
 40
0.1
  9
$FILLETRAD
 40
0.3
  9
$AUNITS
 70
     0
  9
$AUPREC
 70
     1
  9
$MENU
  1
E:\r13\win\SUPPORT\ACAD
  9
$ELEVATION
 40
0.0
  9
$PELEVATION
 40
0.0
  9
$THICKNESS
 40
0.0
  9
$LIMCHECK
 70
     0
  9
$BLIPMODE
 70
     0
  9
$CHAMFERA
 40
0.0
  9
$CHAMFERB
 40
0.0
  9
$SKPOLY
 70
     0
  9
$TDCREATE
 40
2448328.489641204
  9
$TDUPDATE
 40
2457892.6359179281
  9
$TDINDWG
 40
1.0897474884
  9
$TDUSRTIMER
 40
2456598.8940139469
  9
$USRTIMER
 70
     1
  9
$ANGBASE
 50
0.0
  9
$ANGDIR
 70
     0
  9
$PDMODE
 70
    35
  9
$PDSIZE
 40
0.0
  9
$PLINEWID
 40
0.0
  9
$COORDS
 70
     1
  9
$SPLFRAME
 70
     0
  9
$SPLINETYPE
 70
     6
  9
$SPLINESEGS
 70
     8
  9
$ATTDIA
 70
     0
  9
$ATTREQ
 70
     1
  9
$HANDLING
 70
     1
  9
$HANDSEED
  5
4C70
  9
$SURFTAB1
 70
     6
  9
$SURFTAB2
 70
     6
  9
$SURFTYPE
 70
     6
  9
$SURFU
 70
     6
  9
$SURFV
 70
     6
  9
$UCSNAME
  2

  9
$UCSORG
 10
0.0
 20
0.0
 30
0.0
  9
$UCSXDIR
 10
1.0
 20
0.0
 30
0.0
  9
$UCSYDIR
 10
0.0
 20
1.0
 30
0.0
  9
$PUCSNAME
  2

  9
$PUCSORG
 10
0.0
 20
0.0
 30
0.0
  9
$PUCSXDIR
 10
1.0
 20
0.0
 30
0.0
  9
$PUCSYDIR
 10
0.0
 20
1.0
 30
0.0
  9
$USERI1
 70
     3
  9
$USERI2
 70
     1
  9
$USERI3
 70
     1
  9
$USERI4
 70
     0
  9
$USERI5
 70
     0
  9
$USERR1
 40
0.5
  9
$USERR2
 40
3.0
  9
$USERR3
 40
3.0
  9
$USERR4
 40
3.0
  9
$USERR5
 40
10.0
  9
$WORLDVIEW
 70
     1
  9
$SHADEDGE
 70
     3
  9
$SHADEDIF
 70
    70
  9
$TILEMODE
 70
     1
  9
$MAXACTVP
 70
    16
  9
$PLIMCHECK
 70
     0
  9
$PEXTMIN
 10
1.0000000000000000E+020
 20
1.0000000000000000E+020
 30
1.0000000000000000E+020
  9
$PEXTMAX
 10
-1.0000000000000000E+020
 20
-1.0000000000000000E+020
 30
-1.0000000000000000E+020
  9
$PLIMMIN
 10
0.0
 20
0.0
  9
$PLIMMAX
 10
12.0
 20
9.0
  9
$UNITMODE
 70
     0
  9
$VISRETAIN
 70
     0
  9
$PLINEGEN
 70
     1
  9
$PSLTSCALE
 70
     0
  0
ENDSEC
  0
SECTION
  2
TABLES
  0
TABLE
  2
VPORT
 70
     1
  0
VPORT
  2
*ACTIVE
 70
     0
 10
0.0
 20
0.0
 11
1.0
 21
1.0
 12
181.68999183634571
 22
100.0
 13
0.0
 23
0.0
 14
2.5
 24
2.5
 15
5.0
 25
5.0
 16
0.0
 26
0.0
 36
1.0
 17
0.0
 27
0.0
 37
0.0
 40
200.59988835175329
 41
1.816239316239316
 42
50.0
 43
0.0
 44
0.0
 50
0.0
 51
0.0
 71
     0
 72
   500
 73
     1
 74
     0
 75
     0
 76
     0
 77
     0
 78
     2
  0
ENDTAB
  0
TABLE
  2
LTYPE
 70
     4
  0
LTYPE
  2
CONTINUOUS
 70
     0
  3
Solid Line
 72
    65
 73
     0
 40
0.0
  0
LTYPE
  2
CENTER
 70
     0
  3
____ _ ____ _ ____ _ ____ _ ____ _ ____ _ ____
 72
    65
 73
     4
 40
2.0
 49
1.25
 49
-0.25
 49
0.25
 49
-0.25
  0
LTYPE
  2
HIDDEN
 70
     0
  3
_ _ _ _ _ _ _ _ _ _ _ _ _ _ _ _ _ _ _ _ _ _ _
 72
    65
 73
     2
 40
0.375
 49
0.25
 49
-0.125
  0
LTYPE
  2
PHANTOM2
 70
     0
  3
___ _ _ ___ _ _ ___ _ _ ___ _ _
 72
    65
 73
     6
 40
1.25
 49
0.625
 49
-0.125
 49
0.125
 49
-0.125
 49
0.125
 49
-0.125
  0
ENDTAB
  0
TABLE
  2
LAYER
 70
     5
  0
LAYER
  2
0
 70
     0
 62
     7
  6
CONTINUOUS
  0
LAYER
  2
1
 70
     0
 62
     1
  6
CENTER
  0
LAYER
  2
2
 70
     0
 62
     2
  6
HIDDEN
  0
LAYER
  2
DEFPOINTS
 70
     0
 62
     7
  6
CONTINUOUS
  0
LAYER
  2
3
 70
     0
 62
     3
  6
CONTINUOUS
  0
ENDTAB
  0
TABLE
  2
STYLE
 70
     2
  0
STYLE
  2
STANDARD
 70
     0
 40
0.0
 41
1.0
 50
0.0
 71
     0
 42
1.6000000000000489
  3
SIMPLEX
  4
BIGFONT
  0
STYLE
  2
STANDARD1
 70
     0
 40
0.0
 41
1.0
 50
0.0
 71
     0
 42
3.0
  3
txt
  4

  0
ENDTAB
  0
TABLE
  2
VIEW
 70
     1
  0
VIEW
  2
ALL
 70
     0
 40
87.5
 10
71.617647058823522
 20
43.75
 41
0.0
 11
0.0
 21
0.0
 31
1.0
 12
0.0
 22
0.0
 32
0.0
 42
50.0
 43
0.0
 44
0.0
 50
0.0
 71
     0
  0
ENDTAB
  0
TABLE
  2
UCS
 70
     0
  0
ENDTAB
  0
TABLE
  2
APPID
 70
     7
  0
APPID
  2
ACAD
 70
     0
  0
APPID
  2
ACAD_EXEMPT_FROM_CAD_STANDARDS
 70
     0
  0
APPID
  2
ACAD_DSTYLE_DIMJAG
 70
     0
  0
APPID
  2
ACAD_DSTYLE_DIMTALN
 70
     0
  0
APPID
  2
ACAD_MLEADERVER
 70
     0
  0
APPID
  2
ACAD_NAV_VCDISPLAY
 70
     0
  0
APPID
  2
ACAD_DSTYLE_DIMRADIAL_EXTENSION
 70
     0
  0
ENDTAB
  0
TABLE
  2
DIMSTYLE
 70
     1
  0
DIMSTYLE
  2
STANDARD
 70
     0
  3

  4

  5

  6

  7

 40
1.0
 41
0.18
 42
0.0625
 43
0.38
 44
0.18
 45
0.0
 46
0.0
 47
0.0
 48
0.0
140
0.18
141
0.09
142
0.0
143
25.399999999999999
144
1.0
145
0.0
146
1.0
147
0.09
 71
     0
 72
     0
 73
     1
 74
     1
 75
     0
 76
     0
 77
     0
 78
     0
170
     0
171
     2
172
     0
173
     0
174
     0
175
     0
176
     0
177
     0
178
     0
  0
ENDTAB
  0
ENDSEC
  0
SECTION
  2
BLOCKS
  0
BLOCK
  8
0
  2
$MODEL_SPACE
 70
     0
 10
0.0
 20
0.0
 30
0.0
  3
$MODEL_SPACE
  1

  0
ENDBLK
  5
BAB
  8
0
  0
BLOCK
 67
     1
  8
0
  2
$PAPER_SPACE
 70
     0
 10
0.0
 20
0.0
 30
0.0
  3
$PAPER_SPACE
  1

  0
ENDBLK
  5
BA9
 67
     1
  8
0
  0
ENDSEC
  0
SECTION
  2
ENTITIES
  0
LINE
  5
1DF4
  8
1
 10
91.913490811774793
 20
153.34047243532379
 30
0.0
 11
99.913490811774807
 21
153.34047243532379
 31
0.0
  0
LINE
  5
1DF5
  8
1
 10
91.913490811774793
 20
171.34047243532379
 30
0.0
 11
99.913490811774807
 21
171.34047243532379
 31
0.0
  0
LINE
  5
1DF6
  8
1
 10
74.700000000000202
 20
162.34047243532379
 30
0.0
 11
117.1269816235493
 21
162.34047243532379
 31
0.0
  0
LINE
  5
1DF7
  8
1
 10
95.913490811774793
 20
141.1269816235492
 30
0.0
 11
95.913490811774793
 21
183.55396324709849
 31
0.0
  0
LINE
  5
1DF8
  8
1
 10
104.91349081177481
 20
156.9204724353238
 30
0.0
 11
104.91349081177481
 21
167.76047243532381
 31
0.0
  0
LINE
  5
1DF9
  8
1
 10
86.913490811774793
 20
156.92047243532389
 30
0.0
 11
86.913490811774793
 21
167.76047243532381
 31
0.0
  0
CIRCLE
  5
1DFA
  8
0
 10
86.913490811774793
 20
162.34047243532379
 30
0.0
 40
1.621
  0
CIRCLE
  5
1DFB
  8
0
 10
104.91349081177481
 20
162.34047243532379
 30
0.0
 40
1.6209999999999991
  0
ARC
  5
1DFC
  8
0
 10
86.913490811774452
 20
162.3404724353237
 30
0.0
 40
3.9200000000003059
 50
26.76550057675512
 51
33.234499423244863
  0
LINE
  5
1DFD
  8
0
 10
87.134667735025957
 20
166.25422776347369
 30
0.0
 11
90.192313888523628
 21
164.48889493366511
 31
0.0
  0
ARC
  5
1DFE
  8
0
 10
86.913490811774793
 20
162.3404724353247
 30
0.0
 40
3.9200000000008162
 50
266.76550057675672
 51
273.23449942324339
  0
LINE
  5
1DFF
  8
0
 10
90.192313888523628
 20
160.19204993698261
 30
0.0
 11
87.134667735025957
 21
158.426717107174
 31
0.0
  0
LINE
  5
1E00
  8
0
 10
101.41349081177481
 20
160.5751396055152
 30
0.0
 11
101.41349081177481
 21
164.1058052651324
 31
0.0
  0
ARC
  5
1E01
  8
0
 10
104.91349081177469
 20
162.34047243532379
 30
0.0
 40
3.9199999999998552
 50
206.7655005767545
 51
213.2344994232449
  0
LINE
  5
1E02
  8
0
 10
104.6923138885237
 20
158.426717107174
 30
0.0
 11
101.6346677350259
 21
160.19204993698261
 31
0.0
  0
ARC
  5
1E03
  8
0
 10
104.91349081177481
 20
162.34047243532351
 30
0.0
 40
3.9199999999996948
 50
266.76550057675672
 51
273.23449942324339
  0
LINE
  5
1E04
  8
0
 10
108.1923138885237
 20
160.19204993698261
 30
0.0
 11
105.1346677350258
 21
158.426717107174
 31
0.0
  0
ARC
  5
1E05
  8
0
 10
104.91349081177439
 20
162.3404724353241
 30
0.0
 40
3.9200000000003699
 50
326.76550057675507
 51
333.23449942324493
  0
LINE
  5
1E06
  8
0
 10
108.41349081177481
 20
164.1058052651324
 30
0.0
 11
108.41349081177481
 21
160.5751396055152
 31
0.0
  0
ARC
  5
1E07
  8
0
 10
104.9134908117753
 20
162.34047243532419
 30
0.0
 40
3.9199999999993871
 50
26.76550057675512
 51
33.234499423245857
  0
LINE
  5
1E08
  8
0
 10
105.1346677350258
 20
166.25422776347369
 30
0.0
 11
108.1923138885237
 21
164.48889493366511
 31
0.0
  0
ARC
  5
1E09
  8
0
 10
104.91349081177481
 20
162.3404724353247
 30
0.0
 40
3.9199999999991779
 50
86.765500576756637
 51
93.234499423243278
  0
LINE
  5
1E0A
  8
0
 10
101.6346677350259
 20
164.48889493366499
 30
0.0
 11
104.6923138885237
 21
166.25422776347369
 31
0.0
  0
ARC
  5
1E0B
  8
0
 10
104.9134908117739
 20
162.34047243532439
 30
0.0
 40
3.9199999999989741
 50
146.76550057675411
 51
153.23449942324541
  0
ARC
  5
1E0C
  8
0
 10
86.913490811774793
 20
162.3404724353253
 30
0.0
 40
3.9199999999985669
 50
86.765500576753368
 51
93.234499423246646
  0
LINE
  5
1E0D
  8
0
 10
83.634667735025957
 20
164.48889493366511
 30
0.0
 11
86.692313888523628
 21
166.25422776347369
 31
0.0
  0
ARC
  5
1E0E
  8
0
 10
86.913490811775588
 20
162.34047243532339
 30
0.0
 40
3.920000000000921
 50
146.76550057675831
 51
153.2344994232418
  0
CIRCLE
  5
1E0F
  8
0
 10
95.913490811774793
 20
153.34047243532379
 30
0.0
 40
2.5
  0
ARC
  5
1E10
  8
0
 10
86.913490811773997
 20
162.3404724353243
 30
0.0
 40
3.9200000000009871
 50
326.76550057675809
 51
333.2344994232418
  0
CIRCLE
  5
1E11
  8
0
 10
95.913490811774793
 20
171.34047243532379
 30
0.0
 40
2.4999999999999978
  0
ARC
  5
1E12
  8
0
 10
86.913490811775361
 20
162.34047243532419
 30
0.0
 40
3.920000000000623
 50
206.7655005767582
 51
213.2344994232449
  0
LINE
  5
1E13
  8
0
 10
83.413490811774793
 20
160.5751396055152
 30
0.0
 11
83.413490811774793
 21
164.1058052651324
 31
0.0
  0
LINE
  5
1E14
  8
0
 10
90.413490811774793
 20
164.1058052651324
 30
0.0
 11
90.413490811774793
 21
160.5751396055152
 31
0.0
  0
LINE
  5
1E15
  8
0
 10
86.692313888523628
 20
158.426717107174
 30
0.0
 11
83.634667735025957
 21
160.19204993698261
 31
0.0
  0
CIRCLE
  5
1E16
  8
0
 10
95.913490811774793
 20
162.34047243532379
 30
0.0
 40
3.1499999999999999
  0
ARC
  5
1E17
  8
0
 10
95.913490811774793
 20
162.34047243532379
 30
0.0
 40
11.75
 50
196.2384215974744
 51
343.76157840252557
  0
ARC
  5
1E18
  8
0
 10
86.913490811774793
 20
162.34047243532379
 30
0.0
 40
4.0
 50
124.7720202038046
 51
235.22797979619531
  0
ARC
  5
1E19
  8
0
 10
95.913490811774793
 20
162.34047243532379
 30
0.0
 40
11.75
 50
16.238421597474389
 51
163.7615784025256
  0
ARC
  5
1E1A
  8
0
 10
104.91349081177481
 20
162.34047243532379
 30
0.0
 40
4.0
 50
304.77202020380469
 51
55.227979796195328
  0
CIRCLE
  5
1E1B
  8
0
 10
95.913490811774793
 20
162.34047243532379
 30
0.0
 40
18.213490811774609
  0
CIRCLE
  5
1E1C
  8
0
 10
95.913490811774793
 20
162.34047243532379
 30
0.0
 40
16.25
  0
CIRCLE
  5
1E1D
  8
0
 10
95.913490811774793
 20
162.34047243532379
 30
0.0
 40
17.75
  0
CIRCLE
  5
1E20
  8
0
 10
104.91349081177481
 20
162.3404724353239
 30
0.0
 40
3.5000000000000071
  0
CIRCLE
  5
1E21
  8
0
 10
86.913490811774793
 20
162.34047243532379
 30
0.0
 40
3.499999999999996
  0
LINE
  5
1E22
  8
2
 10
88.534490811774774
 20
101.3059816235492
 30
0.0
 11
88.534490811774774
 21
104.04798162354921
 31
0.0
  0
LINE
  5
1E23
  8
2
 10
85.292490811774798
 20
104.04798162354921
 30
0.0
 11
85.292490811774798
 21
101.3059816235492
 31
0.0
  0
LINE
  5
1E24
  8
2
 10
106.5344908117747
 20
101.3059816235492
 30
0.0
 11
106.5344908117747
 21
104.04798162354921
 31
0.0
  0
LINE
  5
1E25
  8
2
 10
103.2924908117748
 20
104.04798162354921
 30
0.0
 11
103.2924908117748
 21
101.3059816235492
 31
0.0
  0
LINE
  5
1E26
  8
2
 10
90.413490811774793
 20
104.72698162354919
 30
0.0
 11
90.413490811773315
 21
100.9269816235492
 31
0.0
  0
LINE
  5
1E27
  8
2
 10
83.413490811774793
 20
104.72698162354919
 30
0.0
 11
83.413490811774793
 21
100.9269816235492
 31
0.0
  0
LINE
  5
1E28
  8
2
 10
101.41349081177481
 20
104.72698162354919
 30
0.0
 11
101.4134908117725
 21
100.9269816235492
 31
0.0
  0
LINE
  5
1E29
  8
2
 10
108.41349081177481
 20
104.72698162354919
 30
0.0
 11
108.4134908117764
 21
100.9269816235492
 31
0.0
  0
LINE
  5
1E2A
  8
2
 10
85.292490811774798
 20
101.3059816235492
 30
0.0
 11
88.534490811774774
 21
101.3059816235492
 31
0.0
  0
LINE
  5
1E2B
  8
2
 10
85.292490811774798
 20
101.3059816235492
 30
0.0
 11
84.913490811774807
 21
100.9269816235492
 31
0.0
  0
LINE
  5
1E2C
  8
2
 10
88.913490811774778
 20
100.9269816235492
 30
0.0
 11
88.534490811774774
 21
101.3059816235492
 31
0.0
  0
LINE
  5
1E2D
  8
2
 10
85.292490811774798
 20
104.04798162354921
 30
0.0
 11
88.534490811774774
 21
104.04798162354921
 31
0.0
  0
LINE
  5
1E2E
  8
2
 10
88.534490811774774
 20
104.04798162354921
 30
0.0
 11
88.913490811774778
 21
104.4269816235492
 31
0.0
  0
LINE
  5
1E2F
  8
2
 10
84.913490811774807
 20
104.4269816235492
 30
0.0
 11
85.292490811774798
 21
104.04798162354921
 31
0.0
  0
LINE
  5
1E30
  8
2
 10
103.2924908117748
 20
101.3059816235492
 30
0.0
 11
106.5344908117747
 21
101.3059816235492
 31
0.0
  0
LINE
  5
1E31
  8
2
 10
103.2924908117748
 20
101.3059816235492
 30
0.0
 11
102.91349081177481
 21
100.9269816235492
 31
0.0
  0
LINE
  5
1E32
  8
2
 10
106.91349081177481
 20
100.9269816235492
 30
0.0
 11
106.5344908117747
 21
101.3059816235492
 31
0.0
  0
LINE
  5
1E33
  8
2
 10
103.2924908117748
 20
104.04798162354921
 30
0.0
 11
106.5344908117747
 21
104.04798162354921
 31
0.0
  0
LINE
  5
1E34
  8
2
 10
106.5344908117747
 20
104.04798162354921
 30
0.0
 11
106.91349081177481
 21
104.4269816235492
 31
0.0
  0
LINE
  5
1E35
  8
2
 10
102.91349081177481
 20
104.4269816235492
 30
0.0
 11
103.2924908117748
 21
104.04798162354921
 31
0.0
  0
LINE
  5
1E36
  8
2
 10
88.913490811774778
 20
96.42698162354921
 30
0.0
 11
88.952761716833194
 21
100.9269816235492
 31
0.0
  0
LINE
  5
1E37
  8
2
 10
84.874219906716405
 20
100.9269816235492
 30
0.0
 11
84.913490811774807
 21
96.42698162354921
 31
0.0
  0
LINE
  5
1E38
  8
2
 10
90.413490811773315
 20
100.9269816235492
 30
0.0
 11
83.413490811774793
 21
100.9269816235492
 31
0.0
  0
LINE
  5
1E39
  8
2
 10
106.91349081177481
 20
96.42698162354921
 30
0.0
 11
106.95276171683319
 21
100.9269816235492
 31
0.0
  0
LINE
  5
1E3A
  8
2
 10
102.87421990671641
 20
100.9269816235492
 30
0.0
 11
102.91349081177481
 21
96.42698162354921
 31
0.0
  0
LINE
  5
1E3B
  8
2
 10
108.4134908117764
 20
100.9269816235492
 30
0.0
 11
101.4134908117725
 21
100.9269816235492
 31
0.0
  0
LINE
  5
1E43
  8
2
 10
83.413490811774793
 20
104.4269816235492
 30
0.0
 11
90.413490811774793
 21
104.4269816235492
 31
0.0
  0
LINE
  5
1E48
  8
2
 10
101.41349081177481
 20
104.4269816235492
 30
0.0
 11
108.41349081177481
 21
104.4269816235492
 31
0.0
  0
LINE
  5
1E4A
  8
2
 10
99.06349081177477
 20
96.42698162354921
 30
0.0
 11
99.06349081177477
 21
104.72698162354919
 31
0.0
  0
LINE
  5
1E4B
  8
2
 10
92.763490811774815
 20
104.72698162354919
 30
0.0
 11
92.763490811774815
 21
96.42698162354921
 31
0.0
  0
LINE
  5
1E4C
  8
2
 10
84.632240811774793
 20
104.72698162354919
 30
0.0
 11
84.632240811774793
 21
105.9269816235492
 31
0.0
  0
LINE
  5
1E4D
  8
2
 10
82.913490811774793
 20
105.9269816235492
 30
0.0
 11
82.913490811774793
 21
104.72698162354919
 31
0.0
  0
LINE
  5
1E4E
  8
2
 10
107.19474081177481
 20
105.9269816235492
 30
0.0
 11
107.19474081177481
 21
104.72698162354919
 31
0.0
  0
LINE
  5
1E4F
  8
2
 10
82.913490811774793
 20
104.72698162354919
 30
0.0
 11
108.91349081177481
 21
104.72698162354919
 31
0.0
  0
LINE
  5
1E50
  8
2
 10
108.91349081177481
 20
104.72698162354919
 30
0.0
 11
108.91349081177481
 21
105.9269816235492
 31
0.0
  0
LINE
  5
1E5B
  8
2
 10
98.413490811774793
 20
96.42698162354921
 30
0.0
 11
98.413490811774793
 21
104.72698162354919
 31
0.0
  0
LINE
  5
1E5C
  8
2
 10
93.413490811774793
 20
104.72698162354919
 30
0.0
 11
93.413490811774793
 21
96.42698162354921
 31
0.0
  0
LINE
  5
1E5D
  8
2
 10
79.663490811774793
 20
105.9269816235492
 30
0.0
 11
112.16349081177481
 21
105.9269816235492
 31
0.0
  0
LINE
  5
1E5E
  8
2
 10
112.16349081177481
 20
105.9269816235492
 30
0.0
 11
112.16349081177481
 21
114.1269816235492
 31
0.0
  0
LINE
  5
1E5F
  8
2
 10
79.663490811774793
 20
114.1269816235492
 30
0.0
 11
79.663490811774793
 21
105.9269816235492
 31
0.0
  0
LINE
  5
1E60
  8
2
 10
84.913490811774807
 20
100.9269816235492
 30
0.0
 11
84.913490811774807
 21
104.4269816235492
 31
0.0
  0
LINE
  5
1E61
  8
2
 10
88.913490811774778
 20
100.9269816235492
 30
0.0
 11
88.913490811774778
 21
104.4269816235492
 31
0.0
  0
LINE
  5
1E62
  8
2
 10
102.91349081177481
 20
100.9269816235492
 30
0.0
 11
102.91349081177481
 21
104.4269816235492
 31
0.0
  0
LINE
  5
1E63
  8
2
 10
106.91349081177481
 20
100.9269816235492
 30
0.0
 11
106.91349081177481
 21
104.4269816235492
 31
0.0
  0
LINE
  5
1E64
  8
1
 10
95.913490811774793
 20
93.42698162354921
 30
0.0
 11
95.913490811774793
 21
117.1269816235492
 31
0.0
  0
LINE
  5
1E65
  8
1
 10
86.913490811774793
 20
94.92698162354921
 30
0.0
 11
86.913490811774906
 21
107.4269816235492
 31
0.0
  0
LINE
  5
1E66
  8
1
 10
104.91349081177481
 20
94.92698162354921
 30
0.0
 11
104.91349081177481
 21
107.4269816235492
 31
0.0
  0
LINE
  5
1E67
  8
0
 10
77.700000000000202
 20
96.42698162354921
 30
0.0
 11
114.1269816235494
 21
96.42698162354921
 31
0.0
  0
LINE
  5
1E68
  8
0
 10
78.163490811774793
 20
114.1269816235492
 30
0.0
 11
113.66349081177481
 21
114.1269816235492
 31
0.0
  0
LINE
  5
1E69
  8
0
 10
78.163490811774793
 20
114.1269816235492
 30
0.0
 11
77.700000000000202
 21
96.42698162354921
 31
0.0
  0
LINE
  5
1E6A
  8
0
 10
114.1269816235494
 20
96.42698162354921
 30
0.0
 11
113.66349081177481
 21
114.1269816235492
 31
0.0
  0
LINE
  5
1E6B
  8
2
 10
30.000000000000099
 20
168.84047243532379
 30
0.0
 11
38.300000000000047
 21
168.84047243532379
 31
0.0
  0
LINE
  5
1E6C
  8
2
 10
38.300000000000047
 20
173.8404724353239
 30
0.0
 11
30.000000000000099
 21
173.8404724353239
 31
0.0
  0
LINE
  5
1E6D
  8
2
 10
30.000000000000099
 20
150.84047243532379
 30
0.0
 11
38.300000000000047
 21
150.84047243532379
 31
0.0
  0
LINE
  5
1E6E
  8
2
 10
38.300000000000047
 20
155.84047243532379
 30
0.0
 11
30.000000000000099
 21
155.84047243532379
 31
0.0
  0
LINE
  5
1E6F
  8
2
 10
30.000000000000099
 20
159.19047243532381
 30
0.0
 11
38.300000000000047
 21
159.19047243532381
 31
0.0
  0
LINE
  5
1E70
  8
2
 10
38.300000000000047
 20
165.49047243532391
 30
0.0
 11
30.000000000000099
 21
165.49047243532391
 31
0.0
  0
LINE
  5
1E72
  8
2
 10
38.300000000000047
 20
166.26047243532381
 30
0.0
 11
34.500000000000099
 21
166.26047243532381
 31
0.0
  0
LINE
  5
1E74
  8
2
 10
34.50000000000005
 20
158.42047243532389
 30
0.0
 11
38.300000000000047
 21
158.42047243532389
 31
0.0
  0
LINE
  5
1E75
  8
2
 10
34.879000000000062
 20
160.71947243532381
 30
0.0
 11
37.62100000000008
 21
160.71947243532381
 31
0.0
  0
LINE
  5
1E76
  8
2
 10
37.62100000000008
 20
163.96147243532391
 30
0.0
 11
34.879000000000062
 21
163.96147243532391
 31
0.0
  0
LINE
  5
1E7A
  8
2
 10
38.000000000000099
 20
166.26047243532381
 30
0.0
 11
38.000000000000099
 21
158.42047243532389
 31
0.0
  0
LINE
  5
1E7E
  8
2
 10
37.62100000000008
 20
160.71947243532381
 30
0.0
 11
38.000000000000099
 21
160.34047243532379
 31
0.0
  0
LINE
  5
1E7F
  8
2
 10
38.000000000000099
 20
164.34047243532379
 30
0.0
 11
37.62100000000008
 21
163.96147243532391
 31
0.0
  0
LINE
  5
1E80
  8
2
 10
37.62100000000008
 20
163.96147243532391
 30
0.0
 11
37.62100000000008
 21
160.71947243532381
 31
0.0
  0
LINE
  5
1E81
  8
2
 10
34.879000000000062
 20
163.96147243532391
 30
0.0
 11
34.500000000000099
 21
164.34047243532379
 31
0.0
  0
LINE
  5
1E82
  8
2
 10
34.500000000000099
 20
160.34047243532379
 30
0.0
 11
34.879000000000062
 21
160.71947243532381
 31
0.0
  0
LINE
  5
1E83
  8
2
 10
34.879000000000062
 20
163.96147243532391
 30
0.0
 11
34.879000000000062
 21
160.71947243532381
 31
0.0
  0
LINE
  5
1E84
  8
2
 10
30.000000000000099
 20
160.34047243532379
 30
0.0
 11
34.500000000000099
 21
160.30120153026539
 31
0.0
  0
LINE
  5
1E85
  8
2
 10
34.500000000000099
 20
164.3797433403823
 30
0.0
 11
30.000000000000099
 21
164.34047243532379
 31
0.0
  0
LINE
  5
1E86
  8
2
 10
34.500000000000099
 20
158.42047243532389
 30
0.0
 11
34.500000000000099
 21
166.26047243532381
 31
0.0
  0
LINE
  5
1E87
  8
2
 10
38.300000000000047
 20
159.05476118241381
 30
0.0
 11
39.500000000000099
 21
159.05476118241381
 31
0.0
  0
LINE
  5
1E88
  8
2
 10
38.300000000000047
 20
150.59047243532379
 30
0.0
 11
39.500000000000099
 21
150.59047243532379
 31
0.0
  0
LINE
  5
1E89
  8
2
 10
39.500000000000099
 20
165.62618368823391
 30
0.0
 11
38.300000000000047
 21
165.62618368823391
 31
0.0
  0
LINE
  5
1E8A
  8
2
 10
39.500000000000099
 20
174.0904724353239
 30
0.0
 11
38.300000000000047
 21
174.0904724353239
 31
0.0
  0
LINE
  5
1E8B
  8
2
 10
38.300000000000047
 20
174.0904724353239
 30
0.0
 11
38.300000000000047
 21
150.59047243532379
 31
0.0
  0
LINE
  5
1E96
  8
2
 10
39.500000000000099
 20
146.09047243532379
 30
0.0
 11
47.700000000000088
 21
146.09047243532379
 31
0.0
  0
LINE
  5
1E97
  8
2
 10
47.700000000000088
 20
178.5904724353239
 30
0.0
 11
39.500000000000099
 21
178.5904724353239
 31
0.0
  0
LINE
  5
1E98
  8
2
 10
39.500000000000099
 20
178.5904724353239
 30
0.0
 11
39.500000000000099
 21
146.09047243532379
 31
0.0
  0
LINE
  5
1E99
  8
2
 10
34.500000000000099
 20
164.34047243532379
 30
0.0
 11
38.000000000000099
 21
164.34047243532379
 31
0.0
  0
LINE
  5
1E9A
  8
2
 10
34.500000000000099
 20
160.34047243532379
 30
0.0
 11
38.000000000000099
 21
160.34047243532379
 31
0.0
  0
LINE
  5
1E9B
  8
1
 10
27.00000000000005
 20
162.34047243532379
 30
0.0
 11
50.700000000000088
 21
162.3404724353239
 31
0.0
  0
LINE
  5
1E9C
  8
1
 10
28.500000000000149
 20
171.34047243532379
 30
0.0
 11
41.000000000000099
 21
171.3404724353239
 31
0.0
  0
LINE
  5
1E9D
  8
1
 10
28.500000000000149
 20
153.3404724353239
 30
0.0
 11
41.000000000000043
 21
153.34047243532379
 31
0.0
  0
LINE
  5
1E9E
  8
0
 10
47.700000000000088
 20
180.0904724353239
 30
0.0
 11
30.000000000000099
 21
180.55396324709849
 31
0.0
  0
LINE
  5
1E9F
  8
0
 10
30.000000000000099
 20
144.1269816235492
 30
0.0
 11
47.700000000000088
 21
144.59047243532379
 31
0.0
  0
LINE
  5
1EA0
  8
0
 10
30.000000000000099
 20
180.55396324709849
 30
0.0
 11
30.000000000000099
 21
144.1269816235492
 31
0.0
  0
LINE
  5
1EA1
  8
0
 10
47.700000000000088
 20
180.0904724353239
 30
0.0
 11
47.700000000000088
 21
144.59047243532379
 31
0.0
  0
TEXT
  5
285A
  8
0
 62
     3
 10
0.0
 20
0.0
 30
0.0
 40
5.0
  1
RLE3260-CB
  7
STANDARD1
  0
LINE
  5
35AF
  8
1
 10
91.913490811774679
 20
39.213490811774598
 30
0.0
 11
99.913490811774693
 21
39.213490811774598
 31
0.0
  0
LINE
  5
35B0
  8
1
 10
91.913490811774679
 20
57.213490811774612
 30
0.0
 11
99.913490811774693
 21
57.213490811774612
 31
0.0
  0
LINE
  5
35B1
  8
1
 10
74.700000000000102
 20
48.213490811774598
 30
0.0
 11
117.1269816235493
 21
48.213490811774598
 31
0.0
  0
LINE
  5
35B2
  8
1
 10
95.913490811774579
 20
27.0
 30
0.0
 11
95.913490811774807
 21
69.426981623549224
 31
0.0
  0
LINE
  5
35B3
  8
1
 10
104.91349081177481
 20
44.713490811774598
 30
0.0
 11
104.91349081177481
 21
51.713490811774598
 31
0.0
  0
LINE
  5
35B4
  8
1
 10
86.913490811774679
 20
44.713490811774598
 30
0.0
 11
86.913490811774807
 21
51.713490811774598
 31
0.0
  0
CIRCLE
  5
35CA
  8
0
 10
95.913490811774693
 20
39.213490811774598
 30
0.0
 40
2.5
  0
CIRCLE
  5
35CC
  8
0
 10
95.913490811774693
 20
57.213490811774612
 30
0.0
 40
2.4999999999999978
  0
CIRCLE
  5
35D1
  8
0
 10
95.913490811774693
 20
48.213490811774598
 30
0.0
 40
3.1499999999999999
  0
CIRCLE
  5
35D6
  8
0
 10
95.913490811774693
 20
48.213490811774598
 30
0.0
 40
18.213490811774609
  0
CIRCLE
  5
362B
  8
3
 10
104.91349081177481
 20
162.34047243532379
 30
0.0
 40
2.0
  0
CIRCLE
  5
362C
  8
3
 10
86.913490811774793
 20
162.34047243532379
 30
0.0
 40
2.0
  0
CIRCLE
  5
3BFE
  8
0
 10
86.913490811774679
 20
48.213490811774598
 30
0.0
 40
1.621
  0
CIRCLE
  5
3BFF
  8
0
 10
104.91349081177469
 20
48.213490811774598
 30
0.0
 40
1.6209999999999991
  0
CIRCLE
  5
3C00
  8
3
 10
104.91349081177469
 20
48.213490811774598
 30
0.0
 40
2.0
  0
CIRCLE
  5
3C01
  8
3
 10
86.913490811774679
 20
48.213490811774598
 30
0.0
 40
2.0
  0
ENDSEC
  0
EOF
