  0
SECTION
  2
HEADER
  9
$ACADVER
  1
AC1009
  9
$INSBASE
 10
0.0
 20
0.0
 30
0.0
  9
$EXTMIN
 10
0.0
 20
-1.4802182810368341
 30
0.0
  9
$EXTMAX
 10
61.999999999999979
 20
99.750665945385876
 30
0.0
  9
$LIMMIN
 10
0.0
 20
0.0
  9
$LIMMAX
 10
192.5
 20
135.0
  9
$ORTHOMODE
 70
     1
  9
$REGENMODE
 70
     1
  9
$FILLMODE
 70
     1
  9
$QTEXTMODE
 70
     0
  9
$MIRRTEXT
 70
     0
  9
$DRAGMODE
 70
     2
  9
$LTSCALE
 40
5.0
  9
$OSMODE
 70
    37
  9
$ATTMODE
 70
     1
  9
$TEXTSIZE
 40
1.6000000000000489
  9
$TRACEWID
 40
0.05
  9
$TEXTSTYLE
  7
STANDARD
  9
$CLAYER
  8
0
  9
$CELTYPE
  6
BYLAYER
  9
$CECOLOR
 62
   256
  9
$DIMSCALE
 40
1.0
  9
$DIMASZ
 40
3.0
  9
$DIMEXO
 40
2.0
  9
$DIMDLI
 40
0.38
  9
$DIMRND
 40
0.0
  9
$DIMDLE
 40
0.0
  9
$DIMEXE
 40
2.0
  9
$DIMTP
 40
0.0
  9
$DIMTM
 40
0.0
  9
$DIMTXT
 40
3.0
  9
$DIMCEN
 40
0.0
  9
$DIMTSZ
 40
0.0
  9
$DIMTOL
 70
     0
  9
$DIMLIM
 70
     0
  9
$DIMTIH
 70
     0
  9
$DIMTOH
 70
     0
  9
$DIMSE1
 70
     0
  9
$DIMSE2
 70
     0
  9
$DIMTAD
 70
     1
  9
$DIMZIN
 70
     9
  9
$DIMBLK
  1

  9
$DIMASO
 70
     0
  9
$DIMSHO
 70
     0
  9
$DIMPOST
  1

  9
$DIMAPOST
  1

  9
$DIMALT
 70
     0
  9
$DIMALTD
 70
     2
  9
$DIMALTF
 40
25.399999999999999
  9
$DIMLFAC
 40
1.0
  9
$DIMTOFL
 70
     1
  9
$DIMTVP
 40
1.6000000000000001
  9
$DIMTIX
 70
     1
  9
$DIMSOXD
 70
     0
  9
$DIMSAH
 70
     0
  9
$DIMBLK1
  1

  9
$DIMBLK2
  1

  9
$DIMSTYLE
  2
STANDARD
  9
$DIMCLRD
 70
     0
  9
$DIMCLRE
 70
     0
  9
$DIMCLRT
 70
     0
  9
$DIMTFAC
 40
1.0
  9
$DIMGAP
 40
0.09
  9
$LUNITS
 70
     2
  9
$LUPREC
 70
     1
  9
$SKETCHINC
 40
0.1
  9
$FILLETRAD
 40
0.3
  9
$AUNITS
 70
     0
  9
$AUPREC
 70
     1
  9
$MENU
  1
E:\r13\win\SUPPORT\ACAD
  9
$ELEVATION
 40
0.0
  9
$PELEVATION
 40
0.0
  9
$THICKNESS
 40
0.0
  9
$LIMCHECK
 70
     0
  9
$BLIPMODE
 70
     0
  9
$CHAMFERA
 40
0.0
  9
$CHAMFERB
 40
0.0
  9
$SKPOLY
 70
     0
  9
$TDCREATE
 40
2448328.489641204
  9
$TDUPDATE
 40
2457892.6359617128
  9
$TDINDWG
 40
1.1697358333000001
  9
$TDUSRTIMER
 40
2456598.9740022919
  9
$USRTIMER
 70
     1
  9
$ANGBASE
 50
0.0
  9
$ANGDIR
 70
     0
  9
$PDMODE
 70
    35
  9
$PDSIZE
 40
0.0
  9
$PLINEWID
 40
0.0
  9
$COORDS
 70
     1
  9
$SPLFRAME
 70
     0
  9
$SPLINETYPE
 70
     6
  9
$SPLINESEGS
 70
     8
  9
$ATTDIA
 70
     0
  9
$ATTREQ
 70
     1
  9
$HANDLING
 70
     1
  9
$HANDSEED
  5
5E38
  9
$SURFTAB1
 70
     6
  9
$SURFTAB2
 70
     6
  9
$SURFTYPE
 70
     6
  9
$SURFU
 70
     6
  9
$SURFV
 70
     6
  9
$UCSNAME
  2

  9
$UCSORG
 10
0.0
 20
0.0
 30
0.0
  9
$UCSXDIR
 10
1.0
 20
0.0
 30
0.0
  9
$UCSYDIR
 10
0.0
 20
1.0
 30
0.0
  9
$PUCSNAME
  2

  9
$PUCSORG
 10
0.0
 20
0.0
 30
0.0
  9
$PUCSXDIR
 10
1.0
 20
0.0
 30
0.0
  9
$PUCSYDIR
 10
0.0
 20
1.0
 30
0.0
  9
$USERI1
 70
     3
  9
$USERI2
 70
     1
  9
$USERI3
 70
     1
  9
$USERI4
 70
     0
  9
$USERI5
 70
     0
  9
$USERR1
 40
0.5
  9
$USERR2
 40
3.0
  9
$USERR3
 40
3.0
  9
$USERR4
 40
3.0
  9
$USERR5
 40
10.0
  9
$WORLDVIEW
 70
     1
  9
$SHADEDGE
 70
     3
  9
$SHADEDIF
 70
    70
  9
$TILEMODE
 70
     1
  9
$MAXACTVP
 70
    16
  9
$PLIMCHECK
 70
     0
  9
$PEXTMIN
 10
1.0000000000000000E+020
 20
1.0000000000000000E+020
 30
1.0000000000000000E+020
  9
$PEXTMAX
 10
-1.0000000000000000E+020
 20
-1.0000000000000000E+020
 30
-1.0000000000000000E+020
  9
$PLIMMIN
 10
0.0
 20
0.0
  9
$PLIMMAX
 10
12.0
 20
9.0
  9
$UNITMODE
 70
     0
  9
$VISRETAIN
 70
     0
  9
$PLINEGEN
 70
     1
  9
$PSLTSCALE
 70
     0
  0
ENDSEC
  0
SECTION
  2
TABLES
  0
TABLE
  2
VPORT
 70
     1
  0
VPORT
  2
*ACTIVE
 70
     0
 10
0.0
 20
0.0
 11
1.0
 21
1.0
 12
108.97435897435901
 22
60.0
 13
0.0
 23
0.0
 14
2.5
 24
2.5
 15
5.0
 25
5.0
 16
0.0
 26
0.0
 36
1.0
 17
0.0
 27
0.0
 37
0.0
 40
120.0
 41
1.816239316239316
 42
50.0
 43
0.0
 44
0.0
 50
0.0
 51
0.0
 71
     0
 72
   500
 73
     1
 74
     0
 75
     0
 76
     0
 77
     0
 78
     2
  0
ENDTAB
  0
TABLE
  2
LTYPE
 70
     3
  0
LTYPE
  2
CONTINUOUS
 70
     0
  3
Solid Line
 72
    65
 73
     0
 40
0.0
  0
LTYPE
  2
CENTER
 70
     0
  3
____ _ ____ _ ____ _ ____ _ ____ _ ____ _ ____
 72
    65
 73
     4
 40
2.0
 49
1.25
 49
-0.25
 49
0.25
 49
-0.25
  0
LTYPE
  2
PHANTOM2
 70
     0
  3
___ _ _ ___ _ _ ___ _ _ ___ _ _
 72
    65
 73
     6
 40
1.25
 49
0.625
 49
-0.125
 49
0.125
 49
-0.125
 49
0.125
 49
-0.125
  0
ENDTAB
  0
TABLE
  2
LAYER
 70
     3
  0
LAYER
  2
0
 70
     0
 62
     7
  6
CONTINUOUS
  0
LAYER
  2
1
 70
     0
 62
     1
  6
CENTER
  0
LAYER
  2
DEFPOINTS
 70
     0
 62
     7
  6
CONTINUOUS
  0
ENDTAB
  0
TABLE
  2
STYLE
 70
     2
  0
STYLE
  2
STANDARD
 70
     0
 40
0.0
 41
1.0
 50
0.0
 71
     0
 42
1.6000000000000489
  3
SIMPLEX
  4
BIGFONT
  0
STYLE
  2
STANDARD1
 70
     0
 40
0.0
 41
1.0
 50
0.0
 71
     0
 42
3.0
  3
txt
  4

  0
ENDTAB
  0
TABLE
  2
VIEW
 70
     1
  0
VIEW
  2
ALL
 70
     0
 40
87.5
 10
71.617647058823522
 20
43.75
 41
0.0
 11
0.0
 21
0.0
 31
1.0
 12
0.0
 22
0.0
 32
0.0
 42
50.0
 43
0.0
 44
0.0
 50
0.0
 71
     0
  0
ENDTAB
  0
TABLE
  2
UCS
 70
     0
  0
ENDTAB
  0
TABLE
  2
APPID
 70
     7
  0
APPID
  2
ACAD
 70
     0
  0
APPID
  2
ACAD_EXEMPT_FROM_CAD_STANDARDS
 70
     0
  0
APPID
  2
ACAD_DSTYLE_DIMJAG
 70
     0
  0
APPID
  2
ACAD_DSTYLE_DIMTALN
 70
     0
  0
APPID
  2
ACAD_MLEADERVER
 70
     0
  0
APPID
  2
ACAD_NAV_VCDISPLAY
 70
     0
  0
APPID
  2
ACAD_DSTYLE_DIMRADIAL_EXTENSION
 70
     0
  0
ENDTAB
  0
TABLE
  2
DIMSTYLE
 70
     1
  0
DIMSTYLE
  2
STANDARD
 70
     0
  3

  4

  5

  6

  7

 40
1.0
 41
0.18
 42
0.0625
 43
0.38
 44
0.18
 45
0.0
 46
0.0
 47
0.0
 48
0.0
140
0.18
141
0.09
142
0.0
143
25.399999999999999
144
1.0
145
0.0
146
1.0
147
0.09
 71
     0
 72
     0
 73
     1
 74
     1
 75
     0
 76
     0
 77
     0
 78
     0
170
     0
171
     2
172
     0
173
     0
174
     0
175
     0
176
     0
177
     0
178
     0
  0
ENDTAB
  0
ENDSEC
  0
SECTION
  2
BLOCKS
  0
BLOCK
  8
0
  2
$MODEL_SPACE
 70
     0
 10
0.0
 20
0.0
 30
0.0
  3
$MODEL_SPACE
  1

  0
ENDBLK
  5
BAB
  8
0
  0
BLOCK
 67
     1
  8
0
  2
$PAPER_SPACE
 70
     0
 10
0.0
 20
0.0
 30
0.0
  3
$PAPER_SPACE
  1

  0
ENDBLK
  5
BA9
 67
     1
  8
0
  0
ENDSEC
  0
SECTION
  2
ENTITIES
  0
TEXT
  5
5067
  8
0
 62
     3
 10
0.0
 20
0.0
 30
0.0
 40
5.0
  1
RLE4060SP
  7
STANDARD1
  0
LINE
  5
512D
  8
1
 10
44.499999999999979
 20
40.75057715918544
 30
0.0
 11
44.499999999999979
 21
27.000000000000021
 31
0.0
  0
POLYLINE
  5
5131
  8
0
 66
     1
 10
0.0
 20
0.0
 30
0.0
  0
VERTEX
  5
53F6
  8
0
 10
35.388308110978848
 20
36.71114218641074
 30
0.0
  0
VERTEX
  5
53F7
  8
0
 10
35.385417020777069
 20
36.648907594993332
 30
0.0
  0
VERTEX
  5
53F8
  8
0
 10
35.387816330147167
 20
36.583812059345988
 30
0.0
  0
VERTEX
  5
53F9
  8
0
 10
35.395583338746839
 20
36.520077828663631
 30
0.0
  0
VERTEX
  5
53FA
  8
0
 10
35.408368916745047
 20
36.458324588963357
 30
0.0
  0
VERTEX
  5
53FB
  8
0
 10
35.425734482916802
 20
36.39908632875995
 30
0.0
  0
VERTEX
  5
53FC
  8
0
 10
35.44716785526667
 20
36.342814832673163
 30
0.0
  0
VERTEX
  5
53FD
  8
0
 10
35.47210431273917
 20
36.289864095869561
 30
0.0
  0
VERTEX
  5
53FE
  8
0
 10
35.499957143784997
 20
36.240471143811078
 30
0.0
  0
VERTEX
  5
53FF
  8
0
 10
35.530157601016683
 20
36.194740387319641
 30
0.0
  0
VERTEX
  5
5400
  8
0
 10
35.562198621587108
 20
36.15263952513223
 30
0.0
  0
VERTEX
  5
5401
  8
0
 10
35.595673553873823
 20
36.114011146376328
 30
0.0
  0
VERTEX
  5
5402
  8
0
 10
35.630303234955399
 20
36.078597419487963
 30
0.0
  0
VERTEX
  5
5403
  8
0
 10
35.665950887445412
 20
36.046070069444063
 30
0.0
  0
VERTEX
  5
5404
  8
0
 10
35.700431305268872
 20
36.017774161516982
 30
0.0
  0
SEQEND
  5
5405
  8
0
  0
POLYLINE
  5
5132
  8
0
 66
     1
 10
0.0
 20
0.0
 30
0.0
  0
VERTEX
  5
5406
  8
0
 10
30.594143486727919
 20
32.059588823457581
 30
0.0
  0
VERTEX
  5
5407
  8
0
 10
30.597906931807341
 20
32.026294491304462
 30
0.0
  0
VERTEX
  5
5408
  8
0
 10
30.608897624444111
 20
31.964913217711231
 30
0.0
  0
VERTEX
  5
5409
  8
0
 10
30.624610247072699
 20
31.90591497572337
 30
0.0
  0
VERTEX
  5
540A
  8
0
 10
30.644542483019659
 20
31.849806466099569
 30
0.0
  0
VERTEX
  5
540B
  8
0
 10
30.66811104974509
 20
31.79703082490748
 30
0.0
  0
VERTEX
  5
540C
  8
0
 10
30.694668971405381
 20
31.74794129740852
 30
0.0
  0
VERTEX
  5
540D
  8
0
 10
30.723542782785081
 20
31.702765593245811
 30
0.0
  0
VERTEX
  5
540E
  8
0
 10
30.754063458253182
 20
31.661606936715259
 30
0.0
  0
VERTEX
  5
540F
  8
0
 10
30.785633255855519
 20
31.6244102070137
 30
0.0
  0
VERTEX
  5
5410
  8
0
 10
30.81776734471109
 20
31.59098315100508
 30
0.0
  0
VERTEX
  5
5411
  8
0
 10
30.850118216226381
 20
31.56103073284282
 30
0.0
  0
VERTEX
  5
5412
  8
0
 10
30.882477760125749
 20
31.534197629677578
 30
0.0
  0
VERTEX
  5
5413
  8
0
 10
30.914765419487289
 20
31.510105774882579
 30
0.0
  0
VERTEX
  5
5414
  8
0
 10
30.947013641002151
 20
31.48837987780519
 30
0.0
  0
VERTEX
  5
5415
  8
0
 10
30.97935978112432
 20
31.46865999259801
 30
0.0
  0
VERTEX
  5
5416
  8
0
 10
31.012050993434102
 20
31.450603343289352
 30
0.0
  0
VERTEX
  5
5417
  8
0
 10
31.01331165583586
 20
31.449941867028631
 30
0.0
  0
SEQEND
  5
5418
  8
0
  0
POLYLINE
  5
5133
  8
0
 66
     1
 10
0.0
 20
0.0
 30
0.0
  0
VERTEX
  5
5419
  8
0
 10
30.59159717861613
 20
32.15204496288213
 30
0.0
  0
VERTEX
  5
541A
  8
0
 10
30.592054294296741
 20
32.089496113433214
 30
0.0
  0
VERTEX
  5
541B
  8
0
 10
30.593215045987659
 20
32.070837438288549
 30
0.0
  0
VERTEX
  5
541C
  8
0
 10
30.594143486727919
 20
32.059588823457581
 30
0.0
  0
SEQEND
  5
541D
  8
0
  0
LINE
  5
5135
  8
0
 10
32.558660323429571
 20
33.800403824345949
 30
0.0
 11
32.55863720352918
 21
33.800071895964898
 31
0.0
  0
POLYLINE
  5
5136
  8
0
 10
32.558637203529187
 20
33.800071895964891
 30
0.0
 66
     1
 70
     8
  0
VERTEX
  8
0
  5
5B2C
 10
32.5586
 20
33.8001
 30
0.000000
  70
    32
  0
VERTEX
  8
0
  5
5B2D
 10
32.5582
 20
33.7929
 30
0.000000
  70
    32
  0
VERTEX
  8
0
  5
5B2E
 10
32.5578
 20
33.7857
 30
0.000000
  70
    32
  0
VERTEX
  8
0
  5
5B2F
 10
32.5575
 20
33.7785
 30
0.000000
  70
    32
  0
VERTEX
  8
0
  5
5B30
 10
32.5572
 20
33.7713
 30
0.000000
  70
    32
  0
VERTEX
  8
0
  5
5B31
 10
32.5570
 20
33.7641
 30
0.000000
  70
    32
  0
VERTEX
  8
0
  5
5B32
 10
32.5569
 20
33.7568
 30
0.000000
  70
    32
  0
VERTEX
  8
0
  5
5B33
 10
32.5569
 20
33.7496
 30
0.000000
  70
    32
  0
VERTEX
  8
0
  5
5B34
 10
32.5569
 20
33.7424
 30
0.000000
  70
    32
  0
VERTEX
  8
0
  5
5B35
 10
32.5570
 20
33.7352
 30
0.000000
  70
    32
  0
VERTEX
  8
0
  5
5B36
 10
32.5572
 20
33.7280
 30
0.000000
  70
    32
  0
VERTEX
  8
0
  5
5B37
 10
32.5575
 20
33.7208
 30
0.000000
  70
    32
  0
VERTEX
  8
0
  5
5B38
 10
32.5578
 20
33.7136
 30
0.000000
  70
    32
  0
VERTEX
  8
0
  5
5B39
 10
32.5582
 20
33.7064
 30
0.000000
  70
    32
  0
VERTEX
  8
0
  5
5B3A
 10
32.5587
 20
33.6992
 30
0.000000
  70
    32
  0
VERTEX
  8
0
  5
5B3B
 10
32.5592
 20
33.6920
 30
0.000000
  70
    32
  0
VERTEX
  8
0
  5
5B3C
 10
32.5598
 20
33.6848
 30
0.000000
  70
    32
  0
VERTEX
  8
0
  5
5B3D
 10
32.5605
 20
33.6777
 30
0.000000
  70
    32
  0
VERTEX
  8
0
  5
5B3E
 10
32.5613
 20
33.6705
 30
0.000000
  70
    32
  0
VERTEX
  8
0
  5
5B3F
 10
32.5621
 20
33.6633
 30
0.000000
  70
    32
  0
VERTEX
  8
0
  5
5B40
 10
32.5630
 20
33.6562
 30
0.000000
  70
    32
  0
VERTEX
  8
0
  5
5B41
 10
32.5640
 20
33.6490
 30
0.000000
  70
    32
  0
VERTEX
  8
0
  5
5B42
 10
32.5650
 20
33.6419
 30
0.000000
  70
    32
  0
VERTEX
  8
0
  5
5B43
 10
32.5661
 20
33.6348
 30
0.000000
  70
    32
  0
VERTEX
  8
0
  5
5B44
 10
32.5673
 20
33.6277
 30
0.000000
  70
    32
  0
VERTEX
  8
0
  5
5B45
 10
32.5685
 20
33.6205
 30
0.000000
  70
    32
  0
VERTEX
  8
0
  5
5B46
 10
32.5699
 20
33.6135
 30
0.000000
  70
    32
  0
VERTEX
  8
0
  5
5B47
 10
32.5713
 20
33.6064
 30
0.000000
  70
    32
  0
VERTEX
  8
0
  5
5B48
 10
32.5727
 20
33.5993
 30
0.000000
  70
    32
  0
VERTEX
  8
0
  5
5B49
 10
32.5743
 20
33.5923
 30
0.000000
  70
    32
  0
VERTEX
  8
0
  5
5B4A
 10
32.5759
 20
33.5853
 30
0.000000
  70
    32
  0
VERTEX
  8
0
  5
5B4B
 10
32.5775
 20
33.5782
 30
0.000000
  70
    32
  0
VERTEX
  8
0
  5
5B4C
 10
32.5793
 20
33.5712
 30
0.000000
  70
    32
  0
VERTEX
  8
0
  5
5B4D
 10
32.5811
 20
33.5643
 30
0.000000
  70
    32
  0
VERTEX
  8
0
  5
5B4E
 10
32.5830
 20
33.5573
 30
0.000000
  70
    32
  0
VERTEX
  8
0
  5
5B4F
 10
32.5849
 20
33.5504
 30
0.000000
  70
    32
  0
VERTEX
  8
0
  5
5B50
 10
32.5870
 20
33.5434
 30
0.000000
  70
    32
  0
VERTEX
  8
0
  5
5B51
 10
32.5891
 20
33.5365
 30
0.000000
  70
    32
  0
VERTEX
  8
0
  5
5B52
 10
32.5912
 20
33.5297
 30
0.000000
  70
    32
  0
VERTEX
  8
0
  5
5B53
 10
32.5934
 20
33.5228
 30
0.000000
  70
    32
  0
VERTEX
  8
0
  5
5B54
 10
32.5957
 20
33.5160
 30
0.000000
  70
    32
  0
VERTEX
  8
0
  5
5B55
 10
32.5981
 20
33.5092
 30
0.000000
  70
    32
  0
VERTEX
  8
0
  5
5B56
 10
32.6005
 20
33.5024
 30
0.000000
  70
    32
  0
VERTEX
  8
0
  5
5B57
 10
32.6030
 20
33.4956
 30
0.000000
  70
    32
  0
VERTEX
  8
0
  5
5B58
 10
32.6056
 20
33.4889
 30
0.000000
  70
    32
  0
VERTEX
  8
0
  5
5B59
 10
32.6082
 20
33.4821
 30
0.000000
  70
    32
  0
VERTEX
  8
0
  5
5B5A
 10
32.6109
 20
33.4755
 30
0.000000
  70
    32
  0
VERTEX
  8
0
  5
5B5B
 10
32.6137
 20
33.4688
 30
0.000000
  70
    32
  0
VERTEX
  8
0
  5
5B5C
 10
32.6165
 20
33.4622
 30
0.000000
  70
    32
  0
VERTEX
  8
0
  5
5B5D
 10
32.6194
 20
33.4556
 30
0.000000
  70
    32
  0
VERTEX
  8
0
  5
5B5E
 10
32.6224
 20
33.4490
 30
0.000000
  70
    32
  0
VERTEX
  8
0
  5
5B5F
 10
32.6254
 20
33.4424
 30
0.000000
  70
    32
  0
VERTEX
  8
0
  5
5B60
 10
32.6285
 20
33.4359
 30
0.000000
  70
    32
  0
VERTEX
  8
0
  5
5B61
 10
32.6317
 20
33.4294
 30
0.000000
  70
    32
  0
VERTEX
  8
0
  5
5B62
 10
32.6349
 20
33.4230
 30
0.000000
  70
    32
  0
VERTEX
  8
0
  5
5B63
 10
32.6382
 20
33.4166
 30
0.000000
  70
    32
  0
VERTEX
  8
0
  5
5B64
 10
32.6415
 20
33.4102
 30
0.000000
  70
    32
  0
VERTEX
  8
0
  5
5B65
 10
32.6449
 20
33.4038
 30
0.000000
  70
    32
  0
VERTEX
  8
0
  5
5B66
 10
32.6484
 20
33.3975
 30
0.000000
  70
    32
  0
VERTEX
  8
0
  5
5B67
 10
32.6520
 20
33.3912
 30
0.000000
  70
    32
  0
VERTEX
  8
0
  5
5B68
 10
32.6556
 20
33.3850
 30
0.000000
  70
    32
  0
VERTEX
  8
0
  5
5B69
 10
32.6592
 20
33.3788
 30
0.000000
  70
    32
  0
VERTEX
  8
0
  5
5B6A
 10
32.6630
 20
33.3726
 30
0.000000
  70
    32
  0
VERTEX
  8
0
  5
5B6B
 10
32.6667
 20
33.3665
 30
0.000000
  70
    32
  0
VERTEX
  8
0
  5
5B6C
 10
32.6706
 20
33.3604
 30
0.000000
  70
    32
  0
VERTEX
  8
0
  5
5B6D
 10
32.6745
 20
33.3543
 30
0.000000
  70
    32
  0
VERTEX
  8
0
  5
5B6E
 10
32.6785
 20
33.3483
 30
0.000000
  70
    32
  0
VERTEX
  8
0
  5
5B6F
 10
32.6825
 20
33.3423
 30
0.000000
  70
    32
  0
VERTEX
  8
0
  5
5B70
 10
32.6866
 20
33.3364
 30
0.000000
  70
    32
  0
VERTEX
  8
0
  5
5B71
 10
32.6907
 20
33.3305
 30
0.000000
  70
    32
  0
VERTEX
  8
0
  5
5B72
 10
32.6949
 20
33.3246
 30
0.000000
  70
    32
  0
VERTEX
  8
0
  5
5B73
 10
32.6992
 20
33.3188
 30
0.000000
  70
    32
  0
VERTEX
  8
0
  5
5B74
 10
32.7035
 20
33.3130
 30
0.000000
  70
    32
  0
VERTEX
  8
0
  5
5B75
 10
32.7079
 20
33.3073
 30
0.000000
  70
    32
  0
VERTEX
  8
0
  5
5B76
 10
32.7123
 20
33.3016
 30
0.000000
  70
    32
  0
VERTEX
  8
0
  5
5B77
 10
32.7168
 20
33.2960
 30
0.000000
  70
    32
  0
VERTEX
  8
0
  5
5B78
 10
32.7214
 20
33.2904
 30
0.000000
  70
    32
  0
VERTEX
  8
0
  5
5B79
 10
32.7260
 20
33.2848
 30
0.000000
  70
    32
  0
VERTEX
  8
0
  5
5B7A
 10
32.7306
 20
33.2793
 30
0.000000
  70
    32
  0
VERTEX
  8
0
  5
5B7B
 10
32.7354
 20
33.2738
 30
0.000000
  70
    32
  0
VERTEX
  8
0
  5
5B7C
 10
32.7401
 20
33.2684
 30
0.000000
  70
    32
  0
VERTEX
  8
0
  5
5B7D
 10
32.7449
 20
33.2631
 30
0.000000
  70
    32
  0
VERTEX
  8
0
  5
5B7E
 10
32.7498
 20
33.2577
 30
0.000000
  70
    32
  0
VERTEX
  8
0
  5
5B7F
 10
32.7547
 20
33.2525
 30
0.000000
  70
    32
  0
VERTEX
  8
0
  5
5B80
 10
32.7597
 20
33.2473
 30
0.000000
  70
    32
  0
VERTEX
  8
0
  5
5B81
 10
32.7648
 20
33.2421
 30
0.000000
  70
    32
  0
VERTEX
  8
0
  5
5B82
 10
32.7698
 20
33.2370
 30
0.000000
  70
    32
  0
VERTEX
  8
0
  5
5B83
 10
32.7750
 20
33.2319
 30
0.000000
  70
    32
  0
VERTEX
  8
0
  5
5B84
 10
32.7802
 20
33.2269
 30
0.000000
  70
    32
  0
VERTEX
  8
0
  5
5B85
 10
32.7854
 20
33.2219
 30
0.000000
  70
    32
  0
VERTEX
  8
0
  5
5B86
 10
32.7907
 20
33.2170
 30
0.000000
  70
    32
  0
VERTEX
  8
0
  5
5B87
 10
32.7960
 20
33.2122
 30
0.000000
  70
    32
  0
VERTEX
  8
0
  5
5B88
 10
32.8014
 20
33.2073
 30
0.000000
  70
    32
  0
VERTEX
  8
0
  5
5B89
 10
32.8068
 20
33.2026
 30
0.000000
  70
    32
  0
VERTEX
  8
0
  5
5B8A
 10
32.8123
 20
33.1979
 30
0.000000
  70
    32
  0
VERTEX
  8
0
  5
5B8B
 10
32.8178
 20
33.1933
 30
0.000000
  70
    32
  0
VERTEX
  8
0
  5
5B8C
 10
32.8234
 20
33.1887
 30
0.000000
  70
    32
  0
VERTEX
  8
0
  5
5B8D
 10
32.8290
 20
33.1841
 30
0.000000
  70
    32
  0
VERTEX
  8
0
  5
5B8E
 10
32.8346
 20
33.1797
 30
0.000000
  70
    32
  0
VERTEX
  8
0
  5
5B8F
 10
32.8403
 20
33.1752
 30
0.000000
  70
    32
  0
VERTEX
  8
0
  5
5B90
 10
32.8461
 20
33.1709
 30
0.000000
  70
    32
  0
VERTEX
  8
0
  5
5B91
 10
32.8519
 20
33.1666
 30
0.000000
  70
    32
  0
VERTEX
  8
0
  5
5B92
 10
32.8577
 20
33.1623
 30
0.000000
  70
    32
  0
VERTEX
  8
0
  5
5B93
 10
32.8636
 20
33.1581
 30
0.000000
  70
    32
  0
VERTEX
  8
0
  5
5B94
 10
32.8695
 20
33.1540
 30
0.000000
  70
    32
  0
VERTEX
  8
0
  5
5B95
 10
32.8754
 20
33.1499
 30
0.000000
  70
    32
  0
VERTEX
  8
0
  5
5B96
 10
32.8814
 20
33.1459
 30
0.000000
  70
    32
  0
VERTEX
  8
0
  5
5B97
 10
32.8875
 20
33.1420
 30
0.000000
  70
    32
  0
VERTEX
  8
0
  5
5B98
 10
32.8935
 20
33.1381
 30
0.000000
  70
    32
  0
VERTEX
  8
0
  5
5B99
 10
32.8996
 20
33.1342
 30
0.000000
  70
    32
  0
VERTEX
  8
0
  5
5B9A
 10
32.9058
 20
33.1305
 30
0.000000
  70
    32
  0
VERTEX
  8
0
  5
5B9B
 10
32.9120
 20
33.1267
 30
0.000000
  70
    32
  0
VERTEX
  8
0
  5
5B9C
 10
32.9182
 20
33.1231
 30
0.000000
  70
    32
  0
VERTEX
  8
0
  5
5B9D
 10
32.9245
 20
33.1195
 30
0.000000
  70
    32
  0
VERTEX
  8
0
  5
5B9E
 10
32.9308
 20
33.1160
 30
0.000000
  70
    32
  0
VERTEX
  8
0
  5
5B9F
 10
32.9371
 20
33.1125
 30
0.000000
  70
    32
  0
VERTEX
  8
0
  5
5BA0
 10
32.9434
 20
33.1091
 30
0.000000
  70
    32
  0
VERTEX
  8
0
  5
5BA1
 10
32.9498
 20
33.1058
 30
0.000000
  70
    32
  0
VERTEX
  8
0
  5
5BA2
 10
32.9563
 20
33.1025
 30
0.000000
  70
    32
  0
VERTEX
  8
0
  5
5BA3
 10
32.9627
 20
33.0993
 30
0.000000
  70
    32
  0
VERTEX
  8
0
  5
5BA4
 10
32.9692
 20
33.0962
 30
0.000000
  70
    32
  0
VERTEX
  8
0
  5
5BA5
 10
32.9758
 20
33.0931
 30
0.000000
  70
    32
  0
VERTEX
  8
0
  5
5BA6
 10
32.9823
 20
33.0901
 30
0.000000
  70
    32
  0
VERTEX
  8
0
  5
5BA7
 10
32.9889
 20
33.0871
 30
0.000000
  70
    32
  0
VERTEX
  8
0
  5
5BA8
 10
32.9955
 20
33.0843
 30
0.000000
  70
    32
  0
VERTEX
  8
0
  5
5BA9
 10
33.0021
 20
33.0814
 30
0.000000
  70
    32
  0
VERTEX
  8
0
  5
5BAA
 10
33.0088
 20
33.0787
 30
0.000000
  70
    32
  0
VERTEX
  8
0
  5
5BAB
 10
33.0155
 20
33.0760
 30
0.000000
  70
    32
  0
VERTEX
  8
0
  5
5BAC
 10
33.0222
 20
33.0734
 30
0.000000
  70
    32
  0
SEQEND
  8
0
  5
5BAD
  0
POLYLINE
  5
5137
  8
0
 66
     1
 10
0.0
 20
0.0
 30
0.0
  0
VERTEX
  5
541E
  8
0
 10
34.011970324921762
 20
35.152356290075261
 30
0.0
  0
VERTEX
  5
541F
  8
0
 10
34.01360249104787
 20
35.097606843057982
 30
0.0
  0
VERTEX
  5
5420
  8
0
 10
34.020514307496548
 20
35.034900183541311
 30
0.0
  0
VERTEX
  5
5421
  8
0
 10
34.032509855040281
 20
34.974048081151537
 30
0.0
  0
VERTEX
  5
5422
  8
0
 10
34.049198496327939
 20
34.915542632722243
 30
0.0
  0
VERTEX
  5
5423
  8
0
 10
34.07011421159141
 20
34.859851893482229
 30
0.0
  0
VERTEX
  5
5424
  8
0
 10
34.09471236790521
 20
34.807403350857328
 30
0.0
  0
VERTEX
  5
5425
  8
0
 10
34.122370976484412
 20
34.758568507535728
 30
0.0
  0
VERTEX
  5
5426
  8
0
 10
34.15240694794106
 20
34.71363437910707
 30
0.0
  0
VERTEX
  5
5427
  8
0
 10
34.184115918915083
 20
34.672766138707971
 30
0.0
  0
VERTEX
  5
5428
  8
0
 10
34.216832824410893
 20
34.63597661929451
 30
0.0
  0
VERTEX
  5
5429
  8
0
 10
34.223220633284441
 20
34.629334567495661
 30
0.0
  0
SEQEND
  5
542A
  8
0
  0
POLYLINE
  5
5138
  8
0
 66
     1
 10
0.0
 20
0.0
 30
0.0
  0
VERTEX
  5
542B
  8
0
 10
34.015970469445257
 20
35.223787710328907
 30
0.0
  0
VERTEX
  5
542C
  8
0
 10
34.012096941598116
 20
35.16162333338864
 30
0.0
  0
VERTEX
  5
542D
  8
0
 10
34.012018532348037
 20
35.15695113211936
 30
0.0
  0
VERTEX
  5
542E
  8
0
 10
34.011970324921762
 20
35.152356290075261
 30
0.0
  0
SEQEND
  5
542F
  8
0
  0
LINE
  5
513A
  8
0
 10
53.176664264850253
 20
36.19812882040231
 30
0.0
 11
44.932163301715121
 21
36.486012674782032
 31
0.0
  0
LINE
  5
513B
  8
0
 10
54.402307432126548
 20
34.848471876351489
 30
0.0
 11
53.567711301503699
 21
34.877491834382951
 31
0.0
  0
LINE
  5
513C
  8
0
 10
56.032029554232537
 20
33.290871529415071
 30
0.0
 11
52.943788863703702
 21
33.398617194603133
 31
0.0
  0
LINE
  5
513E
  8
0
 10
58.300302135109263
 20
31.449558349588852
 30
0.0
 11
47.086111672709507
 21
31.841166509762861
 31
0.0
  0
POLYLINE
  5
513F
  8
0
 66
     1
 10
0.0
 20
0.0
 30
0.0
  0
VERTEX
  5
5430
  8
0
 10
44.971818342690398
 20
37.677435402504592
 30
0.0
  0
VERTEX
  5
5431
  8
0
 10
44.854512503759651
 20
37.6814848671428
 30
0.0
  0
VERTEX
  5
5432
  8
0
 10
44.631660241196329
 20
37.688877820251243
 30
0.0
  0
VERTEX
  5
5433
  8
0
 10
44.408982425971011
 20
37.695871748989681
 30
0.0
  0
VERTEX
  5
5434
  8
0
 10
44.186621155183822
 20
37.70246215724157
 30
0.0
  0
VERTEX
  5
5435
  8
0
 10
43.964713951404548
 20
37.708644930126987
 30
0.0
  0
VERTEX
  5
5436
  8
0
 10
43.743398008535372
 20
37.714416188441213
 30
0.0
  0
VERTEX
  5
5437
  8
0
 10
43.522810089441379
 20
37.719772290763082
 30
0.0
  0
VERTEX
  5
5438
  8
0
 10
43.303086423075086
 20
37.724709835147031
 30
0.0
  0
VERTEX
  5
5439
  8
0
 10
43.084362601200127
 20
37.729225660374283
 30
0.0
  0
VERTEX
  5
543A
  8
0
 10
42.866773474593039
 20
37.73331684673979
 30
0.0
  0
VERTEX
  5
543B
  8
0
 10
42.65045304858009
 20
37.736980716345222
 30
0.0
  0
VERTEX
  5
543C
  8
0
 10
42.435534377748219
 20
37.740214832860929
 30
0.0
  0
VERTEX
  5
543D
  8
0
 10
42.222149459635858
 20
37.743017000710879
 30
0.0
  0
VERTEX
  5
543E
  8
0
 10
42.010429127180068
 20
37.745385263624321
 30
0.0
  0
VERTEX
  5
543F
  8
0
 10
41.800502939649817
 20
37.747317902485932
 30
0.0
  0
VERTEX
  5
5440
  8
0
 10
41.592499071748108
 20
37.748813432401178
 30
0.0
  0
VERTEX
  5
5441
  8
0
 10
41.386544200502023
 20
37.749870598875617
 30
0.0
  0
VERTEX
  5
5442
  8
0
 10
41.18276338948354
 20
37.750488372985018
 30
0.0
  0
VERTEX
  5
5443
  8
0
 10
40.981279969815127
 20
37.750665945385862
 30
0.0
  0
VERTEX
  5
5444
  8
0
 10
40.782215417297699
 20
37.750402718982592
 30
0.0
  0
VERTEX
  5
5445
  8
0
 10
40.585689224863849
 20
37.749698300025223
 30
0.0
  0
VERTEX
  5
5446
  8
0
 10
40.391818769386852
 20
37.748552487359518
 30
0.0
  0
VERTEX
  5
5447
  8
0
 10
40.200719171664083
 20
37.746965259484391
 30
0.0
  0
VERTEX
  5
5448
  8
0
 10
40.012503148131287
 20
37.744936758987578
 30
0.0
  0
VERTEX
  5
5449
  8
0
 10
39.827280852532319
 20
37.742467273822712
 30
0.0
  0
VERTEX
  5
544A
  8
0
 10
39.645159705350331
 20
37.739557214751642
 30
0.0
  0
VERTEX
  5
544B
  8
0
 10
39.466244208276329
 20
37.736207088096663
 30
0.0
  0
VERTEX
  5
544C
  8
0
 10
39.290635740309177
 20
37.732417462711368
 30
0.0
  0
VERTEX
  5
544D
  8
0
 10
39.118432331202968
 20
37.728188929769729
 30
0.0
  0
VERTEX
  5
544E
  8
0
 10
38.949728406831113
 20
37.723522053561311
 30
0.0
  0
VERTEX
  5
544F
  8
0
 10
38.784614499532083
 20
37.718417310928828
 30
0.0
  0
VERTEX
  5
5450
  8
0
 10
38.623176914500938
 20
37.712875016237511
 30
0.0
  0
VERTEX
  5
5451
  8
0
 10
38.465497340607818
 20
37.70689522774309
 30
0.0
  0
VERTEX
  5
5452
  8
0
 10
38.311652390377141
 20
37.700477629809882
 30
0.0
  0
VERTEX
  5
5453
  8
0
 10
38.161713048846231
 20
37.693621383445468
 30
0.0
  0
VERTEX
  5
5454
  8
0
 10
38.015744004028171
 20
37.68632493479835
 30
0.0
  0
VERTEX
  5
5455
  8
0
 10
37.873802821795252
 20
37.67858576719528
 30
0.0
  0
VERTEX
  5
5456
  8
0
 10
37.735938913741663
 20
37.67040007632869
 30
0.0
  0
VERTEX
  5
5457
  8
0
 10
37.602192225674379
 20
37.661762339294803
 30
0.0
  0
VERTEX
  5
5458
  8
0
 10
37.472591543103057
 20
37.652664734611783
 30
0.0
  0
VERTEX
  5
5459
  8
0
 10
37.347152262251861
 20
37.643096349207298
 30
0.0
  0
VERTEX
  5
545A
  8
0
 10
37.225873400068771
 20
37.633042074601178
 30
0.0
  0
VERTEX
  5
545B
  8
0
 10
37.108733495674791
 20
37.622481039043038
 30
0.0
  0
VERTEX
  5
545C
  8
0
 10
36.995684854250591
 20
37.611384328273623
 30
0.0
  0
VERTEX
  5
545D
  8
0
 10
36.886645236932317
 20
37.599711582007487
 30
0.0
  0
VERTEX
  5
545E
  8
0
 10
36.78148547630358
 20
37.587405749282297
 30
0.0
  0
VERTEX
  5
545F
  8
0
 10
36.680010323348348
 20
37.574384699696537
 30
0.0
  0
VERTEX
  5
5460
  8
0
 10
36.58192750446333
 20
37.560527190304462
 30
0.0
  0
VERTEX
  5
5461
  8
0
 10
36.486795071133692
 20
37.545648071098341
 30
0.0
  0
VERTEX
  5
5462
  8
0
 10
36.393926154622633
 20
37.529451422805927
 30
0.0
  0
VERTEX
  5
5463
  8
0
 10
36.302204319821143
 20
37.511434342633208
 30
0.0
  0
VERTEX
  5
5464
  8
0
 10
36.209703276733741
 20
37.490669686360718
 30
0.0
  0
VERTEX
  5
5465
  8
0
 10
36.112957542326377
 20
37.465285477918528
 30
0.0
  0
VERTEX
  5
5466
  8
0
 10
36.031202602035741
 20
37.439945184487613
 30
0.0
  0
VERTEX
  5
5467
  8
0
 10
35.967843662310983
 20
37.41710879793461
 30
0.0
  0
VERTEX
  5
5468
  8
0
 10
35.913148180357531
 20
37.394584225949487
 30
0.0
  0
VERTEX
  5
5469
  8
0
 10
35.864059601569103
 20
37.371691658906222
 30
0.0
  0
VERTEX
  5
546A
  8
0
 10
35.818747020221707
 20
37.347901274714737
 30
0.0
  0
VERTEX
  5
546B
  8
0
 10
35.77604924122884
 20
37.32275275797096
 30
0.0
  0
VERTEX
  5
546C
  8
0
 10
35.73523325062289
 20
37.295829212947282
 30
0.0
  0
VERTEX
  5
546D
  8
0
 10
35.695857749286212
 20
37.266741685430013
 30
0.0
  0
VERTEX
  5
546E
  8
0
 10
35.657697893012518
 20
37.235124268565272
 30
0.0
  0
VERTEX
  5
546F
  8
0
 10
35.620705583283822
 20
37.200639978632822
 30
0.0
  0
VERTEX
  5
5470
  8
0
 10
35.584988564578033
 20
37.162997106780708
 30
0.0
  0
VERTEX
  5
5471
  8
0
 10
35.550796090196322
 20
37.121974449060737
 30
0.0
  0
VERTEX
  5
5472
  8
0
 10
35.518501297747981
 20
37.077451097997667
 30
0.0
  0
VERTEX
  5
5473
  8
0
 10
35.485369251844112
 20
37.023803220403039
 30
0.0
  0
VERTEX
  5
5474
  8
0
 10
35.45601398797394
 20
36.966309396184137
 30
0.0
  0
VERTEX
  5
5475
  8
0
 10
35.431168368542373
 20
36.905623241068099
 30
0.0
  0
VERTEX
  5
5476
  8
0
 10
35.411377865023638
 20
36.842433048045521
 30
0.0
  0
VERTEX
  5
5477
  8
0
 10
35.39703652858973
 20
36.77753289062106
 30
0.0
  0
VERTEX
  5
5478
  8
0
 10
35.388308110978848
 20
36.71114218641074
 30
0.0
  0
SEQEND
  5
5479
  8
0
  0
POLYLINE
  5
5140
  8
0
 66
     1
 10
0.0
 20
0.0
 30
0.0
  0
VERTEX
  5
547A
  8
0
 10
36.485146796080109
 20
36.062599868797221
 30
0.0
  0
VERTEX
  5
547B
  8
0
 10
36.49034435478135
 20
36.06451869924836
 30
0.0
  0
VERTEX
  5
547C
  8
0
 10
36.494034217390642
 20
36.06579466668606
 30
0.0
  0
VERTEX
  5
547D
  8
0
 10
36.50275369374274
 20
36.068557709444057
 30
0.0
  0
VERTEX
  5
547E
  8
0
 10
36.516897405471788
 20
36.07265068363543
 30
0.0
  0
VERTEX
  5
547F
  8
0
 10
36.536814115945987
 20
36.077913302755221
 30
0.0
  0
VERTEX
  5
5480
  8
0
 10
36.562789714979807
 20
36.084183572978993
 30
0.0
  0
VERTEX
  5
5481
  8
0
 10
36.595036679258882
 20
36.091300917313191
 30
0.0
  0
VERTEX
  5
5482
  8
0
 10
36.633691373218007
 20
36.099110122567723
 30
0.0
  0
VERTEX
  5
5483
  8
0
 10
36.678818647099639
 20
36.107465182480567
 30
0.0
  0
VERTEX
  5
5484
  8
0
 10
36.730421712817957
 20
36.116232316258163
 30
0.0
  0
VERTEX
  5
5485
  8
0
 10
36.78845468026001
 20
36.125291795782744
 30
0.0
  0
VERTEX
  5
5486
  8
0
 10
36.852835381573847
 20
36.134538561815717
 30
0.0
  0
VERTEX
  5
5487
  8
0
 10
36.923456842831669
 20
36.143881844970309
 30
0.0
  0
VERTEX
  5
5488
  8
0
 10
37.000196582623673
 20
36.153244105681921
 30
0.0
  0
VERTEX
  5
5489
  8
0
 10
37.082923568154612
 20
36.162559600104522
 30
0.0
  0
VERTEX
  5
548A
  8
0
 10
37.171503057107977
 20
36.17177281532561
 30
0.0
  0
VERTEX
  5
548B
  8
0
 10
37.265799728851881
 20
36.180836938725491
 30
0.0
  0
VERTEX
  5
548C
  8
0
 10
37.36567953561471
 20
36.189712456651783
 30
0.0
  0
VERTEX
  5
548D
  8
0
 10
37.47101065382126
 20
36.198365925885383
 30
0.0
  0
VERTEX
  5
548E
  8
0
 10
37.581663837334233
 20
36.206768927735901
 30
0.0
  0
VERTEX
  5
548F
  8
0
 10
37.697512395682601
 20
36.214897195314208
 30
0.0
  0
VERTEX
  5
5490
  8
0
 10
37.818431953725828
 20
36.222729895170183
 30
0.0
  0
VERTEX
  5
5491
  8
0
 10
37.944300097782538
 20
36.230249041305427
 30
0.0
  0
VERTEX
  5
5492
  8
0
 10
38.074995975909339
 20
36.237439019873342
 30
0.0
  0
VERTEX
  5
5493
  8
0
 10
38.210399894054007
 20
36.24428620489428
 30
0.0
  0
VERTEX
  5
5494
  8
0
 10
38.350392932361203
 20
36.250778647989129
 30
0.0
  0
VERTEX
  5
5495
  8
0
 10
38.494856594552552
 20
36.256905827884623
 30
0.0
  0
VERTEX
  5
5496
  8
0
 10
38.643672496120281
 20
36.262658447982353
 30
0.0
  0
VERTEX
  5
5497
  8
0
 10
38.796722092697827
 20
36.268028272492032
 30
0.0
  0
VERTEX
  5
5498
  8
0
 10
38.953886447428303
 20
36.273007993485422
 30
0.0
  0
VERTEX
  5
5499
  8
0
 10
39.115046034782189
 20
36.277591122751531
 30
0.0
  0
VERTEX
  5
549A
  8
0
 10
39.280080577638032
 20
36.281771903567318
 30
0.0
  0
VERTEX
  5
549B
  8
0
 10
39.448868914247988
 20
36.285545238488041
 30
0.0
  0
VERTEX
  5
549C
  8
0
 10
39.621288891775727
 20
36.288906630049702
 30
0.0
  0
VERTEX
  5
549D
  8
0
 10
39.79721728329757
 20
36.291852131902893
 30
0.0
  0
VERTEX
  5
549E
  8
0
 10
39.976529725430659
 20
36.294378308394187
 30
0.0
  0
VERTEX
  5
549F
  8
0
 10
40.159100674046357
 20
36.296482201005162
 30
0.0
  0
VERTEX
  5
54A0
  8
0
 10
40.344803375815417
 20
36.298161300371902
 30
0.0
  0
VERTEX
  5
54A1
  8
0
 10
40.533509853607292
 20
36.299413522855829
 30
0.0
  0
VERTEX
  5
54A2
  8
0
 10
40.72509090401374
 20
36.3002371908347
 30
0.0
  0
VERTEX
  5
54A3
  8
0
 10
40.919416105489489
 20
36.300631016040029
 30
0.0
  0
VERTEX
  5
54A4
  8
0
 10
41.116353835797867
 20
36.300594085393513
 30
0.0
  0
VERTEX
  5
54A5
  8
0
 10
41.315771297622661
 20
36.300125848896023
 30
0.0
  0
VERTEX
  5
54A6
  8
0
 10
41.517534551352163
 20
36.299226109204483
 30
0.0
  0
VERTEX
  5
54A7
  8
0
 10
41.721508554171159
 20
36.297895012597543
 30
0.0
  0
VERTEX
  5
54A8
  8
0
 10
41.927557204705778
 20
36.296133041084012
 30
0.0
  0
VERTEX
  5
54A9
  8
0
 10
42.135543392559534
 20
36.293941005452069
 30
0.0
  0
VERTEX
  5
54AA
  8
0
 10
42.345329052158696
 20
36.291320039091651
 30
0.0
  0
VERTEX
  5
54AB
  8
0
 10
42.556775220395863
 20
36.288271592452212
 30
0.0
  0
VERTEX
  5
54AC
  8
0
 10
42.769742097615371
 20
36.284797428021612
 30
0.0
  0
VERTEX
  5
54AD
  8
0
 10
42.984089111537429
 20
36.280899615731506
 30
0.0
  0
VERTEX
  5
54AE
  8
0
 10
43.199674983758797
 20
36.276580528711087
 30
0.0
  0
VERTEX
  5
54AF
  8
0
 10
43.416357798502389
 20
36.271842839324883
 30
0.0
  0
VERTEX
  5
54B0
  8
0
 10
43.633995073321138
 20
36.266689515441421
 30
0.0
  0
VERTEX
  5
54B1
  8
0
 10
43.852443831485658
 20
36.26112381689012
 30
0.0
  0
VERTEX
  5
54B2
  8
0
 10
44.071560675806182
 20
36.255149292071067
 30
0.0
  0
VERTEX
  5
54B3
  8
0
 10
44.291201863659609
 20
36.248769774690359
 30
0.0
  0
VERTEX
  5
54B4
  8
0
 10
44.51122338300312
 20
36.241989380600018
 30
0.0
  0
VERTEX
  5
54B5
  8
0
 10
44.731481029173757
 20
36.234812504726477
 30
0.0
  0
VERTEX
  5
54B6
  8
0
 10
44.921121479376239
 20
36.228321939710838
 30
0.0
  0
SEQEND
  5
54B7
  8
0
  0
POLYLINE
  5
5143
  8
0
 10
44.921121260404171
 20
36.228321949854838
 30
0.0
 66
     1
 70
     8
  0
VERTEX
  8
0
  5
5BAE
 10
44.9211
 20
36.2283
 30
0.000000
  70
    32
  0
VERTEX
  8
0
  5
5BAF
 10
44.9212
 20
36.2285
 30
0.000000
  70
    32
  0
VERTEX
  8
0
  5
5BB0
 10
44.9213
 20
36.2292
 30
0.000000
  70
    32
  0
VERTEX
  8
0
  5
5BB1
 10
44.9214
 20
36.2303
 30
0.000000
  70
    32
  0
VERTEX
  8
0
  5
5BB2
 10
44.9215
 20
36.2318
 30
0.000000
  70
    32
  0
VERTEX
  8
0
  5
5BB3
 10
44.9216
 20
36.2338
 30
0.000000
  70
    32
  0
VERTEX
  8
0
  5
5BB4
 10
44.9218
 20
36.2361
 30
0.000000
  70
    32
  0
VERTEX
  8
0
  5
5BB5
 10
44.9219
 20
36.2390
 30
0.000000
  70
    32
  0
VERTEX
  8
0
  5
5BB6
 10
44.9221
 20
36.2422
 30
0.000000
  70
    32
  0
VERTEX
  8
0
  5
5BB7
 10
44.9223
 20
36.2459
 30
0.000000
  70
    32
  0
VERTEX
  8
0
  5
5BB8
 10
44.9225
 20
36.2500
 30
0.000000
  70
    32
  0
VERTEX
  8
0
  5
5BB9
 10
44.9227
 20
36.2545
 30
0.000000
  70
    32
  0
VERTEX
  8
0
  5
5BBA
 10
44.9230
 20
36.2595
 30
0.000000
  70
    32
  0
VERTEX
  8
0
  5
5BBB
 10
44.9232
 20
36.2648
 30
0.000000
  70
    32
  0
VERTEX
  8
0
  5
5BBC
 10
44.9235
 20
36.2706
 30
0.000000
  70
    32
  0
VERTEX
  8
0
  5
5BBD
 10
44.9238
 20
36.2768
 30
0.000000
  70
    32
  0
VERTEX
  8
0
  5
5BBE
 10
44.9241
 20
36.2834
 30
0.000000
  70
    32
  0
VERTEX
  8
0
  5
5BBF
 10
44.9244
 20
36.2904
 30
0.000000
  70
    32
  0
VERTEX
  8
0
  5
5BC0
 10
44.9247
 20
36.2978
 30
0.000000
  70
    32
  0
VERTEX
  8
0
  5
5BC1
 10
44.9250
 20
36.3056
 30
0.000000
  70
    32
  0
VERTEX
  8
0
  5
5BC2
 10
44.9254
 20
36.3138
 30
0.000000
  70
    32
  0
VERTEX
  8
0
  5
5BC3
 10
44.9257
 20
36.3224
 30
0.000000
  70
    32
  0
VERTEX
  8
0
  5
5BC4
 10
44.9261
 20
36.3313
 30
0.000000
  70
    32
  0
VERTEX
  8
0
  5
5BC5
 10
44.9265
 20
36.3407
 30
0.000000
  70
    32
  0
VERTEX
  8
0
  5
5BC6
 10
44.9269
 20
36.3503
 30
0.000000
  70
    32
  0
VERTEX
  8
0
  5
5BC7
 10
44.9273
 20
36.3604
 30
0.000000
  70
    32
  0
VERTEX
  8
0
  5
5BC8
 10
44.9277
 20
36.3708
 30
0.000000
  70
    32
  0
VERTEX
  8
0
  5
5BC9
 10
44.9281
 20
36.3816
 30
0.000000
  70
    32
  0
VERTEX
  8
0
  5
5BCA
 10
44.9286
 20
36.3927
 30
0.000000
  70
    32
  0
VERTEX
  8
0
  5
5BCB
 10
44.9290
 20
36.4041
 30
0.000000
  70
    32
  0
VERTEX
  8
0
  5
5BCC
 10
44.9295
 20
36.4159
 30
0.000000
  70
    32
  0
VERTEX
  8
0
  5
5BCD
 10
44.9299
 20
36.4280
 30
0.000000
  70
    32
  0
VERTEX
  8
0
  5
5BCE
 10
44.9304
 20
36.4404
 30
0.000000
  70
    32
  0
VERTEX
  8
0
  5
5BCF
 10
44.9309
 20
36.4532
 30
0.000000
  70
    32
  0
VERTEX
  8
0
  5
5BD0
 10
44.9314
 20
36.4662
 30
0.000000
  70
    32
  0
VERTEX
  8
0
  5
5BD1
 10
44.9319
 20
36.4795
 30
0.000000
  70
    32
  0
VERTEX
  8
0
  5
5BD2
 10
44.9324
 20
36.4931
 30
0.000000
  70
    32
  0
VERTEX
  8
0
  5
5BD3
 10
44.9330
 20
36.5070
 30
0.000000
  70
    32
  0
VERTEX
  8
0
  5
5BD4
 10
44.9335
 20
36.5211
 30
0.000000
  70
    32
  0
VERTEX
  8
0
  5
5BD5
 10
44.9340
 20
36.5356
 30
0.000000
  70
    32
  0
VERTEX
  8
0
  5
5BD6
 10
44.9346
 20
36.5502
 30
0.000000
  70
    32
  0
VERTEX
  8
0
  5
5BD7
 10
44.9351
 20
36.5651
 30
0.000000
  70
    32
  0
VERTEX
  8
0
  5
5BD8
 10
44.9357
 20
36.5803
 30
0.000000
  70
    32
  0
VERTEX
  8
0
  5
5BD9
 10
44.9363
 20
36.5956
 30
0.000000
  70
    32
  0
VERTEX
  8
0
  5
5BDA
 10
44.9369
 20
36.6112
 30
0.000000
  70
    32
  0
VERTEX
  8
0
  5
5BDB
 10
44.9374
 20
36.6270
 30
0.000000
  70
    32
  0
VERTEX
  8
0
  5
5BDC
 10
44.9380
 20
36.6430
 30
0.000000
  70
    32
  0
VERTEX
  8
0
  5
5BDD
 10
44.9386
 20
36.6591
 30
0.000000
  70
    32
  0
VERTEX
  8
0
  5
5BDE
 10
44.9392
 20
36.6755
 30
0.000000
  70
    32
  0
VERTEX
  8
0
  5
5BDF
 10
44.9398
 20
36.6920
 30
0.000000
  70
    32
  0
VERTEX
  8
0
  5
5BE0
 10
44.9404
 20
36.7086
 30
0.000000
  70
    32
  0
VERTEX
  8
0
  5
5BE1
 10
44.9410
 20
36.7255
 30
0.000000
  70
    32
  0
VERTEX
  8
0
  5
5BE2
 10
44.9416
 20
36.7424
 30
0.000000
  70
    32
  0
VERTEX
  8
0
  5
5BE3
 10
44.9423
 20
36.7595
 30
0.000000
  70
    32
  0
VERTEX
  8
0
  5
5BE4
 10
44.9429
 20
36.7767
 30
0.000000
  70
    32
  0
VERTEX
  8
0
  5
5BE5
 10
44.9435
 20
36.7940
 30
0.000000
  70
    32
  0
VERTEX
  8
0
  5
5BE6
 10
44.9441
 20
36.8114
 30
0.000000
  70
    32
  0
VERTEX
  8
0
  5
5BE7
 10
44.9447
 20
36.8289
 30
0.000000
  70
    32
  0
VERTEX
  8
0
  5
5BE8
 10
44.9454
 20
36.8464
 30
0.000000
  70
    32
  0
VERTEX
  8
0
  5
5BE9
 10
44.9460
 20
36.8640
 30
0.000000
  70
    32
  0
VERTEX
  8
0
  5
5BEA
 10
44.9466
 20
36.8817
 30
0.000000
  70
    32
  0
VERTEX
  8
0
  5
5BEB
 10
44.9472
 20
36.8994
 30
0.000000
  70
    32
  0
VERTEX
  8
0
  5
5BEC
 10
44.9479
 20
36.9172
 30
0.000000
  70
    32
  0
VERTEX
  8
0
  5
5BED
 10
44.9485
 20
36.9350
 30
0.000000
  70
    32
  0
VERTEX
  8
0
  5
5BEE
 10
44.9491
 20
36.9527
 30
0.000000
  70
    32
  0
VERTEX
  8
0
  5
5BEF
 10
44.9497
 20
36.9705
 30
0.000000
  70
    32
  0
VERTEX
  8
0
  5
5BF0
 10
44.9504
 20
36.9883
 30
0.000000
  70
    32
  0
VERTEX
  8
0
  5
5BF1
 10
44.9510
 20
37.0060
 30
0.000000
  70
    32
  0
VERTEX
  8
0
  5
5BF2
 10
44.9516
 20
37.0238
 30
0.000000
  70
    32
  0
VERTEX
  8
0
  5
5BF3
 10
44.9522
 20
37.0414
 30
0.000000
  70
    32
  0
VERTEX
  8
0
  5
5BF4
 10
44.9528
 20
37.0591
 30
0.000000
  70
    32
  0
VERTEX
  8
0
  5
5BF5
 10
44.9534
 20
37.0766
 30
0.000000
  70
    32
  0
VERTEX
  8
0
  5
5BF6
 10
44.9540
 20
37.0941
 30
0.000000
  70
    32
  0
VERTEX
  8
0
  5
5BF7
 10
44.9546
 20
37.1115
 30
0.000000
  70
    32
  0
VERTEX
  8
0
  5
5BF8
 10
44.9552
 20
37.1288
 30
0.000000
  70
    32
  0
VERTEX
  8
0
  5
5BF9
 10
44.9558
 20
37.1460
 30
0.000000
  70
    32
  0
VERTEX
  8
0
  5
5BFA
 10
44.9564
 20
37.1631
 30
0.000000
  70
    32
  0
VERTEX
  8
0
  5
5BFB
 10
44.9569
 20
37.1800
 30
0.000000
  70
    32
  0
VERTEX
  8
0
  5
5BFC
 10
44.9575
 20
37.1968
 30
0.000000
  70
    32
  0
VERTEX
  8
0
  5
5BFD
 10
44.9581
 20
37.2135
 30
0.000000
  70
    32
  0
VERTEX
  8
0
  5
5BFE
 10
44.9586
 20
37.2300
 30
0.000000
  70
    32
  0
VERTEX
  8
0
  5
5BFF
 10
44.9592
 20
37.2464
 30
0.000000
  70
    32
  0
VERTEX
  8
0
  5
5C00
 10
44.9597
 20
37.2625
 30
0.000000
  70
    32
  0
VERTEX
  8
0
  5
5C01
 10
44.9602
 20
37.2785
 30
0.000000
  70
    32
  0
VERTEX
  8
0
  5
5C02
 10
44.9608
 20
37.2943
 30
0.000000
  70
    32
  0
VERTEX
  8
0
  5
5C03
 10
44.9613
 20
37.3099
 30
0.000000
  70
    32
  0
VERTEX
  8
0
  5
5C04
 10
44.9618
 20
37.3253
 30
0.000000
  70
    32
  0
VERTEX
  8
0
  5
5C05
 10
44.9623
 20
37.3404
 30
0.000000
  70
    32
  0
VERTEX
  8
0
  5
5C06
 10
44.9628
 20
37.3553
 30
0.000000
  70
    32
  0
VERTEX
  8
0
  5
5C07
 10
44.9632
 20
37.3700
 30
0.000000
  70
    32
  0
VERTEX
  8
0
  5
5C08
 10
44.9637
 20
37.3844
 30
0.000000
  70
    32
  0
VERTEX
  8
0
  5
5C09
 10
44.9642
 20
37.3985
 30
0.000000
  70
    32
  0
VERTEX
  8
0
  5
5C0A
 10
44.9646
 20
37.4124
 30
0.000000
  70
    32
  0
VERTEX
  8
0
  5
5C0B
 10
44.9650
 20
37.4260
 30
0.000000
  70
    32
  0
VERTEX
  8
0
  5
5C0C
 10
44.9655
 20
37.4394
 30
0.000000
  70
    32
  0
VERTEX
  8
0
  5
5C0D
 10
44.9659
 20
37.4524
 30
0.000000
  70
    32
  0
VERTEX
  8
0
  5
5C0E
 10
44.9663
 20
37.4651
 30
0.000000
  70
    32
  0
VERTEX
  8
0
  5
5C0F
 10
44.9667
 20
37.4775
 30
0.000000
  70
    32
  0
VERTEX
  8
0
  5
5C10
 10
44.9670
 20
37.4897
 30
0.000000
  70
    32
  0
VERTEX
  8
0
  5
5C11
 10
44.9674
 20
37.5014
 30
0.000000
  70
    32
  0
VERTEX
  8
0
  5
5C12
 10
44.9677
 20
37.5129
 30
0.000000
  70
    32
  0
VERTEX
  8
0
  5
5C13
 10
44.9681
 20
37.5240
 30
0.000000
  70
    32
  0
VERTEX
  8
0
  5
5C14
 10
44.9684
 20
37.5348
 30
0.000000
  70
    32
  0
VERTEX
  8
0
  5
5C15
 10
44.9687
 20
37.5452
 30
0.000000
  70
    32
  0
VERTEX
  8
0
  5
5C16
 10
44.9690
 20
37.5553
 30
0.000000
  70
    32
  0
VERTEX
  8
0
  5
5C17
 10
44.9693
 20
37.5650
 30
0.000000
  70
    32
  0
VERTEX
  8
0
  5
5C18
 10
44.9696
 20
37.5743
 30
0.000000
  70
    32
  0
VERTEX
  8
0
  5
5C19
 10
44.9698
 20
37.5832
 30
0.000000
  70
    32
  0
VERTEX
  8
0
  5
5C1A
 10
44.9701
 20
37.5918
 30
0.000000
  70
    32
  0
VERTEX
  8
0
  5
5C1B
 10
44.9703
 20
37.6000
 30
0.000000
  70
    32
  0
VERTEX
  8
0
  5
5C1C
 10
44.9705
 20
37.6078
 30
0.000000
  70
    32
  0
VERTEX
  8
0
  5
5C1D
 10
44.9707
 20
37.6152
 30
0.000000
  70
    32
  0
VERTEX
  8
0
  5
5C1E
 10
44.9709
 20
37.6222
 30
0.000000
  70
    32
  0
VERTEX
  8
0
  5
5C1F
 10
44.9711
 20
37.6288
 30
0.000000
  70
    32
  0
VERTEX
  8
0
  5
5C20
 10
44.9712
 20
37.6350
 30
0.000000
  70
    32
  0
VERTEX
  8
0
  5
5C21
 10
44.9714
 20
37.6408
 30
0.000000
  70
    32
  0
VERTEX
  8
0
  5
5C22
 10
44.9715
 20
37.6462
 30
0.000000
  70
    32
  0
VERTEX
  8
0
  5
5C23
 10
44.9716
 20
37.6512
 30
0.000000
  70
    32
  0
VERTEX
  8
0
  5
5C24
 10
44.9717
 20
37.6557
 30
0.000000
  70
    32
  0
VERTEX
  8
0
  5
5C25
 10
44.9718
 20
37.6598
 30
0.000000
  70
    32
  0
VERTEX
  8
0
  5
5C26
 10
44.9718
 20
37.6635
 30
0.000000
  70
    32
  0
VERTEX
  8
0
  5
5C27
 10
44.9719
 20
37.6667
 30
0.000000
  70
    32
  0
VERTEX
  8
0
  5
5C28
 10
44.9719
 20
37.6696
 30
0.000000
  70
    32
  0
VERTEX
  8
0
  5
5C29
 10
44.9720
 20
37.6720
 30
0.000000
  70
    32
  0
VERTEX
  8
0
  5
5C2A
 10
44.9720
 20
37.6739
 30
0.000000
  70
    32
  0
VERTEX
  8
0
  5
5C2B
 10
44.9719
 20
37.6755
 30
0.000000
  70
    32
  0
VERTEX
  8
0
  5
5C2C
 10
44.9719
 20
37.6766
 30
0.000000
  70
    32
  0
VERTEX
  8
0
  5
5C2D
 10
44.9719
 20
37.6772
 30
0.000000
  70
    32
  0
VERTEX
  8
0
  5
5C2E
 10
44.9718
 20
37.6774
 30
0.000000
  70
    32
  0
SEQEND
  8
0
  5
5C2F
  0
POLYLINE
  5
5144
  8
0
 10
53.168026573865511
 20
36.198333803970414
 30
0.0
 66
     1
 70
     8
  0
VERTEX
  8
0
  5
5C30
 10
53.1680
 20
36.1983
 30
0.000000
  70
    32
  0
VERTEX
  8
0
  5
5C31
 10
53.1679
 20
36.1983
 30
0.000000
  70
    32
  0
VERTEX
  8
0
  5
5C32
 10
53.1678
 20
36.1983
 30
0.000000
  70
    32
  0
VERTEX
  8
0
  5
5C33
 10
53.1676
 20
36.1983
 30
0.000000
  70
    32
  0
VERTEX
  8
0
  5
5C34
 10
53.1675
 20
36.1983
 30
0.000000
  70
    32
  0
VERTEX
  8
0
  5
5C35
 10
53.1674
 20
36.1983
 30
0.000000
  70
    32
  0
VERTEX
  8
0
  5
5C36
 10
53.1672
 20
36.1983
 30
0.000000
  70
    32
  0
VERTEX
  8
0
  5
5C37
 10
53.1671
 20
36.1983
 30
0.000000
  70
    32
  0
VERTEX
  8
0
  5
5C38
 10
53.1670
 20
36.1984
 30
0.000000
  70
    32
  0
VERTEX
  8
0
  5
5C39
 10
53.1668
 20
36.1984
 30
0.000000
  70
    32
  0
VERTEX
  8
0
  5
5C3A
 10
53.1667
 20
36.1984
 30
0.000000
  70
    32
  0
VERTEX
  8
0
  5
5C3B
 10
53.1666
 20
36.1984
 30
0.000000
  70
    32
  0
VERTEX
  8
0
  5
5C3C
 10
53.1664
 20
36.1984
 30
0.000000
  70
    32
  0
VERTEX
  8
0
  5
5C3D
 10
53.1663
 20
36.1984
 30
0.000000
  70
    32
  0
VERTEX
  8
0
  5
5C3E
 10
53.1662
 20
36.1984
 30
0.000000
  70
    32
  0
VERTEX
  8
0
  5
5C3F
 10
53.1660
 20
36.1984
 30
0.000000
  70
    32
  0
VERTEX
  8
0
  5
5C40
 10
53.1659
 20
36.1984
 30
0.000000
  70
    32
  0
VERTEX
  8
0
  5
5C41
 10
53.1658
 20
36.1984
 30
0.000000
  70
    32
  0
VERTEX
  8
0
  5
5C42
 10
53.1656
 20
36.1984
 30
0.000000
  70
    32
  0
VERTEX
  8
0
  5
5C43
 10
53.1655
 20
36.1984
 30
0.000000
  70
    32
  0
VERTEX
  8
0
  5
5C44
 10
53.1654
 20
36.1984
 30
0.000000
  70
    32
  0
VERTEX
  8
0
  5
5C45
 10
53.1652
 20
36.1984
 30
0.000000
  70
    32
  0
VERTEX
  8
0
  5
5C46
 10
53.1651
 20
36.1984
 30
0.000000
  70
    32
  0
VERTEX
  8
0
  5
5C47
 10
53.1650
 20
36.1984
 30
0.000000
  70
    32
  0
VERTEX
  8
0
  5
5C48
 10
53.1648
 20
36.1984
 30
0.000000
  70
    32
  0
VERTEX
  8
0
  5
5C49
 10
53.1647
 20
36.1984
 30
0.000000
  70
    32
  0
VERTEX
  8
0
  5
5C4A
 10
53.1646
 20
36.1984
 30
0.000000
  70
    32
  0
VERTEX
  8
0
  5
5C4B
 10
53.1644
 20
36.1984
 30
0.000000
  70
    32
  0
VERTEX
  8
0
  5
5C4C
 10
53.1643
 20
36.1984
 30
0.000000
  70
    32
  0
VERTEX
  8
0
  5
5C4D
 10
53.1642
 20
36.1984
 30
0.000000
  70
    32
  0
VERTEX
  8
0
  5
5C4E
 10
53.1640
 20
36.1984
 30
0.000000
  70
    32
  0
VERTEX
  8
0
  5
5C4F
 10
53.1639
 20
36.1984
 30
0.000000
  70
    32
  0
VERTEX
  8
0
  5
5C50
 10
53.1638
 20
36.1984
 30
0.000000
  70
    32
  0
VERTEX
  8
0
  5
5C51
 10
53.1636
 20
36.1984
 30
0.000000
  70
    32
  0
VERTEX
  8
0
  5
5C52
 10
53.1635
 20
36.1984
 30
0.000000
  70
    32
  0
VERTEX
  8
0
  5
5C53
 10
53.1634
 20
36.1984
 30
0.000000
  70
    32
  0
VERTEX
  8
0
  5
5C54
 10
53.1632
 20
36.1984
 30
0.000000
  70
    32
  0
VERTEX
  8
0
  5
5C55
 10
53.1631
 20
36.1984
 30
0.000000
  70
    32
  0
VERTEX
  8
0
  5
5C56
 10
53.1630
 20
36.1984
 30
0.000000
  70
    32
  0
VERTEX
  8
0
  5
5C57
 10
53.1628
 20
36.1984
 30
0.000000
  70
    32
  0
VERTEX
  8
0
  5
5C58
 10
53.1627
 20
36.1984
 30
0.000000
  70
    32
  0
VERTEX
  8
0
  5
5C59
 10
53.1626
 20
36.1984
 30
0.000000
  70
    32
  0
VERTEX
  8
0
  5
5C5A
 10
53.1624
 20
36.1984
 30
0.000000
  70
    32
  0
VERTEX
  8
0
  5
5C5B
 10
53.1623
 20
36.1984
 30
0.000000
  70
    32
  0
VERTEX
  8
0
  5
5C5C
 10
53.1622
 20
36.1984
 30
0.000000
  70
    32
  0
VERTEX
  8
0
  5
5C5D
 10
53.1620
 20
36.1984
 30
0.000000
  70
    32
  0
VERTEX
  8
0
  5
5C5E
 10
53.1619
 20
36.1984
 30
0.000000
  70
    32
  0
VERTEX
  8
0
  5
5C5F
 10
53.1618
 20
36.1984
 30
0.000000
  70
    32
  0
VERTEX
  8
0
  5
5C60
 10
53.1616
 20
36.1984
 30
0.000000
  70
    32
  0
VERTEX
  8
0
  5
5C61
 10
53.1615
 20
36.1984
 30
0.000000
  70
    32
  0
VERTEX
  8
0
  5
5C62
 10
53.1614
 20
36.1984
 30
0.000000
  70
    32
  0
VERTEX
  8
0
  5
5C63
 10
53.1612
 20
36.1984
 30
0.000000
  70
    32
  0
VERTEX
  8
0
  5
5C64
 10
53.1611
 20
36.1984
 30
0.000000
  70
    32
  0
VERTEX
  8
0
  5
5C65
 10
53.1610
 20
36.1984
 30
0.000000
  70
    32
  0
VERTEX
  8
0
  5
5C66
 10
53.1608
 20
36.1984
 30
0.000000
  70
    32
  0
VERTEX
  8
0
  5
5C67
 10
53.1607
 20
36.1984
 30
0.000000
  70
    32
  0
VERTEX
  8
0
  5
5C68
 10
53.1606
 20
36.1984
 30
0.000000
  70
    32
  0
VERTEX
  8
0
  5
5C69
 10
53.1604
 20
36.1984
 30
0.000000
  70
    32
  0
VERTEX
  8
0
  5
5C6A
 10
53.1603
 20
36.1984
 30
0.000000
  70
    32
  0
VERTEX
  8
0
  5
5C6B
 10
53.1602
 20
36.1984
 30
0.000000
  70
    32
  0
VERTEX
  8
0
  5
5C6C
 10
53.1600
 20
36.1984
 30
0.000000
  70
    32
  0
VERTEX
  8
0
  5
5C6D
 10
53.1599
 20
36.1984
 30
0.000000
  70
    32
  0
VERTEX
  8
0
  5
5C6E
 10
53.1598
 20
36.1984
 30
0.000000
  70
    32
  0
VERTEX
  8
0
  5
5C6F
 10
53.1596
 20
36.1984
 30
0.000000
  70
    32
  0
VERTEX
  8
0
  5
5C70
 10
53.1595
 20
36.1984
 30
0.000000
  70
    32
  0
VERTEX
  8
0
  5
5C71
 10
53.1594
 20
36.1984
 30
0.000000
  70
    32
  0
VERTEX
  8
0
  5
5C72
 10
53.1592
 20
36.1984
 30
0.000000
  70
    32
  0
VERTEX
  8
0
  5
5C73
 10
53.1591
 20
36.1984
 30
0.000000
  70
    32
  0
VERTEX
  8
0
  5
5C74
 10
53.1590
 20
36.1984
 30
0.000000
  70
    32
  0
VERTEX
  8
0
  5
5C75
 10
53.1588
 20
36.1984
 30
0.000000
  70
    32
  0
VERTEX
  8
0
  5
5C76
 10
53.1587
 20
36.1984
 30
0.000000
  70
    32
  0
VERTEX
  8
0
  5
5C77
 10
53.1586
 20
36.1984
 30
0.000000
  70
    32
  0
VERTEX
  8
0
  5
5C78
 10
53.1584
 20
36.1984
 30
0.000000
  70
    32
  0
VERTEX
  8
0
  5
5C79
 10
53.1583
 20
36.1984
 30
0.000000
  70
    32
  0
VERTEX
  8
0
  5
5C7A
 10
53.1582
 20
36.1984
 30
0.000000
  70
    32
  0
VERTEX
  8
0
  5
5C7B
 10
53.1580
 20
36.1984
 30
0.000000
  70
    32
  0
VERTEX
  8
0
  5
5C7C
 10
53.1579
 20
36.1984
 30
0.000000
  70
    32
  0
VERTEX
  8
0
  5
5C7D
 10
53.1578
 20
36.1984
 30
0.000000
  70
    32
  0
VERTEX
  8
0
  5
5C7E
 10
53.1576
 20
36.1984
 30
0.000000
  70
    32
  0
VERTEX
  8
0
  5
5C7F
 10
53.1575
 20
36.1984
 30
0.000000
  70
    32
  0
VERTEX
  8
0
  5
5C80
 10
53.1574
 20
36.1984
 30
0.000000
  70
    32
  0
VERTEX
  8
0
  5
5C81
 10
53.1572
 20
36.1984
 30
0.000000
  70
    32
  0
VERTEX
  8
0
  5
5C82
 10
53.1571
 20
36.1984
 30
0.000000
  70
    32
  0
VERTEX
  8
0
  5
5C83
 10
53.1570
 20
36.1984
 30
0.000000
  70
    32
  0
VERTEX
  8
0
  5
5C84
 10
53.1568
 20
36.1984
 30
0.000000
  70
    32
  0
VERTEX
  8
0
  5
5C85
 10
53.1567
 20
36.1984
 30
0.000000
  70
    32
  0
VERTEX
  8
0
  5
5C86
 10
53.1566
 20
36.1984
 30
0.000000
  70
    32
  0
VERTEX
  8
0
  5
5C87
 10
53.1564
 20
36.1984
 30
0.000000
  70
    32
  0
VERTEX
  8
0
  5
5C88
 10
53.1563
 20
36.1984
 30
0.000000
  70
    32
  0
VERTEX
  8
0
  5
5C89
 10
53.1562
 20
36.1984
 30
0.000000
  70
    32
  0
VERTEX
  8
0
  5
5C8A
 10
53.1560
 20
36.1984
 30
0.000000
  70
    32
  0
VERTEX
  8
0
  5
5C8B
 10
53.1559
 20
36.1984
 30
0.000000
  70
    32
  0
VERTEX
  8
0
  5
5C8C
 10
53.1558
 20
36.1984
 30
0.000000
  70
    32
  0
VERTEX
  8
0
  5
5C8D
 10
53.1556
 20
36.1984
 30
0.000000
  70
    32
  0
VERTEX
  8
0
  5
5C8E
 10
53.1555
 20
36.1984
 30
0.000000
  70
    32
  0
VERTEX
  8
0
  5
5C8F
 10
53.1554
 20
36.1984
 30
0.000000
  70
    32
  0
VERTEX
  8
0
  5
5C90
 10
53.1552
 20
36.1984
 30
0.000000
  70
    32
  0
VERTEX
  8
0
  5
5C91
 10
53.1551
 20
36.1984
 30
0.000000
  70
    32
  0
VERTEX
  8
0
  5
5C92
 10
53.1550
 20
36.1984
 30
0.000000
  70
    32
  0
VERTEX
  8
0
  5
5C93
 10
53.1548
 20
36.1984
 30
0.000000
  70
    32
  0
VERTEX
  8
0
  5
5C94
 10
53.1547
 20
36.1984
 30
0.000000
  70
    32
  0
VERTEX
  8
0
  5
5C95
 10
53.1546
 20
36.1984
 30
0.000000
  70
    32
  0
VERTEX
  8
0
  5
5C96
 10
53.1544
 20
36.1984
 30
0.000000
  70
    32
  0
VERTEX
  8
0
  5
5C97
 10
53.1543
 20
36.1984
 30
0.000000
  70
    32
  0
VERTEX
  8
0
  5
5C98
 10
53.1542
 20
36.1984
 30
0.000000
  70
    32
  0
VERTEX
  8
0
  5
5C99
 10
53.1540
 20
36.1984
 30
0.000000
  70
    32
  0
VERTEX
  8
0
  5
5C9A
 10
53.1539
 20
36.1984
 30
0.000000
  70
    32
  0
VERTEX
  8
0
  5
5C9B
 10
53.1538
 20
36.1984
 30
0.000000
  70
    32
  0
VERTEX
  8
0
  5
5C9C
 10
53.1536
 20
36.1984
 30
0.000000
  70
    32
  0
VERTEX
  8
0
  5
5C9D
 10
53.1535
 20
36.1984
 30
0.000000
  70
    32
  0
VERTEX
  8
0
  5
5C9E
 10
53.1534
 20
36.1984
 30
0.000000
  70
    32
  0
VERTEX
  8
0
  5
5C9F
 10
53.1532
 20
36.1984
 30
0.000000
  70
    32
  0
VERTEX
  8
0
  5
5CA0
 10
53.1531
 20
36.1984
 30
0.000000
  70
    32
  0
VERTEX
  8
0
  5
5CA1
 10
53.1530
 20
36.1984
 30
0.000000
  70
    32
  0
VERTEX
  8
0
  5
5CA2
 10
53.1528
 20
36.1984
 30
0.000000
  70
    32
  0
VERTEX
  8
0
  5
5CA3
 10
53.1527
 20
36.1984
 30
0.000000
  70
    32
  0
VERTEX
  8
0
  5
5CA4
 10
53.1526
 20
36.1984
 30
0.000000
  70
    32
  0
VERTEX
  8
0
  5
5CA5
 10
53.1524
 20
36.1984
 30
0.000000
  70
    32
  0
VERTEX
  8
0
  5
5CA6
 10
53.1523
 20
36.1984
 30
0.000000
  70
    32
  0
VERTEX
  8
0
  5
5CA7
 10
53.1522
 20
36.1984
 30
0.000000
  70
    32
  0
VERTEX
  8
0
  5
5CA8
 10
53.1520
 20
36.1984
 30
0.000000
  70
    32
  0
VERTEX
  8
0
  5
5CA9
 10
53.1519
 20
36.1984
 30
0.000000
  70
    32
  0
VERTEX
  8
0
  5
5CAA
 10
53.1518
 20
36.1984
 30
0.000000
  70
    32
  0
VERTEX
  8
0
  5
5CAB
 10
53.1516
 20
36.1984
 30
0.000000
  70
    32
  0
VERTEX
  8
0
  5
5CAC
 10
53.1515
 20
36.1984
 30
0.000000
  70
    32
  0
VERTEX
  8
0
  5
5CAD
 10
53.1514
 20
36.1984
 30
0.000000
  70
    32
  0
VERTEX
  8
0
  5
5CAE
 10
53.1512
 20
36.1984
 30
0.000000
  70
    32
  0
VERTEX
  8
0
  5
5CAF
 10
53.1511
 20
36.1984
 30
0.000000
  70
    32
  0
VERTEX
  8
0
  5
5CB0
 10
53.1510
 20
36.1984
 30
0.000000
  70
    32
  0
SEQEND
  8
0
  5
5CB1
  0
LINE
  5
5145
  8
0
 10
53.151381962263287
 20
36.198428789436413
 30
0.0
 11
44.126019085535603
 21
36.198443420460912
 31
0.0
  0
POLYLINE
  5
5146
  8
0
 66
     1
 10
0.0
 20
0.0
 30
0.0
  0
VERTEX
  5
54B8
  8
0
 10
53.523238886407277
 20
34.848785848711522
 30
0.0
  0
VERTEX
  5
54B9
  8
0
 10
53.552554304286822
 20
34.866927824327092
 30
0.0
  0
VERTEX
  5
54BA
  8
0
 10
53.59937442571735
 20
34.90031550972656
 30
0.0
  0
VERTEX
  5
54BB
  8
0
 10
53.644001647472727
 20
34.937856186170848
 30
0.0
  0
VERTEX
  5
54BC
  8
0
 10
53.685850310486877
 20
34.97927309219849
 30
0.0
  0
VERTEX
  5
54BD
  8
0
 10
53.724447798808718
 20
35.024262718463689
 30
0.0
  0
VERTEX
  5
54BE
  8
0
 10
53.75940200657854
 20
35.072497752430678
 30
0.0
  0
VERTEX
  5
54BF
  8
0
 10
53.790382989210322
 20
35.123629280856647
 30
0.0
  0
VERTEX
  5
54C0
  8
0
 10
53.8171126922159
 20
35.177288959963377
 30
0.0
  0
VERTEX
  5
54C1
  8
0
 10
53.839359222269799
 20
35.233091341755532
 30
0.0
  0
VERTEX
  5
54C2
  8
0
 10
53.856933674274877
 20
35.290636385818367
 30
0.0
  0
VERTEX
  5
54C3
  8
0
 10
53.870753865855001
 20
35.355818469390002
 30
0.0
  0
VERTEX
  5
54C4
  8
0
 10
53.878460885387348
 20
35.421011455523718
 30
0.0
  0
VERTEX
  5
54C5
  8
0
 10
53.880258636376183
 20
35.485525057351573
 30
0.0
  0
VERTEX
  5
54C6
  8
0
 10
53.876419653288202
 20
35.548921769281463
 30
0.0
  0
VERTEX
  5
54C7
  8
0
 10
53.867230504877597
 20
35.610791163730347
 30
0.0
  0
VERTEX
  5
54C8
  8
0
 10
53.852995201720923
 20
35.670748170852292
 30
0.0
  0
VERTEX
  5
54C9
  8
0
 10
53.834037279182759
 20
35.728436004172451
 30
0.0
  0
VERTEX
  5
54CA
  8
0
 10
53.81070053355851
 20
35.783528709312179
 30
0.0
  0
VERTEX
  5
54CB
  8
0
 10
53.783348945311879
 20
35.835733395572333
 30
0.0
  0
VERTEX
  5
54CC
  8
0
 10
53.752366148992202
 20
35.884792232578128
 30
0.0
  0
VERTEX
  5
54CD
  8
0
 10
53.7181547184301
 20
35.930484274952377
 30
0.0
  0
VERTEX
  5
54CE
  8
0
 10
53.681135496819287
 20
35.972627173936303
 30
0.0
  0
VERTEX
  5
54CF
  8
0
 10
53.641747197478011
 20
36.01107884139897
 30
0.0
  0
VERTEX
  5
54D0
  8
0
 10
53.600446527560713
 20
36.04573914562404
 30
0.0
  0
VERTEX
  5
54D1
  8
0
 10
53.557709145398888
 20
36.076551739538928
 30
0.0
  0
VERTEX
  5
54D2
  8
0
 10
53.514031861072652
 20
36.10350615008764
 30
0.0
  0
VERTEX
  5
54D3
  8
0
 10
53.46993664710849
 20
36.126640290028917
 30
0.0
  0
VERTEX
  5
54D4
  8
0
 10
53.425977279906569
 20
36.146043582136947
 30
0.0
  0
VERTEX
  5
54D5
  8
0
 10
53.382749891440632
 20
36.1618608823537
 30
0.0
  0
VERTEX
  5
54D6
  8
0
 10
53.340909807885033
 20
36.174297265331191
 30
0.0
  0
VERTEX
  5
54D7
  8
0
 10
53.301200976028532
 20
36.183623212805969
 30
0.0
  0
VERTEX
  5
54D8
  8
0
 10
53.264523820072021
 20
36.190177879418563
 30
0.0
  0
VERTEX
  5
54D9
  8
0
 10
53.23217730000593
 20
36.194362449967251
 30
0.0
  0
VERTEX
  5
54DA
  8
0
 10
53.206680525567812
 20
36.196624939535219
 30
0.0
  0
VERTEX
  5
54DB
  8
0
 10
53.19030747227842
 20
36.197600986088482
 30
0.0
  0
VERTEX
  5
54DC
  8
0
 10
53.180168130816497
 20
36.198019367486438
 30
0.0
  0
VERTEX
  5
54DD
  8
0
 10
53.173365361772511
 20
36.1982205293886
 30
0.0
  0
VERTEX
  5
54DE
  8
0
 10
53.168889845626587
 20
36.198318137350739
 30
0.0
  0
VERTEX
  5
54DF
  8
0
 10
53.167974923401317
 20
36.198334709020969
 30
0.0
  0
SEQEND
  5
54E0
  8
0
  0
POLYLINE
  5
5147
  8
0
 66
     1
 10
0.0
 20
0.0
 30
0.0
  0
VERTEX
  5
54E1
  8
0
 10
44.126019085535603
 20
36.198443420460912
 30
0.0
  0
VERTEX
  5
54E2
  8
0
 10
44.005283980888152
 20
36.198424038615087
 30
0.0
  0
VERTEX
  5
54E3
  8
0
 10
43.775922625990887
 20
36.198238061439099
 30
0.0
  0
VERTEX
  5
54E4
  8
0
 10
43.546744404632683
 20
36.197856736462533
 30
0.0
  0
VERTEX
  5
54E5
  8
0
 10
43.317888727556152
 20
36.197280285567899
 30
0.0
  0
VERTEX
  5
54E6
  8
0
 10
43.089490633732368
 20
36.196509040310538
 30
0.0
  0
VERTEX
  5
54E7
  8
0
 10
42.861684871662739
 20
36.19554344319647
 30
0.0
  0
VERTEX
  5
54E8
  8
0
 10
42.634605812442459
 20
36.194384047234337
 30
0.0
  0
VERTEX
  5
54E9
  8
0
 10
42.408387362623643
 20
36.193031515361078
 30
0.0
  0
VERTEX
  5
54EA
  8
0
 10
42.183162877064689
 20
36.191486619737013
 30
0.0
  0
VERTEX
  5
54EB
  8
0
 10
41.959065071741442
 20
36.189750240905639
 30
0.0
  0
VERTEX
  5
54EC
  8
0
 10
41.736225936492232
 20
36.187823366811493
 30
0.0
  0
VERTEX
  5
54ED
  8
0
 10
41.514776647660462
 20
36.185707091667886
 30
0.0
  0
VERTEX
  5
54EE
  8
0
 10
41.294847480583293
 20
36.183402614664949
 30
0.0
  0
VERTEX
  5
54EF
  8
0
 10
41.076567721872181
 20
36.180911238505857
 30
0.0
  0
VERTEX
  5
54F0
  8
0
 10
40.860065581404427
 20
36.178234367757099
 30
0.0
  0
VERTEX
  5
54F1
  8
0
 10
40.645468103936508
 20
36.175373506995143
 30
0.0
  0
VERTEX
  5
54F2
  8
0
 10
40.432901080221633
 20
36.172330258728827
 30
0.0
  0
VERTEX
  5
54F3
  8
0
 10
40.222488957490818
 20
36.169106321072007
 30
0.0
  0
VERTEX
  5
54F4
  8
0
 10
40.014354749125317
 20
36.16570348513585
 30
0.0
  0
VERTEX
  5
54F5
  8
0
 10
39.808619943304663
 20
36.162123632103892
 30
0.0
  0
VERTEX
  5
54F6
  8
0
 10
39.605404410379421
 20
36.158368729944662
 30
0.0
  0
VERTEX
  5
54F7
  8
0
 10
39.404826308644921
 20
36.154440829706893
 30
0.0
  0
VERTEX
  5
54F8
  8
0
 10
39.207001988139311
 20
36.150342061330221
 30
0.0
  0
VERTEX
  5
54F9
  8
0
 10
39.012045891991683
 20
36.146074628888769
 30
0.0
  0
VERTEX
  5
54FA
  8
0
 10
38.820070454749533
 20
36.141640805165508
 30
0.0
  0
VERTEX
  5
54FB
  8
0
 10
38.63118599697939
 20
36.137042925431231
 30
0.0
  0
VERTEX
  5
54FC
  8
0
 10
38.4455006152754
 20
36.132283380270508
 30
0.0
  0
VERTEX
  5
54FD
  8
0
 10
38.263120066606042
 20
36.12736460725737
 30
0.0
  0
VERTEX
  5
54FE
  8
0
 10
38.084147645672239
 20
36.122289081231841
 30
0.0
  0
VERTEX
  5
54FF
  8
0
 10
37.908684053623439
 20
36.117059302862181
 30
0.0
  0
VERTEX
  5
5500
  8
0
 10
37.736827256060032
 20
36.111677785089782
 30
0.0
  0
VERTEX
  5
5501
  8
0
 10
37.568672327709393
 20
36.106147036939433
 30
0.0
  0
VERTEX
  5
5502
  8
0
 10
37.404311280459837
 20
36.100469544023738
 30
0.0
  0
VERTEX
  5
5503
  8
0
 10
37.243832870509927
 20
36.094647744865853
 30
0.0
  0
VERTEX
  5
5504
  8
0
 10
37.087322379165222
 20
36.088684001885639
 30
0.0
  0
VERTEX
  5
5505
  8
0
 10
36.934861360167851
 20
36.082580565513382
 30
0.0
  0
VERTEX
  5
5506
  8
0
 10
36.786527344208352
 20
36.07633952936655
 30
0.0
  0
VERTEX
  5
5507
  8
0
 10
36.64239348820454
 20
36.069962773683841
 30
0.0
  0
VERTEX
  5
5508
  8
0
 10
36.50252815265916
 20
36.063451893157129
 30
0.0
  0
VERTEX
  5
5509
  8
0
 10
36.366994384372539
 20
36.056808103781769
 30
0.0
  0
VERTEX
  5
550A
  8
0
 10
36.235849273118433
 20
36.050032121117773
 30
0.0
  0
VERTEX
  5
550B
  8
0
 10
36.109143138215337
 20
36.043123999029753
 30
0.0
  0
VERTEX
  5
550C
  8
0
 10
35.986918482020009
 20
36.036082912916328
 30
0.0
  0
VERTEX
  5
550D
  8
0
 10
35.869208618531367
 20
36.028906863575287
 30
0.0
  0
VERTEX
  5
550E
  8
0
 10
35.756035840209663
 20
36.021592265320081
 30
0.0
  0
VERTEX
  5
550F
  8
0
 10
35.647408913604281
 20
36.014133361436919
 30
0.0
  0
VERTEX
  5
5510
  8
0
 10
35.543319573985777
 20
36.006521375373467
 30
0.0
  0
VERTEX
  5
5511
  8
0
 10
35.443737481766313
 20
35.998743245227871
 30
0.0
  0
VERTEX
  5
5512
  8
0
 10
35.348602730643663
 20
35.990779677902601
 30
0.0
  0
VERTEX
  5
5513
  8
0
 10
35.257814292765978
 20
35.982602045597623
 30
0.0
  0
VERTEX
  5
5514
  8
0
 10
35.17121137283582
 20
35.974167211514022
 30
0.0
  0
VERTEX
  5
5515
  8
0
 10
35.088541596025017
 20
35.965408415939109
 30
0.0
  0
VERTEX
  5
5516
  8
0
 10
35.009402771837003
 20
35.956218059391219
 30
0.0
  0
VERTEX
  5
5517
  8
0
 10
34.93312600651408
 20
35.946412030716559
 30
0.0
  0
VERTEX
  5
5518
  8
0
 10
34.858509744792777
 20
35.935645726545317
 30
0.0
  0
VERTEX
  5
5519
  8
0
 10
34.783095055045109
 20
35.923175428723241
 30
0.0
  0
VERTEX
  5
551A
  8
0
 10
34.700575303914981
 20
35.906944264329638
 30
0.0
  0
VERTEX
  5
551B
  8
0
 10
34.647308625795503
 20
35.894465364674403
 30
0.0
  0
VERTEX
  5
551C
  8
0
 10
34.603566351191581
 20
35.882661067562168
 30
0.0
  0
VERTEX
  5
551D
  8
0
 10
34.564200964730937
 20
35.870566872498131
 30
0.0
  0
VERTEX
  5
551E
  8
0
 10
34.527859657423768
 20
35.857945797906709
 30
0.0
  0
VERTEX
  5
551F
  8
0
 10
34.493299598350497
 20
35.844457345392136
 30
0.0
  0
VERTEX
  5
5520
  8
0
 10
34.459671486153958
 20
35.829767038528061
 30
0.0
  0
VERTEX
  5
5521
  8
0
 10
34.426399074689392
 20
35.813537994125042
 30
0.0
  0
VERTEX
  5
5522
  8
0
 10
34.39309071482419
 20
35.795416637325189
 30
0.0
  0
VERTEX
  5
5523
  8
0
 10
34.359492418183763
 20
35.775022785935533
 30
0.0
  0
VERTEX
  5
5524
  8
0
 10
34.325472250247209
 20
35.751948065131863
 30
0.0
  0
VERTEX
  5
5525
  8
0
 10
34.291027547025443
 20
35.725767128554992
 30
0.0
  0
VERTEX
  5
5526
  8
0
 10
34.256306827386062
 20
35.696066835850289
 30
0.0
  0
VERTEX
  5
5527
  8
0
 10
34.221634006556009
 20
35.662495629192648
 30
0.0
  0
VERTEX
  5
5528
  8
0
 10
34.187573685513811
 20
35.624894148254128
 30
0.0
  0
VERTEX
  5
5529
  8
0
 10
34.154750292141017
 20
35.583195225329092
 30
0.0
  0
VERTEX
  5
552A
  8
0
 10
34.123871771894848
 20
35.537510857478907
 30
0.0
  0
VERTEX
  5
552B
  8
0
 10
34.095665328585582
 20
35.48813803023409
 30
0.0
  0
VERTEX
  5
552C
  8
0
 10
34.070798937501522
 20
35.435511974052879
 30
0.0
  0
VERTEX
  5
552D
  8
0
 10
34.049832263428172
 20
35.380149260205251
 30
0.0
  0
VERTEX
  5
552E
  8
0
 10
34.031735793315967
 20
35.316524339755567
 30
0.0
  0
VERTEX
  5
552F
  8
0
 10
34.01942857183176
 20
35.251633258816199
 30
0.0
  0
VERTEX
  5
5530
  8
0
 10
34.015970469445257
 20
35.223787710328907
 30
0.0
  0
SEQEND
  5
5531
  8
0
  0
POLYLINE
  5
514A
  8
0
 10
54.394807774576449
 20
34.848692110868726
 30
0.0
 66
     1
 70
     8
  0
VERTEX
  8
0
  5
5CB2
 10
54.3948
 20
34.8487
 30
0.000000
  70
    32
  0
VERTEX
  8
0
  5
5CB3
 10
54.3947
 20
34.8487
 30
0.000000
  70
    32
  0
VERTEX
  8
0
  5
5CB4
 10
54.3945
 20
34.8487
 30
0.000000
  70
    32
  0
VERTEX
  8
0
  5
5CB5
 10
54.3944
 20
34.8487
 30
0.000000
  70
    32
  0
VERTEX
  8
0
  5
5CB6
 10
54.3943
 20
34.8487
 30
0.000000
  70
    32
  0
VERTEX
  8
0
  5
5CB7
 10
54.3941
 20
34.8487
 30
0.000000
  70
    32
  0
VERTEX
  8
0
  5
5CB8
 10
54.3940
 20
34.8487
 30
0.000000
  70
    32
  0
VERTEX
  8
0
  5
5CB9
 10
54.3939
 20
34.8487
 30
0.000000
  70
    32
  0
VERTEX
  8
0
  5
5CBA
 10
54.3937
 20
34.8487
 30
0.000000
  70
    32
  0
VERTEX
  8
0
  5
5CBB
 10
54.3936
 20
34.8487
 30
0.000000
  70
    32
  0
VERTEX
  8
0
  5
5CBC
 10
54.3935
 20
34.8487
 30
0.000000
  70
    32
  0
VERTEX
  8
0
  5
5CBD
 10
54.3933
 20
34.8487
 30
0.000000
  70
    32
  0
VERTEX
  8
0
  5
5CBE
 10
54.3932
 20
34.8487
 30
0.000000
  70
    32
  0
VERTEX
  8
0
  5
5CBF
 10
54.3930
 20
34.8487
 30
0.000000
  70
    32
  0
VERTEX
  8
0
  5
5CC0
 10
54.3929
 20
34.8487
 30
0.000000
  70
    32
  0
VERTEX
  8
0
  5
5CC1
 10
54.3928
 20
34.8487
 30
0.000000
  70
    32
  0
VERTEX
  8
0
  5
5CC2
 10
54.3926
 20
34.8487
 30
0.000000
  70
    32
  0
VERTEX
  8
0
  5
5CC3
 10
54.3925
 20
34.8487
 30
0.000000
  70
    32
  0
VERTEX
  8
0
  5
5CC4
 10
54.3924
 20
34.8487
 30
0.000000
  70
    32
  0
VERTEX
  8
0
  5
5CC5
 10
54.3922
 20
34.8487
 30
0.000000
  70
    32
  0
VERTEX
  8
0
  5
5CC6
 10
54.3921
 20
34.8487
 30
0.000000
  70
    32
  0
VERTEX
  8
0
  5
5CC7
 10
54.3920
 20
34.8487
 30
0.000000
  70
    32
  0
VERTEX
  8
0
  5
5CC8
 10
54.3918
 20
34.8487
 30
0.000000
  70
    32
  0
VERTEX
  8
0
  5
5CC9
 10
54.3917
 20
34.8487
 30
0.000000
  70
    32
  0
VERTEX
  8
0
  5
5CCA
 10
54.3916
 20
34.8487
 30
0.000000
  70
    32
  0
VERTEX
  8
0
  5
5CCB
 10
54.3914
 20
34.8488
 30
0.000000
  70
    32
  0
VERTEX
  8
0
  5
5CCC
 10
54.3913
 20
34.8488
 30
0.000000
  70
    32
  0
VERTEX
  8
0
  5
5CCD
 10
54.3911
 20
34.8488
 30
0.000000
  70
    32
  0
VERTEX
  8
0
  5
5CCE
 10
54.3910
 20
34.8488
 30
0.000000
  70
    32
  0
VERTEX
  8
0
  5
5CCF
 10
54.3909
 20
34.8488
 30
0.000000
  70
    32
  0
VERTEX
  8
0
  5
5CD0
 10
54.3907
 20
34.8488
 30
0.000000
  70
    32
  0
VERTEX
  8
0
  5
5CD1
 10
54.3906
 20
34.8488
 30
0.000000
  70
    32
  0
VERTEX
  8
0
  5
5CD2
 10
54.3905
 20
34.8488
 30
0.000000
  70
    32
  0
VERTEX
  8
0
  5
5CD3
 10
54.3903
 20
34.8488
 30
0.000000
  70
    32
  0
VERTEX
  8
0
  5
5CD4
 10
54.3902
 20
34.8488
 30
0.000000
  70
    32
  0
VERTEX
  8
0
  5
5CD5
 10
54.3901
 20
34.8488
 30
0.000000
  70
    32
  0
VERTEX
  8
0
  5
5CD6
 10
54.3899
 20
34.8488
 30
0.000000
  70
    32
  0
VERTEX
  8
0
  5
5CD7
 10
54.3898
 20
34.8488
 30
0.000000
  70
    32
  0
VERTEX
  8
0
  5
5CD8
 10
54.3897
 20
34.8488
 30
0.000000
  70
    32
  0
VERTEX
  8
0
  5
5CD9
 10
54.3895
 20
34.8488
 30
0.000000
  70
    32
  0
VERTEX
  8
0
  5
5CDA
 10
54.3894
 20
34.8488
 30
0.000000
  70
    32
  0
VERTEX
  8
0
  5
5CDB
 10
54.3892
 20
34.8488
 30
0.000000
  70
    32
  0
VERTEX
  8
0
  5
5CDC
 10
54.3891
 20
34.8488
 30
0.000000
  70
    32
  0
VERTEX
  8
0
  5
5CDD
 10
54.3890
 20
34.8488
 30
0.000000
  70
    32
  0
VERTEX
  8
0
  5
5CDE
 10
54.3888
 20
34.8488
 30
0.000000
  70
    32
  0
VERTEX
  8
0
  5
5CDF
 10
54.3887
 20
34.8488
 30
0.000000
  70
    32
  0
VERTEX
  8
0
  5
5CE0
 10
54.3886
 20
34.8488
 30
0.000000
  70
    32
  0
VERTEX
  8
0
  5
5CE1
 10
54.3884
 20
34.8488
 30
0.000000
  70
    32
  0
VERTEX
  8
0
  5
5CE2
 10
54.3883
 20
34.8488
 30
0.000000
  70
    32
  0
VERTEX
  8
0
  5
5CE3
 10
54.3882
 20
34.8488
 30
0.000000
  70
    32
  0
VERTEX
  8
0
  5
5CE4
 10
54.3880
 20
34.8488
 30
0.000000
  70
    32
  0
VERTEX
  8
0
  5
5CE5
 10
54.3879
 20
34.8488
 30
0.000000
  70
    32
  0
VERTEX
  8
0
  5
5CE6
 10
54.3878
 20
34.8488
 30
0.000000
  70
    32
  0
VERTEX
  8
0
  5
5CE7
 10
54.3876
 20
34.8488
 30
0.000000
  70
    32
  0
VERTEX
  8
0
  5
5CE8
 10
54.3875
 20
34.8488
 30
0.000000
  70
    32
  0
VERTEX
  8
0
  5
5CE9
 10
54.3873
 20
34.8488
 30
0.000000
  70
    32
  0
VERTEX
  8
0
  5
5CEA
 10
54.3872
 20
34.8488
 30
0.000000
  70
    32
  0
VERTEX
  8
0
  5
5CEB
 10
54.3871
 20
34.8488
 30
0.000000
  70
    32
  0
VERTEX
  8
0
  5
5CEC
 10
54.3869
 20
34.8488
 30
0.000000
  70
    32
  0
VERTEX
  8
0
  5
5CED
 10
54.3868
 20
34.8488
 30
0.000000
  70
    32
  0
VERTEX
  8
0
  5
5CEE
 10
54.3867
 20
34.8488
 30
0.000000
  70
    32
  0
VERTEX
  8
0
  5
5CEF
 10
54.3865
 20
34.8488
 30
0.000000
  70
    32
  0
VERTEX
  8
0
  5
5CF0
 10
54.3864
 20
34.8488
 30
0.000000
  70
    32
  0
VERTEX
  8
0
  5
5CF1
 10
54.3863
 20
34.8488
 30
0.000000
  70
    32
  0
VERTEX
  8
0
  5
5CF2
 10
54.3861
 20
34.8488
 30
0.000000
  70
    32
  0
VERTEX
  8
0
  5
5CF3
 10
54.3860
 20
34.8488
 30
0.000000
  70
    32
  0
VERTEX
  8
0
  5
5CF4
 10
54.3859
 20
34.8488
 30
0.000000
  70
    32
  0
VERTEX
  8
0
  5
5CF5
 10
54.3857
 20
34.8488
 30
0.000000
  70
    32
  0
VERTEX
  8
0
  5
5CF6
 10
54.3856
 20
34.8488
 30
0.000000
  70
    32
  0
VERTEX
  8
0
  5
5CF7
 10
54.3854
 20
34.8488
 30
0.000000
  70
    32
  0
VERTEX
  8
0
  5
5CF8
 10
54.3853
 20
34.8488
 30
0.000000
  70
    32
  0
VERTEX
  8
0
  5
5CF9
 10
54.3852
 20
34.8488
 30
0.000000
  70
    32
  0
VERTEX
  8
0
  5
5CFA
 10
54.3850
 20
34.8488
 30
0.000000
  70
    32
  0
VERTEX
  8
0
  5
5CFB
 10
54.3849
 20
34.8488
 30
0.000000
  70
    32
  0
VERTEX
  8
0
  5
5CFC
 10
54.3848
 20
34.8488
 30
0.000000
  70
    32
  0
VERTEX
  8
0
  5
5CFD
 10
54.3846
 20
34.8488
 30
0.000000
  70
    32
  0
VERTEX
  8
0
  5
5CFE
 10
54.3845
 20
34.8488
 30
0.000000
  70
    32
  0
VERTEX
  8
0
  5
5CFF
 10
54.3844
 20
34.8488
 30
0.000000
  70
    32
  0
VERTEX
  8
0
  5
5D00
 10
54.3842
 20
34.8488
 30
0.000000
  70
    32
  0
VERTEX
  8
0
  5
5D01
 10
54.3841
 20
34.8488
 30
0.000000
  70
    32
  0
VERTEX
  8
0
  5
5D02
 10
54.3840
 20
34.8488
 30
0.000000
  70
    32
  0
VERTEX
  8
0
  5
5D03
 10
54.3838
 20
34.8488
 30
0.000000
  70
    32
  0
VERTEX
  8
0
  5
5D04
 10
54.3837
 20
34.8488
 30
0.000000
  70
    32
  0
VERTEX
  8
0
  5
5D05
 10
54.3835
 20
34.8488
 30
0.000000
  70
    32
  0
VERTEX
  8
0
  5
5D06
 10
54.3834
 20
34.8488
 30
0.000000
  70
    32
  0
VERTEX
  8
0
  5
5D07
 10
54.3833
 20
34.8488
 30
0.000000
  70
    32
  0
VERTEX
  8
0
  5
5D08
 10
54.3831
 20
34.8488
 30
0.000000
  70
    32
  0
VERTEX
  8
0
  5
5D09
 10
54.3830
 20
34.8488
 30
0.000000
  70
    32
  0
VERTEX
  8
0
  5
5D0A
 10
54.3829
 20
34.8488
 30
0.000000
  70
    32
  0
VERTEX
  8
0
  5
5D0B
 10
54.3827
 20
34.8488
 30
0.000000
  70
    32
  0
VERTEX
  8
0
  5
5D0C
 10
54.3826
 20
34.8488
 30
0.000000
  70
    32
  0
VERTEX
  8
0
  5
5D0D
 10
54.3825
 20
34.8488
 30
0.000000
  70
    32
  0
VERTEX
  8
0
  5
5D0E
 10
54.3823
 20
34.8488
 30
0.000000
  70
    32
  0
VERTEX
  8
0
  5
5D0F
 10
54.3822
 20
34.8488
 30
0.000000
  70
    32
  0
VERTEX
  8
0
  5
5D10
 10
54.3821
 20
34.8488
 30
0.000000
  70
    32
  0
VERTEX
  8
0
  5
5D11
 10
54.3819
 20
34.8488
 30
0.000000
  70
    32
  0
VERTEX
  8
0
  5
5D12
 10
54.3818
 20
34.8488
 30
0.000000
  70
    32
  0
VERTEX
  8
0
  5
5D13
 10
54.3816
 20
34.8488
 30
0.000000
  70
    32
  0
VERTEX
  8
0
  5
5D14
 10
54.3815
 20
34.8488
 30
0.000000
  70
    32
  0
VERTEX
  8
0
  5
5D15
 10
54.3814
 20
34.8488
 30
0.000000
  70
    32
  0
VERTEX
  8
0
  5
5D16
 10
54.3812
 20
34.8488
 30
0.000000
  70
    32
  0
VERTEX
  8
0
  5
5D17
 10
54.3811
 20
34.8488
 30
0.000000
  70
    32
  0
VERTEX
  8
0
  5
5D18
 10
54.3810
 20
34.8488
 30
0.000000
  70
    32
  0
VERTEX
  8
0
  5
5D19
 10
54.3808
 20
34.8488
 30
0.000000
  70
    32
  0
VERTEX
  8
0
  5
5D1A
 10
54.3807
 20
34.8488
 30
0.000000
  70
    32
  0
VERTEX
  8
0
  5
5D1B
 10
54.3806
 20
34.8488
 30
0.000000
  70
    32
  0
VERTEX
  8
0
  5
5D1C
 10
54.3804
 20
34.8488
 30
0.000000
  70
    32
  0
VERTEX
  8
0
  5
5D1D
 10
54.3803
 20
34.8488
 30
0.000000
  70
    32
  0
VERTEX
  8
0
  5
5D1E
 10
54.3802
 20
34.8488
 30
0.000000
  70
    32
  0
VERTEX
  8
0
  5
5D1F
 10
54.3800
 20
34.8488
 30
0.000000
  70
    32
  0
VERTEX
  8
0
  5
5D20
 10
54.3799
 20
34.8488
 30
0.000000
  70
    32
  0
VERTEX
  8
0
  5
5D21
 10
54.3797
 20
34.8488
 30
0.000000
  70
    32
  0
VERTEX
  8
0
  5
5D22
 10
54.3796
 20
34.8488
 30
0.000000
  70
    32
  0
VERTEX
  8
0
  5
5D23
 10
54.3795
 20
34.8488
 30
0.000000
  70
    32
  0
VERTEX
  8
0
  5
5D24
 10
54.3793
 20
34.8488
 30
0.000000
  70
    32
  0
VERTEX
  8
0
  5
5D25
 10
54.3792
 20
34.8488
 30
0.000000
  70
    32
  0
VERTEX
  8
0
  5
5D26
 10
54.3791
 20
34.8488
 30
0.000000
  70
    32
  0
VERTEX
  8
0
  5
5D27
 10
54.3789
 20
34.8488
 30
0.000000
  70
    32
  0
VERTEX
  8
0
  5
5D28
 10
54.3788
 20
34.8488
 30
0.000000
  70
    32
  0
VERTEX
  8
0
  5
5D29
 10
54.3787
 20
34.8488
 30
0.000000
  70
    32
  0
VERTEX
  8
0
  5
5D2A
 10
54.3785
 20
34.8488
 30
0.000000
  70
    32
  0
VERTEX
  8
0
  5
5D2B
 10
54.3784
 20
34.8488
 30
0.000000
  70
    32
  0
VERTEX
  8
0
  5
5D2C
 10
54.3783
 20
34.8488
 30
0.000000
  70
    32
  0
VERTEX
  8
0
  5
5D2D
 10
54.3781
 20
34.8488
 30
0.000000
  70
    32
  0
VERTEX
  8
0
  5
5D2E
 10
54.3780
 20
34.8488
 30
0.000000
  70
    32
  0
VERTEX
  8
0
  5
5D2F
 10
54.3778
 20
34.8488
 30
0.000000
  70
    32
  0
VERTEX
  8
0
  5
5D30
 10
54.3777
 20
34.8488
 30
0.000000
  70
    32
  0
VERTEX
  8
0
  5
5D31
 10
54.3776
 20
34.8488
 30
0.000000
  70
    32
  0
VERTEX
  8
0
  5
5D32
 10
54.3774
 20
34.8488
 30
0.000000
  70
    32
  0
SEQEND
  8
0
  5
5D33
  0
LINE
  5
514B
  8
0
 10
54.377501641755693
 20
34.84878507546091
 30
0.0
 11
44.04879994970193
 21
34.848794424662628
 31
0.0
  0
POLYLINE
  5
514C
  8
0
 66
     1
 10
0.0
 20
0.0
 30
0.0
  0
VERTEX
  5
5532
  8
0
 10
44.048738371160567
 20
33.398794425970181
 30
0.0
  0
VERTEX
  5
5533
  8
0
 10
44.175432154757942
 20
33.398789078454058
 30
0.0
  0
VERTEX
  5
5534
  8
0
 10
44.416091547865818
 20
33.398779102010202
 30
0.0
  0
VERTEX
  5
5535
  8
0
 10
44.656542747914237
 20
33.398769371911641
 30
0.0
  0
VERTEX
  5
5536
  8
0
 10
44.896651922070852
 20
33.398759893579893
 30
0.0
  0
VERTEX
  5
5537
  8
0
 10
45.136289340372493
 20
33.398750672136032
 30
0.0
  0
VERTEX
  5
5538
  8
0
 10
45.37532552794088
 20
33.398741712562412
 30
0.0
  0
VERTEX
  5
5539
  8
0
 10
45.613631334767923
 20
33.398733019699847
 30
0.0
  0
VERTEX
  5
553A
  8
0
 10
45.851078005501648
 20
33.398724598245082
 30
0.0
  0
VERTEX
  5
553B
  8
0
 10
46.087537249020933
 20
33.398716452748189
 30
0.0
  0
VERTEX
  5
553C
  8
0
 10
46.322881307757633
 20
33.398708587610201
 30
0.0
  0
VERTEX
  5
553D
  8
0
 10
46.556983026731899
 20
33.398701007080639
 30
0.0
  0
VERTEX
  5
553E
  8
0
 10
46.789715922262502
 20
33.398693715255227
 30
0.0
  0
VERTEX
  5
553F
  8
0
 10
47.020954250314482
 20
33.398686716073811
 30
0.0
  0
VERTEX
  5
5540
  8
0
 10
47.250573074448063
 20
33.398680013318028
 30
0.0
  0
VERTEX
  5
5541
  8
0
 10
47.478448333331791
 20
33.398673610609393
 30
0.0
  0
VERTEX
  5
5542
  8
0
 10
47.704456907784142
 20
33.398667511407339
 30
0.0
  0
VERTEX
  5
5543
  8
0
 10
47.928476687306421
 20
33.398661719007279
 30
0.0
  0
VERTEX
  5
5544
  8
0
 10
48.15038663607212
 20
33.398656236538912
 30
0.0
  0
VERTEX
  5
5545
  8
0
 10
48.37006685833714
 20
33.398651066964483
 30
0.0
  0
VERTEX
  5
5546
  8
0
 10
48.587398663235128
 20
33.398646213077143
 30
0.0
  0
VERTEX
  5
5547
  8
0
 10
48.802264628924071
 20
33.398641677499569
 30
0.0
  0
VERTEX
  5
5548
  8
0
 10
49.014548666048292
 20
33.398637462682423
 30
0.0
  0
VERTEX
  5
5549
  8
0
 10
49.224136080483589
 20
33.398633570903058
 30
0.0
  0
VERTEX
  5
554A
  8
0
 10
49.430913635331571
 20
33.398630004264383
 30
0.0
  0
VERTEX
  5
554B
  8
0
 10
49.634769612128338
 20
33.39862676469356
 30
0.0
  0
VERTEX
  5
554C
  8
0
 10
49.835593871237933
 20
33.39862385394116
 30
0.0
  0
VERTEX
  5
554D
  8
0
 10
50.03327791139575
 20
33.398621273580027
 30
0.0
  0
VERTEX
  5
554E
  8
0
 10
50.227714928372478
 20
33.398619025004621
 30
0.0
  0
VERTEX
  5
554F
  8
0
 10
50.418799872726737
 20
33.39861710943012
 30
0.0
  0
VERTEX
  5
5550
  8
0
 10
50.606429506616202
 20
33.398615527891842
 30
0.0
  0
VERTEX
  5
5551
  8
0
 10
50.790502459638539
 20
33.398614281244662
 30
0.0
  0
VERTEX
  5
5552
  8
0
 10
50.970919283672607
 20
33.398613370162643
 30
0.0
  0
VERTEX
  5
5553
  8
0
 10
51.147582506693183
 20
33.398612795138533
 30
0.0
  0
VERTEX
  5
5554
  8
0
 10
51.320396685531222
 20
33.39861255648367
 30
0.0
  0
VERTEX
  5
5555
  8
0
 10
51.48926845755549
 20
33.398612654327749
 30
0.0
  0
VERTEX
  5
5556
  8
0
 10
51.654106591249821
 20
33.398613088618752
 30
0.0
  0
VERTEX
  5
5557
  8
0
 10
51.814822035664442
 20
33.39861385912306
 30
0.0
  0
VERTEX
  5
5558
  8
0
 10
51.97132796871896
 20
33.398614965425587
 30
0.0
  0
VERTEX
  5
5559
  8
0
 10
52.123539844339547
 20
33.39861640693011
 30
0.0
  0
VERTEX
  5
555A
  8
0
 10
52.271375438412782
 20
33.398618182859451
 30
0.0
  0
VERTEX
  5
555B
  8
0
 10
52.414754893544213
 20
33.39862029225624
 30
0.0
  0
VERTEX
  5
555C
  8
0
 10
52.553600762611531
 20
33.398622733983302
 30
0.0
  0
VERTEX
  5
555D
  8
0
 10
52.687838051111022
 20
33.398625506724471
 30
0.0
  0
VERTEX
  5
555E
  8
0
 10
52.817394258299117
 20
33.39862860898544
 30
0.0
  0
VERTEX
  5
555F
  8
0
 10
52.942199417143947
 20
33.398632039094728
 30
0.0
  0
VERTEX
  5
5560
  8
0
 10
53.062186133114253
 20
33.398635795204932
 30
0.0
  0
VERTEX
  5
5561
  8
0
 10
53.177289621850178
 20
33.398639875293902
 30
0.0
  0
VERTEX
  5
5562
  8
0
 10
53.287447745789251
 20
33.398644277166461
 30
0.0
  0
VERTEX
  5
5563
  8
0
 10
53.392601049858662
 20
33.398648998456103
 30
0.0
  0
VERTEX
  5
5564
  8
0
 10
53.49269279640189
 20
33.398654036627242
 30
0.0
  0
VERTEX
  5
5565
  8
0
 10
53.587668999593717
 20
33.398659388977819
 30
0.0
  0
VERTEX
  5
5566
  8
0
 10
53.677478459733408
 20
33.398665052642613
 30
0.0
  0
VERTEX
  5
5567
  8
0
 10
53.762072798013349
 20
33.398671024597462
 30
0.0
  0
VERTEX
  5
5568
  8
0
 10
53.841406492708053
 20
33.39867730166506
 30
0.0
  0
VERTEX
  5
5569
  8
0
 10
53.915436918300472
 20
33.398683880523002
 30
0.0
  0
VERTEX
  5
556A
  8
0
 10
53.984124390060437
 20
33.398690757715777
 30
0.0
  0
VERTEX
  5
556B
  8
0
 10
54.047432218380749
 20
33.398697929673553
 30
0.0
  0
VERTEX
  5
556C
  8
0
 10
54.105326780543329
 20
33.398705392742819
 30
0.0
  0
VERTEX
  5
556D
  8
0
 10
54.157777624246279
 20
33.398713143240762
 30
0.0
  0
VERTEX
  5
556E
  8
0
 10
54.204757631219849
 20
33.398721177556162
 30
0.0
  0
VERTEX
  5
556F
  8
0
 10
54.24624330092454
 20
33.398729492353439
 30
0.0
  0
VERTEX
  5
5570
  8
0
 10
54.282215292806747
 20
33.398738085022082
 30
0.0
  0
VERTEX
  5
5571
  8
0
 10
54.312659584154261
 20
33.398746954786617
 30
0.0
  0
VERTEX
  5
5572
  8
0
 10
54.337570311598519
 20
33.398756105897633
 30
0.0
  0
VERTEX
  5
5573
  8
0
 10
54.356958247485501
 20
33.398765559074072
 30
0.0
  0
VERTEX
  5
5574
  8
0
 10
54.370885397346719
 20
33.398775410632567
 30
0.0
  0
VERTEX
  5
5575
  8
0
 10
54.379734194629663
 20
33.398786510916402
 30
0.0
  0
VERTEX
  5
5576
  8
0
 10
54.383444901800011
 20
33.398797460499907
 30
0.0
  0
VERTEX
  5
5577
  8
0
 10
54.385336038104107
 20
33.398807946007857
 30
0.0
  0
VERTEX
  5
5578
  8
0
 10
54.388488317916057
 20
33.398835587430703
 30
0.0
  0
VERTEX
  5
5579
  8
0
 10
54.393492726122339
 20
33.398907080162459
 30
0.0
  0
VERTEX
  5
557A
  8
0
 10
54.399461928420223
 20
33.399037323384107
 30
0.0
  0
VERTEX
  5
557B
  8
0
 10
54.40830475653101
 20
33.399320568757048
 30
0.0
  0
VERTEX
  5
557C
  8
0
 10
54.422194973782297
 20
33.399983707529771
 30
0.0
  0
VERTEX
  5
557D
  8
0
 10
54.443477037669233
 20
33.401518848497972
 30
0.0
  0
VERTEX
  5
557E
  8
0
 10
54.479978653600057
 20
33.405626350915767
 30
0.0
  0
VERTEX
  5
557F
  8
0
 10
54.533683380046938
 20
33.415122561315442
 30
0.0
  0
VERTEX
  5
5580
  8
0
 10
54.588984049452201
 20
33.429362619192382
 30
0.0
  0
VERTEX
  5
5581
  8
0
 10
54.639948733228067
 20
33.446737496230782
 30
0.0
  0
VERTEX
  5
5582
  8
0
 10
54.687349269463922
 20
33.466846515269488
 30
0.0
  0
VERTEX
  5
5583
  8
0
 10
54.736071837508497
 20
33.491873952876603
 30
0.0
  0
VERTEX
  5
5584
  8
0
 10
54.78418915059931
 20
33.521459427701558
 30
0.0
  0
VERTEX
  5
5585
  8
0
 10
54.830757314689528
 20
33.555412749016909
 30
0.0
  0
VERTEX
  5
5586
  8
0
 10
54.875046716416449
 20
33.593484051134944
 30
0.0
  0
VERTEX
  5
5587
  8
0
 10
54.916489286141122
 20
33.63539278511594
 30
0.0
  0
VERTEX
  5
5588
  8
0
 10
54.954624567039929
 20
33.680832146257977
 30
0.0
  0
VERTEX
  5
5589
  8
0
 10
54.989069527451797
 20
33.729471836006077
 30
0.0
  0
VERTEX
  5
558A
  8
0
 10
55.019501567934512
 20
33.780960237316407
 30
0.0
  0
VERTEX
  5
558B
  8
0
 10
55.045649013295453
 20
33.834926600286067
 30
0.0
  0
VERTEX
  5
558C
  8
0
 10
55.067285812885913
 20
33.890983393214469
 30
0.0
  0
VERTEX
  5
558D
  8
0
 10
55.084228609049752
 20
33.948728838182411
 30
0.0
  0
VERTEX
  5
558E
  8
0
 10
55.097308764493647
 20
34.013922292791641
 30
0.0
  0
VERTEX
  5
558F
  8
0
 10
55.104301012563532
 20
34.07905811634707
 30
0.0
  0
VERTEX
  5
5590
  8
0
 10
55.105415752475132
 20
34.143461705685141
 30
0.0
  0
VERTEX
  5
5591
  8
0
 10
55.100926905724208
 20
34.2066984951771
 30
0.0
  0
VERTEX
  5
5592
  8
0
 10
55.091122943769541
 20
34.268360893760153
 30
0.0
  0
VERTEX
  5
5593
  8
0
 10
55.076310119910069
 20
34.328067039998089
 30
0.0
  0
VERTEX
  5
5594
  8
0
 10
55.05681435639756
 20
34.385463678053597
 30
0.0
  0
VERTEX
  5
5595
  8
0
 10
55.032981860742417
 20
34.440228663481008
 30
0.0
  0
VERTEX
  5
5596
  8
0
 10
55.005178978794262
 20
34.492073163300049
 30
0.0
  0
VERTEX
  5
5597
  8
0
 10
54.973791629679432
 20
34.540743629327622
 30
0.0
  0
VERTEX
  5
5598
  8
0
 10
54.939224584354733
 20
34.586023606413313
 30
0.0
  0
VERTEX
  5
5599
  8
0
 10
54.901900814970972
 20
34.627735435114687
 30
0.0
  0
VERTEX
  5
559A
  8
0
 10
54.862261142151027
 20
34.665741915445061
 30
0.0
  0
VERTEX
  5
559B
  8
0
 10
54.820764436709027
 20
34.699948013527397
 30
0.0
  0
VERTEX
  5
559C
  8
0
 10
54.777888693661659
 20
34.73030271534887
 30
0.0
  0
VERTEX
  5
559D
  8
0
 10
54.734133397744223
 20
34.756801161094572
 30
0.0
  0
VERTEX
  5
559E
  8
0
 10
54.690023755506758
 20
34.779487228127209
 30
0.0
  0
VERTEX
  5
559F
  8
0
 10
54.646117606793922
 20
34.798456762169508
 30
0.0
  0
VERTEX
  5
55A0
  8
0
 10
54.603016214321123
 20
34.813861658880427
 30
0.0
  0
VERTEX
  5
55A1
  8
0
 10
54.561380929037661
 20
34.82591489285754
 30
0.0
  0
VERTEX
  5
55A2
  8
0
 10
54.521960383369198
 20
34.834896136692301
 30
0.0
  0
VERTEX
  5
55A3
  8
0
 10
54.485646570821388
 20
34.841156013606707
 30
0.0
  0
VERTEX
  5
55A4
  8
0
 10
54.453664244773663
 20
34.845111836121717
 30
0.0
  0
VERTEX
  5
55A5
  8
0
 10
54.428333954568728
 20
34.847226903175887
 30
0.0
  0
VERTEX
  5
55A6
  8
0
 10
54.412267269775143
 20
34.848106317217322
 30
0.0
  0
VERTEX
  5
55A7
  8
0
 10
54.40265274359664
 20
34.848461768381419
 30
0.0
  0
VERTEX
  5
55A8
  8
0
 10
54.39636236529779
 20
34.848625281770907
 30
0.0
  0
VERTEX
  5
55A9
  8
0
 10
54.394807774576449
 20
34.848692110868733
 30
0.0
  0
SEQEND
  5
55AA
  8
0
  0
POLYLINE
  5
514D
  8
0
 66
     1
 10
0.0
 20
0.0
 30
0.0
  0
VERTEX
  5
55AB
  8
0
 10
44.04879994970193
 20
34.848794424662628
 30
0.0
  0
VERTEX
  5
55AC
  8
0
 10
43.919473848167151
 20
34.848772840927033
 30
0.0
  0
VERTEX
  5
55AD
  8
0
 10
43.673791423516349
 20
34.848582638789168
 30
0.0
  0
VERTEX
  5
55AE
  8
0
 10
43.428285459405537
 20
34.848197025139378
 30
0.0
  0
VERTEX
  5
55AF
  8
0
 10
43.183086237205409
 20
34.847616196253092
 30
0.0
  0
VERTEX
  5
55B0
  8
0
 10
42.938319995279841
 20
34.846840444527288
 30
0.0
  0
VERTEX
  5
55B1
  8
0
 10
42.694112734366257
 20
34.84587015970088
 30
0.0
  0
VERTEX
  5
55B2
  8
0
 10
42.450590147496008
 20
34.844705828529463
 30
0.0
  0
VERTEX
  5
55B3
  8
0
 10
42.207877549772348
 20
34.84334803437028
 30
0.0
  0
VERTEX
  5
55B4
  8
0
 10
41.966099808166547
 20
34.841797456675202
 30
0.0
  0
VERTEX
  5
55B5
  8
0
 10
41.725381271321027
 20
34.840054870388528
 30
0.0
  0
VERTEX
  5
55B6
  8
0
 10
41.485845699351593
 20
34.838121145246447
 30
0.0
  0
VERTEX
  5
55B7
  8
0
 10
41.247616193629518
 20
34.835997244973143
 30
0.0
  0
VERTEX
  5
55B8
  8
0
 10
41.010815126523802
 20
34.833684226368689
 30
0.0
  0
VERTEX
  5
55B9
  8
0
 10
40.775564071076907
 20
34.831183238281653
 30
0.0
  0
VERTEX
  5
55BA
  8
0
 10
40.541983730576113
 20
34.828495520459192
 30
0.0
  0
VERTEX
  5
55BB
  8
0
 10
40.310193867978143
 20
34.825622402264898
 30
0.0
  0
VERTEX
  5
55BC
  8
0
 10
40.080313235131058
 20
34.82256530125369
 30
0.0
  0
VERTEX
  5
55BD
  8
0
 10
39.852459501724333
 20
34.819325721590282
 30
0.0
  0
VERTEX
  5
55BE
  8
0
 10
39.626749183884819
 20
34.815905252295757
 30
0.0
  0
VERTEX
  5
55BF
  8
0
 10
39.403297572316411
 20
34.812305565303419
 30
0.0
  0
VERTEX
  5
55C0
  8
0
 10
39.182218659858492
 20
34.808528413301218
 30
0.0
  0
VERTEX
  5
55C1
  8
0
 10
38.963625068315061
 20
34.804575627334373
 30
0.0
  0
VERTEX
  5
55C2
  8
0
 10
38.747627974373792
 20
34.80044911413524
 30
0.0
  0
VERTEX
  5
55C3
  8
0
 10
38.534337034394447
 20
34.796150853141711
 30
0.0
  0
VERTEX
  5
55C4
  8
0
 10
38.323860307805582
 20
34.791682893156931
 30
0.0
  0
VERTEX
  5
55C5
  8
0
 10
38.116304178788631
 20
34.787047348592637
 30
0.0
  0
VERTEX
  5
55C6
  8
0
 10
37.911773275864263
 20
34.782246395226551
 30
0.0
  0
VERTEX
  5
55C7
  8
0
 10
37.710370388912771
 20
34.777282265387733
 30
0.0
  0
VERTEX
  5
55C8
  8
0
 10
37.512196383060349
 20
34.772157242464857
 30
0.0
  0
VERTEX
  5
55C9
  8
0
 10
37.317350108735113
 20
34.766873654606961
 30
0.0
  0
VERTEX
  5
55CA
  8
0
 10
37.125928307046863
 20
34.76143386745477
 30
0.0
  0
VERTEX
  5
55CB
  8
0
 10
36.938025509443762
 20
34.755840275700919
 30
0.0
  0
VERTEX
  5
55CC
  8
0
 10
36.753733930360767
 20
34.75009529322476
 30
0.0
  0
VERTEX
  5
55CD
  8
0
 10
36.573143351258047
 20
34.744201341481229
 30
0.0
  0
VERTEX
  5
55CE
  8
0
 10
36.396340994056779
 20
34.73816083573567
 30
0.0
  0
VERTEX
  5
55CF
  8
0
 10
36.2234113814661
 20
34.731976168621507
 30
0.0
  0
VERTEX
  5
55D0
  8
0
 10
36.054436181035022
 20
34.725649690346422
 30
0.0
  0
VERTEX
  5
55D1
  8
0
 10
35.889494028893679
 20
34.719183684668607
 30
0.0
  0
VERTEX
  5
55D2
  8
0
 10
35.728660328007187
 20
34.712580339491609
 30
0.0
  0
VERTEX
  5
55D3
  8
0
 10
35.572007014230941
 20
34.705841710551901
 30
0.0
  0
VERTEX
  5
55D4
  8
0
 10
35.419602281392471
 20
34.698969676158562
 30
0.0
  0
VERTEX
  5
55D5
  8
0
 10
35.271510253801623
 20
34.691965880226149
 30
0.0
  0
VERTEX
  5
55D6
  8
0
 10
35.127790590680192
 20
34.68483165982623
 30
0.0
  0
VERTEX
  5
55D7
  8
0
 10
34.988498001508539
 20
34.6775679520278
 30
0.0
  0
VERTEX
  5
55D8
  8
0
 10
34.853681643452752
 20
34.670175172678881
 30
0.0
  0
VERTEX
  5
55D9
  8
0
 10
34.723384360652609
 20
34.662653056644153
 30
0.0
  0
VERTEX
  5
55DA
  8
0
 10
34.597641708313667
 20
34.655000444282237
 30
0.0
  0
VERTEX
  5
55DB
  8
0
 10
34.476480679089072
 20
34.647214991654579
 30
0.0
  0
VERTEX
  5
55DC
  8
0
 10
34.359918009817399
 20
34.6392927704605
 30
0.0
  0
VERTEX
  5
55DD
  8
0
 10
34.247957884001821
 20
34.631227705074323
 30
0.0
  0
VERTEX
  5
55DE
  8
0
 10
34.140588742638187
 20
34.623010762996699
 30
0.0
  0
VERTEX
  5
55DF
  8
0
 10
34.037778741527731
 20
34.614628761391216
 30
0.0
  0
VERTEX
  5
55E0
  8
0
 10
33.93946908487252
 20
34.606062555993773
 30
0.0
  0
VERTEX
  5
55E1
  8
0
 10
33.845563893870668
 20
34.597284197224511
 30
0.0
  0
VERTEX
  5
55E2
  8
0
 10
33.75591415094901
 20
34.588252277233607
 30
0.0
  0
VERTEX
  5
55E3
  8
0
 10
33.670290920353452
 20
34.578903923170998
 30
0.0
  0
VERTEX
  5
55E4
  8
0
 10
33.588337732020001
 20
34.569140115485453
 30
0.0
  0
VERTEX
  5
55E5
  8
0
 10
33.509478645990477
 20
34.558796448721317
 30
0.0
  0
VERTEX
  5
55E6
  8
0
 10
33.432720111292653
 20
34.54757801420034
 30
0.0
  0
VERTEX
  5
55E7
  8
0
 10
33.356153054060407
 20
34.534889307124423
 30
0.0
  0
VERTEX
  5
55E8
  8
0
 10
33.275388308105427
 20
34.519267963823701
 30
0.0
  0
VERTEX
  5
55E9
  8
0
 10
33.207495218159217
 20
34.503647812763788
 30
0.0
  0
VERTEX
  5
55EA
  8
0
 10
33.160644438780459
 20
34.491082266839499
 30
0.0
  0
VERTEX
  5
55EB
  8
0
 10
33.118497456321883
 20
34.478204979089732
 30
0.0
  0
VERTEX
  5
55EC
  8
0
 10
33.080193946198541
 20
34.464960422156103
 30
0.0
  0
VERTEX
  5
55ED
  8
0
 10
33.044273478095462
 20
34.450993953513603
 30
0.0
  0
VERTEX
  5
55EE
  8
0
 10
33.009734632708877
 20
34.435962281801373
 30
0.0
  0
VERTEX
  5
55EF
  8
0
 10
32.975907203099702
 20
34.419531937267877
 30
0.0
  0
VERTEX
  5
55F0
  8
0
 10
32.94234253384699
 20
34.401365071829652
 30
0.0
  0
VERTEX
  5
55F1
  8
0
 10
32.908748181417337
 20
34.381107448841057
 30
0.0
  0
VERTEX
  5
55F2
  8
0
 10
32.874957292455377
 20
34.358382864688913
 30
0.0
  0
VERTEX
  5
55F3
  8
0
 10
32.84092231187433
 20
34.332796923460251
 30
0.0
  0
VERTEX
  5
55F4
  8
0
 10
32.806725341496048
 20
34.303954031917563
 30
0.0
  0
VERTEX
  5
55F5
  8
0
 10
32.772596689355602
 20
34.271491050246937
 30
0.0
  0
VERTEX
  5
55F6
  8
0
 10
32.738929122857407
 20
34.235126719126072
 30
0.0
  0
VERTEX
  5
55F7
  8
0
 10
32.706291884102349
 20
34.194743544375029
 30
0.0
  0
VERTEX
  5
55F8
  8
0
 10
32.675350870563967
 20
34.150387527720838
 30
0.0
  0
VERTEX
  5
55F9
  8
0
 10
32.646792859872711
 20
34.1022454337254
 30
0.0
  0
VERTEX
  5
55FA
  8
0
 10
32.621295971027941
 20
34.050670878385212
 30
0.0
  0
VERTEX
  5
55FB
  8
0
 10
32.59727479238294
 20
33.989878711548997
 30
0.0
  0
VERTEX
  5
55FC
  8
0
 10
32.578554215451028
 20
33.926584258933161
 30
0.0
  0
VERTEX
  5
55FD
  8
0
 10
32.565562807531911
 20
33.861932313071783
 30
0.0
  0
VERTEX
  5
55FE
  8
0
 10
32.558660323429571
 20
33.80040382434597
 30
0.0
  0
SEQEND
  5
55FF
  8
0
  0
POLYLINE
  5
514E
  8
0
 66
     1
 10
0.0
 20
0.0
 30
0.0
  0
VERTEX
  5
5600
  8
0
 10
33.593063893648072
 20
33.104172207212031
 30
0.0
  0
VERTEX
  5
5601
  8
0
 10
33.596357544067338
 20
33.104794758068763
 30
0.0
  0
VERTEX
  5
5602
  8
0
 10
33.619906669184822
 20
33.109009622393181
 30
0.0
  0
VERTEX
  5
5603
  8
0
 10
33.649821126622591
 20
33.113909084719552
 30
0.0
  0
VERTEX
  5
5604
  8
0
 10
33.686249003332627
 20
33.119382725912303
 30
0.0
  0
VERTEX
  5
5605
  8
0
 10
33.729242618529533
 20
33.125326792357001
 30
0.0
  0
VERTEX
  5
5606
  8
0
 10
33.778778340877281
 20
33.131647694249651
 30
0.0
  0
VERTEX
  5
5607
  8
0
 10
33.83477923314647
 20
33.138263864591607
 30
0.0
  0
VERTEX
  5
5608
  8
0
 10
33.897135539717723
 20
33.145106076798072
 30
0.0
  0
VERTEX
  5
5609
  8
0
 10
33.965720552351833
 20
33.152116659062742
 30
0.0
  0
VERTEX
  5
560A
  8
0
 10
34.040401477024467
 20
33.159248105156912
 30
0.0
  0
VERTEX
  5
560B
  8
0
 10
34.121046076168099
 20
33.166461480301308
 30
0.0
  0
VERTEX
  5
560C
  8
0
 10
34.20752622250204
 20
33.173724874632342
 30
0.0
  0
VERTEX
  5
560D
  8
0
 10
34.299719418170163
 20
33.1810120318614
 30
0.0
  0
VERTEX
  5
560E
  8
0
 10
34.397509087194223
 20
33.188301196929032
 30
0.0
  0
VERTEX
  5
560F
  8
0
 10
34.500784195068022
 20
33.195574179475763
 30
0.0
  0
VERTEX
  5
5610
  8
0
 10
34.609438546204373
 20
33.202815608311667
 30
0.0
  0
VERTEX
  5
5611
  8
0
 10
34.72336996710235
 20
33.210012345247407
 30
0.0
  0
VERTEX
  5
5612
  8
0
 10
34.842479490301443
 20
33.217153027347948
 30
0.0
  0
VERTEX
  5
5613
  8
0
 10
34.966670597242377
 20
33.224227710538123
 30
0.0
  0
VERTEX
  5
5614
  8
0
 10
35.095848544870002
 20
33.231227592221401
 30
0.0
  0
VERTEX
  5
5615
  8
0
 10
35.22991978232276
 20
33.238144795090008
 30
0.0
  0
VERTEX
  5
5616
  8
0
 10
35.368791454437861
 20
33.24497219818943
 30
0.0
  0
VERTEX
  5
5617
  8
0
 10
35.512370984329699
 20
33.251703304464939
 30
0.0
  0
VERTEX
  5
5618
  8
0
 10
35.660565725697133
 20
33.258332136515207
 30
0.0
  0
VERTEX
  5
5619
  8
0
 10
35.813282675426912
 20
33.264853154214052
 30
0.0
  0
VERTEX
  5
561A
  8
0
 10
35.970428237720597
 20
33.271261189345744
 30
0.0
  0
VERTEX
  5
561B
  8
0
 10
36.131908031937407
 20
33.27755139353016
 30
0.0
  0
VERTEX
  5
561C
  8
0
 10
36.297626737385578
 20
33.283719196574779
 30
0.0
  0
VERTEX
  5
561D
  8
0
 10
36.467487969294297
 20
33.289760273044443
 30
0.0
  0
VERTEX
  5
561E
  8
0
 10
36.64139418109577
 20
33.295670515337491
 30
0.0
  0
VERTEX
  5
561F
  8
0
 10
36.819246588934767
 20
33.301446011937429
 30
0.0
  0
VERTEX
  5
5620
  8
0
 10
37.000945114992057
 20
33.307083029799067
 30
0.0
  0
VERTEX
  5
5621
  8
0
 10
37.186388346775658
 20
33.312578000053151
 30
0.0
  0
VERTEX
  5
5622
  8
0
 10
37.375473510002941
 20
33.317927506384301
 30
0.0
  0
VERTEX
  5
5623
  8
0
 10
37.568096453093098
 20
33.323128275572031
 30
0.0
  0
VERTEX
  5
5624
  8
0
 10
37.764151641610781
 20
33.32817716978812
 30
0.0
  0
VERTEX
  5
5625
  8
0
 10
37.963532161273271
 20
33.333071180324353
 30
0.0
  0
VERTEX
  5
5626
  8
0
 10
38.166129728355131
 20
33.337807422490023
 30
0.0
  0
VERTEX
  5
5627
  8
0
 10
38.371834706507549
 20
33.342383131467123
 30
0.0
  0
VERTEX
  5
5628
  8
0
 10
38.580536129161644
 20
33.346795658952821
 30
0.0
  0
VERTEX
  5
5629
  8
0
 10
38.792121726812447
 20
33.351042470449229
 30
0.0
  0
VERTEX
  5
562A
  8
0
 10
39.006477958583602
 20
33.35512114308694
 30
0.0
  0
VERTEX
  5
562B
  8
0
 10
39.223490047559082
 20
33.359029363888233
 30
0.0
  0
VERTEX
  5
562C
  8
0
 10
39.443042019444
 20
33.362764928393602
 30
0.0
  0
VERTEX
  5
562D
  8
0
 10
39.665016744172398
 20
33.366325739586969
 30
0.0
  0
VERTEX
  5
562E
  8
0
 10
39.889295980135138
 20
33.369709807067338
 30
0.0
  0
VERTEX
  5
562F
  8
0
 10
40.115760420739747
 20
33.372915246422338
 30
0.0
  0
VERTEX
  5
5630
  8
0
 10
40.344289743052997
 20
33.375940278767061
 30
0.0
  0
VERTEX
  5
5631
  8
0
 10
40.574762658303797
 20
33.378783230417241
 30
0.0
  0
VERTEX
  5
5632
  8
0
 10
40.807056964051903
 20
33.381442532670732
 30
0.0
  0
VERTEX
  5
5633
  8
0
 10
41.04104959784835
 20
33.383916721675561
 30
0.0
  0
VERTEX
  5
5634
  8
0
 10
41.276616692231279
 20
33.386204438366008
 30
0.0
  0
VERTEX
  5
5635
  8
0
 10
41.513633630916587
 20
33.388304428451107
 30
0.0
  0
VERTEX
  5
5636
  8
0
 10
41.75197510605571
 20
33.390215542442398
 30
0.0
  0
VERTEX
  5
5637
  8
0
 10
41.99151517644507
 20
33.39193673570972
 30
0.0
  0
VERTEX
  5
5638
  8
0
 10
42.232127326577341
 20
33.393467068555402
 30
0.0
  0
VERTEX
  5
5639
  8
0
 10
42.473684526438177
 20
33.394805706299152
 30
0.0
  0
VERTEX
  5
563A
  8
0
 10
42.716059291953599
 20
33.395951919366631
 30
0.0
  0
VERTEX
  5
563B
  8
0
 10
42.959123746002867
 20
33.39690508337597
 30
0.0
  0
VERTEX
  5
563C
  8
0
 10
43.202749679912387
 20
33.397664679217868
 30
0.0
  0
VERTEX
  5
563D
  8
0
 10
43.446808615354293
 20
33.398230293124939
 30
0.0
  0
VERTEX
  5
563E
  8
0
 10
43.691171866573583
 20
33.398601616727461
 30
0.0
  0
VERTEX
  5
563F
  8
0
 10
43.935710602871751
 20
33.398778447092951
 30
0.0
  0
VERTEX
  5
5640
  8
0
 10
44.048738371160567
 20
33.398794425970202
 30
0.0
  0
SEQEND
  5
5641
  8
0
  0
POLYLINE
  5
5151
  8
0
 66
     1
 10
0.0
 20
0.0
 30
0.0
  0
VERTEX
  5
5642
  8
0
 10
43.940214303712061
 20
33.291244005775951
 30
0.0
  0
VERTEX
  5
5643
  8
0
 10
43.800140357653191
 20
33.291219898248322
 30
0.0
  0
VERTEX
  5
5644
  8
0
 10
43.534038588570098
 20
33.291024859628081
 30
0.0
  0
VERTEX
  5
5645
  8
0
 10
43.26810554912138
 20
33.2906343454801
 30
0.0
  0
VERTEX
  5
5646
  8
0
 10
43.002461647705822
 20
33.290048525879627
 30
0.0
  0
VERTEX
  5
5647
  8
0
 10
42.737223594153221
 20
33.289267653286132
 30
0.0
  0
VERTEX
  5
5648
  8
0
 10
42.472507909960107
 20
33.288292063680153
 30
0.0
  0
VERTEX
  5
5649
  8
0
 10
42.208430873643387
 20
33.287122176338023
 30
0.0
  0
VERTEX
  5
564A
  8
0
 10
41.945108465995617
 20
33.285758493545593
 30
0.0
  0
VERTEX
  5
564B
  8
0
 10
41.68265631537097
 20
33.284201600249922
 30
0.0
  0
VERTEX
  5
564C
  8
0
 10
41.421189642997859
 20
33.282452163647278
 30
0.0
  0
VERTEX
  5
564D
  8
0
 10
41.160823208320643
 20
33.280510932706001
 30
0.0
  0
VERTEX
  5
564E
  8
0
 10
40.901671254362363
 20
33.278378737621267
 30
0.0
  0
VERTEX
  5
564F
  8
0
 10
40.64384745310511
 20
33.276056489199881
 30
0.0
  0
VERTEX
  5
5650
  8
0
 10
40.387464850875951
 20
33.273545178170963
 30
0.0
  0
VERTEX
  5
5651
  8
0
 10
40.132635813726083
 20
33.270845874419507
 30
0.0
  0
VERTEX
  5
5652
  8
0
 10
39.879471972785993
 20
33.267959726137661
 30
0.0
  0
VERTEX
  5
5653
  8
0
 10
39.628084169573903
 20
33.26488795888875
 30
0.0
  0
VERTEX
  5
5654
  8
0
 10
39.3785824012297
 20
33.261631874577688
 30
0.0
  0
VERTEX
  5
5655
  8
0
 10
39.131075765639572
 20
33.258192850320462
 30
0.0
  0
VERTEX
  5
5656
  8
0
 10
38.885672406407799
 20
33.254572337203797
 30
0.0
  0
VERTEX
  5
5657
  8
0
 10
38.64247945762677
 20
33.250771858925219
 30
0.0
  0
VERTEX
  5
5658
  8
0
 10
38.40160298837808
 20
33.246793010301083
 30
0.0
  0
VERTEX
  5
5659
  8
0
 10
38.163147946893027
 20
33.242637455628483
 30
0.0
  0
VERTEX
  5
565A
  8
0
 10
37.927218104280577
 20
33.238306926884377
 30
0.0
  0
VERTEX
  5
565B
  8
0
 10
37.693915997714022
 20
33.233803221741582
 30
0.0
  0
VERTEX
  5
565C
  8
0
 10
37.463342872947557
 20
33.229128201378217
 30
0.0
  0
VERTEX
  5
565D
  8
0
 10
37.235598626007778
 20
33.224283788051949
 30
0.0
  0
VERTEX
  5
565E
  8
0
 10
37.010781743875697
 20
33.219271962405053
 30
0.0
  0
VERTEX
  5
565F
  8
0
 10
36.78898924393819
 20
33.214094760459624
 30
0.0
  0
VERTEX
  5
5660
  8
0
 10
36.570316611943881
 20
33.208754270253479
 30
0.0
  0
VERTEX
  5
5661
  8
0
 10
36.354857738148247
 20
33.203252628057299
 30
0.0
  0
VERTEX
  5
5662
  8
0
 10
36.142704851265741
 20
33.197592014100493
 30
0.0
  0
VERTEX
  5
5663
  8
0
 10
35.933948449770618
 20
33.191774647717573
 30
0.0
  0
VERTEX
  5
5664
  8
0
 10
35.728677229993181
 20
33.185802781806572
 30
0.0
  0
VERTEX
  5
5665
  8
0
 10
35.526978010337793
 20
33.179678696466567
 30
0.0
  0
VERTEX
  5
5666
  8
0
 10
35.328935650806542
 20
33.17340469164872
 30
0.0
  0
VERTEX
  5
5667
  8
0
 10
35.13463296682594
 20
33.166983078616212
 30
0.0
  0
VERTEX
  5
5668
  8
0
 10
34.944150636149722
 20
33.160416169955653
 30
0.0
  0
VERTEX
  5
5669
  8
0
 10
34.757567097318471
 20
33.153706267817029
 30
0.0
  0
VERTEX
  5
566A
  8
0
 10
34.574958437791722
 20
33.146855649972522
 30
0.0
  0
VERTEX
  5
566B
  8
0
 10
34.396398269395192
 20
33.139866553171728
 30
0.0
  0
VERTEX
  5
566C
  8
0
 10
34.221957588119253
 20
33.132741153122609
 30
0.0
  0
VERTEX
  5
566D
  8
0
 10
34.051704614510392
 20
33.125481540229231
 30
0.0
  0
VERTEX
  5
566E
  8
0
 10
33.88570460985418
 20
33.118089689952569
 30
0.0
  0
VERTEX
  5
566F
  8
0
 10
33.724019661965293
 20
33.110567426301053
 30
0.0
  0
VERTEX
  5
5670
  8
0
 10
33.566708432536508
 20
33.102916376465267
 30
0.0
  0
VERTEX
  5
5671
  8
0
 10
33.413825855476873
 20
33.095137913929143
 30
0.0
  0
VERTEX
  5
5672
  8
0
 10
33.265422772192423
 20
33.08723308643296
 30
0.0
  0
VERTEX
  5
5673
  8
0
 10
33.121545484920873
 20
33.079202523803453
 30
0.0
  0
VERTEX
  5
5674
  8
0
 10
32.982235202375001
 20
33.071046318702237
 30
0.0
  0
VERTEX
  5
5675
  8
0
 10
32.847527342085847
 20
33.06276387046465
 30
0.0
  0
VERTEX
  5
5676
  8
0
 10
32.717450639381497
 20
33.054353677900373
 30
0.0
  0
VERTEX
  5
5677
  8
0
 10
32.592025991322068
 20
33.04581306037872
 30
0.0
  0
VERTEX
  5
5678
  8
0
 10
32.47126493085743
 20
33.03713777632268
 30
0.0
  0
VERTEX
  5
5679
  8
0
 10
32.3551675746276
 20
33.028321491955843
 30
0.0
  0
VERTEX
  5
567A
  8
0
 10
32.243719804148192
 20
33.019355026418708
 30
0.0
  0
VERTEX
  5
567B
  8
0
 10
32.136889300616957
 20
33.01022525405746
 30
0.0
  0
VERTEX
  5
567C
  8
0
 10
32.034619812141877
 20
33.000913464978652
 30
0.0
  0
VERTEX
  5
567D
  8
0
 10
31.936822595874709
 20
32.991392838584211
 30
0.0
  0
VERTEX
  5
567E
  8
0
 10
31.843363147985809
 20
32.981624401995312
 30
0.0
  0
VERTEX
  5
567F
  8
0
 10
31.75403965895314
 20
32.971550264659889
 30
0.0
  0
VERTEX
  5
5680
  8
0
 10
31.66854599103042
 20
32.961081636700683
 30
0.0
  0
VERTEX
  5
5681
  8
0
 10
31.586403316485619
 20
32.950076025356907
 30
0.0
  0
VERTEX
  5
5682
  8
0
 10
31.506821471419169
 20
32.938289504140528
 30
0.0
  0
VERTEX
  5
5683
  8
0
 10
31.42837968952038
 20
32.92526279285174
 30
0.0
  0
VERTEX
  5
5684
  8
0
 10
31.34814812289083
 20
32.909992220875232
 30
0.0
  0
VERTEX
  5
5685
  8
0
 10
31.258637986397371
 20
32.889672362786342
 30
0.0
  0
VERTEX
  5
5686
  8
0
 10
31.207624969096951
 20
32.87595536878181
 30
0.0
  0
VERTEX
  5
5687
  8
0
 10
31.162050640114941
 20
32.861983828067991
 30
0.0
  0
VERTEX
  5
5688
  8
0
 10
31.121260578302479
 20
32.847816761365209
 30
0.0
  0
VERTEX
  5
5689
  8
0
 10
31.083559585294761
 20
32.833084218715292
 30
0.0
  0
VERTEX
  5
568A
  8
0
 10
31.04776056458568
 20
32.817424330603693
 30
0.0
  0
VERTEX
  5
568B
  8
0
 10
31.013075447573819
 20
32.800497070202397
 30
0.0
  0
VERTEX
  5
568C
  8
0
 10
30.978984393263641
 20
32.781971267304669
 30
0.0
  0
VERTEX
  5
568D
  8
0
 10
30.945150342599831
 20
32.761510852749034
 30
0.0
  0
VERTEX
  5
568E
  8
0
 10
30.911373170344611
 20
32.73876650324015
 30
0.0
  0
VERTEX
  5
568F
  8
0
 10
30.877570658168089
 20
32.71337457445869
 30
0.0
  0
VERTEX
  5
5690
  8
0
 10
30.84377750153644
 20
32.68496574815218
 30
0.0
  0
VERTEX
  5
5691
  8
0
 10
30.81015530038886
 20
32.653186325883063
 30
0.0
  0
VERTEX
  5
5692
  8
0
 10
30.77700515622028
 20
32.6177336689979
 30
0.0
  0
VERTEX
  5
5693
  8
0
 10
30.74477159931363
 20
32.578402434655963
 30
0.0
  0
VERTEX
  5
5694
  8
0
 10
30.71402577952248
 20
32.535130480092668
 30
0.0
  0
VERTEX
  5
5695
  8
0
 10
30.685428413236121
 20
32.488039217824841
 30
0.0
  0
VERTEX
  5
5696
  8
0
 10
30.6596488822581
 20
32.437405693166923
 30
0.0
  0
VERTEX
  5
5697
  8
0
 10
30.635127939910241
 20
32.377664717439153
 30
0.0
  0
VERTEX
  5
5698
  8
0
 10
30.615643100935959
 20
32.315111314980271
 30
0.0
  0
VERTEX
  5
5699
  8
0
 10
30.601713317021201
 20
32.250855505469637
 30
0.0
  0
VERTEX
  5
569A
  8
0
 10
30.593550418958252
 20
32.18582470114761
 30
0.0
  0
VERTEX
  5
569B
  8
0
 10
30.59159717861613
 20
32.152044962882123
 30
0.0
  0
SEQEND
  5
569C
  8
0
  0
POLYLINE
  5
5152
  8
0
 66
     1
 10
0.0
 20
0.0
 30
0.0
  0
VERTEX
  5
569D
  8
0
 10
31.48951757973586
 20
31.449999999999999
 30
0.0
  0
VERTEX
  5
569E
  8
0
 10
31.609437608285461
 20
31.482722886916282
 30
0.0
  0
VERTEX
  5
569F
  8
0
 10
31.615244127924921
 20
31.484191984151991
 30
0.0
  0
VERTEX
  5
56A0
  8
0
 10
31.626308073392391
 20
31.48675105067683
 30
0.0
  0
VERTEX
  5
56A1
  8
0
 10
31.643066767003042
 20
31.490292807015901
 30
0.0
  0
VERTEX
  5
56A2
  8
0
 10
31.66588343837336
 20
31.49470405991713
 30
0.0
  0
VERTEX
  5
56A3
  8
0
 10
31.695026660456602
 20
31.499868565799641
 30
0.0
  0
VERTEX
  5
56A4
  8
0
 10
31.730663930351941
 20
31.505671421072531
 30
0.0
  0
VERTEX
  5
56A5
  8
0
 10
31.77286908723168
 20
31.512003682821511
 30
0.0
  0
VERTEX
  5
56A6
  8
0
 10
31.82163929859335
 20
31.518766075759181
 30
0.0
  0
VERTEX
  5
56A7
  8
0
 10
31.87691585084205
 20
31.525871181916621
 30
0.0
  0
VERTEX
  5
56A8
  8
0
 10
31.938603918315589
 20
31.533244094410769
 30
0.0
  0
VERTEX
  5
56A9
  8
0
 10
32.006588574515582
 20
31.540821891528111
 30
0.0
  0
VERTEX
  5
56AA
  8
0
 10
32.080746267797323
 20
31.54855240137443
 30
0.0
  0
VERTEX
  5
56AB
  8
0
 10
32.160952208188043
 20
31.556392665392949
 30
0.0
  0
VERTEX
  5
56AC
  8
0
 10
32.247084608491363
 20
31.564307380254771
 30
0.0
  0
VERTEX
  5
56AD
  8
0
 10
32.339026753569371
 20
31.57226747399443
 30
0.0
  0
VERTEX
  5
56AE
  8
0
 10
32.436667694598867
 20
31.580248882331219
 30
0.0
  0
VERTEX
  5
56AF
  8
0
 10
32.539902142453322
 20
31.588231536542089
 30
0.0
  0
VERTEX
  5
56B0
  8
0
 10
32.648629940339539
 20
31.59619854630558
 30
0.0
  0
VERTEX
  5
56B1
  8
0
 10
32.76275535133037
 20
31.604135549761668
 30
0.0
  0
VERTEX
  5
56B2
  8
0
 10
32.882186298207479
 20
31.612030201080209
 30
0.0
  0
VERTEX
  5
56B3
  8
0
 10
33.006833630255507
 20
31.619871768258179
 30
0.0
  0
VERTEX
  5
56B4
  8
0
 10
33.136610453433811
 20
31.627650817921211
 30
0.0
  0
VERTEX
  5
56B5
  8
0
 10
33.271431538110313
 20
31.635358968184939
 30
0.0
  0
VERTEX
  5
56B6
  8
0
 10
33.411212806248763
 20
31.642988694511221
 30
0.0
  0
VERTEX
  5
56B7
  8
0
 10
33.55587089362448
 20
31.65053317676173
 30
0.0
  0
VERTEX
  5
56B8
  8
0
 10
33.705322779801783
 20
31.657986178290759
 30
0.0
  0
VERTEX
  5
56B9
  8
0
 10
33.859485477709349
 20
31.665341950001508
 30
0.0
  0
VERTEX
  5
56BA
  8
0
 10
34.01827577478182
 20
31.67259515390797
 30
0.0
  0
VERTEX
  5
56BB
  8
0
 10
34.181610018267499
 20
31.679740801991251
 30
0.0
  0
VERTEX
  5
56BC
  8
0
 10
34.349403938135012
 20
31.686774207096029
 30
0.0
  0
VERTEX
  5
56BD
  8
0
 10
34.521572501883419
 20
31.693690943345018
 30
0.0
  0
VERTEX
  5
56BE
  8
0
 10
34.698029796383693
 20
31.700486814111208
 30
0.0
  0
VERTEX
  5
56BF
  8
0
 10
34.878688932625593
 20
31.70715782601691
 30
0.0
  0
VERTEX
  5
56C0
  8
0
 10
35.063461969893048
 20
31.713700167761392
 30
0.0
  0
VERTEX
  5
56C1
  8
0
 10
35.252259856450259
 20
31.720110192832379
 30
0.0
  0
VERTEX
  5
56C2
  8
0
 10
35.444992384289641
 20
31.726384405356178
 30
0.0
  0
VERTEX
  5
56C3
  8
0
 10
35.641568155890901
 20
31.732519448493228
 30
0.0
  0
VERTEX
  5
56C4
  8
0
 10
35.841894561273293
 20
31.738512094907239
 30
0.0
  0
VERTEX
  5
56C5
  8
0
 10
36.045877763894261
 20
31.74435923892888
 30
0.0
  0
VERTEX
  5
56C6
  8
0
 10
36.25342269418335
 20
31.75005789010952
 30
0.0
  0
VERTEX
  5
56C7
  8
0
 10
36.464433049683279
 20
31.75560516791883
 30
0.0
  0
VERTEX
  5
56C8
  8
0
 10
36.678811300938413
 20
31.76099829738644
 30
0.0
  0
VERTEX
  5
56C9
  8
0
 10
36.896458702392501
 20
31.766234605524762
 30
0.0
  0
VERTEX
  5
56CA
  8
0
 10
37.11727530767574
 20
31.771311518399742
 30
0.0
  0
VERTEX
  5
56CB
  8
0
 10
37.341159988747492
 20
31.776226558740099
 30
0.0
  0
VERTEX
  5
56CC
  8
0
 10
37.56801045844206
 20
31.78097734399471
 30
0.0
  0
VERTEX
  5
56CD
  8
0
 10
37.797723296023868
 20
31.785561584763549
 30
0.0
  0
VERTEX
  5
56CE
  8
0
 10
38.030193975418548
 20
31.789977083539942
 30
0.0
  0
VERTEX
  5
56CF
  8
0
 10
38.2653168958253
 20
31.794221733712568
 30
0.0
  0
VERTEX
  5
56D0
  8
0
 10
38.502985414459872
 20
31.798293518783812
 30
0.0
  0
VERTEX
  5
56D1
  8
0
 10
38.743091881204499
 20
31.80219051176817
 30
0.0
  0
VERTEX
  5
56D2
  8
0
 10
38.985527674974129
 20
31.805910874740171
 30
0.0
  0
VERTEX
  5
56D3
  8
0
 10
39.230183241623507
 20
31.809452858506042
 30
0.0
  0
VERTEX
  5
56D4
  8
0
 10
39.47694813324896
 20
31.812814802377119
 30
0.0
  0
VERTEX
  5
56D5
  8
0
 10
39.725711048747691
 20
31.815995134026629
 30
0.0
  0
VERTEX
  5
56D6
  8
0
 10
39.976359875513687
 20
31.818992369413952
 30
0.0
  0
VERTEX
  5
56D7
  8
0
 10
40.22878173216489
 20
31.82180511276286
 30
0.0
  0
VERTEX
  5
56D8
  8
0
 10
40.482863012201364
 20
31.824432056582431
 30
0.0
  0
VERTEX
  5
56D9
  8
0
 10
40.738489428507968
 20
31.826871981720512
 30
0.0
  0
VERTEX
  5
56DA
  8
0
 10
40.995546058618089
 20
31.829123757441451
 30
0.0
  0
VERTEX
  5
56DB
  8
0
 10
41.253917390666203
 20
31.831186341520919
 30
0.0
  0
VERTEX
  5
56DC
  8
0
 10
41.513487369958597
 20
31.83305878035133
 30
0.0
  0
VERTEX
  5
56DD
  8
0
 10
41.774139446099497
 20
31.834740209052882
 30
0.0
  0
VERTEX
  5
56DE
  8
0
 10
42.035756620611643
 20
31.83622985158539
 30
0.0
  0
VERTEX
  5
56DF
  8
0
 10
42.298221494995147
 20
31.837527020857099
 30
0.0
  0
VERTEX
  5
56E0
  8
0
 10
42.561416319171627
 20
31.83863111882712
 30
0.0
  0
VERTEX
  5
56E1
  8
0
 10
42.825223040261832
 20
31.83954163659876
 30
0.0
  0
VERTEX
  5
56E2
  8
0
 10
43.08952335164966
 20
31.840258154501349
 30
0.0
  0
VERTEX
  5
56E3
  8
0
 10
43.354198742283451
 20
31.84078034215846
 30
0.0
  0
VERTEX
  5
56E4
  8
0
 10
43.619130546171142
 20
31.84110795854135
 30
0.0
  0
VERTEX
  5
56E5
  8
0
 10
43.870250303852721
 20
31.841238714079811
 30
0.0
  0
VERTEX
  5
56E6
  8
0
 10
43.940183495713917
 20
31.841244006103238
 30
0.0
  0
SEQEND
  5
56E7
  8
0
  0
POLYLINE
  5
5155
  8
0
 10
56.024320631089751
 20
33.291078298846649
 30
0.0
 66
     1
 70
     8
  0
VERTEX
  8
0
  5
5D34
 10
56.0243
 20
33.2911
 30
0.000000
  70
    32
  0
VERTEX
  8
0
  5
5D35
 10
56.0242
 20
33.2911
 30
0.000000
  70
    32
  0
VERTEX
  8
0
  5
5D36
 10
56.0240
 20
33.2911
 30
0.000000
  70
    32
  0
VERTEX
  8
0
  5
5D37
 10
56.0239
 20
33.2911
 30
0.000000
  70
    32
  0
VERTEX
  8
0
  5
5D38
 10
56.0238
 20
33.2911
 30
0.000000
  70
    32
  0
VERTEX
  8
0
  5
5D39
 10
56.0236
 20
33.2911
 30
0.000000
  70
    32
  0
VERTEX
  8
0
  5
5D3A
 10
56.0235
 20
33.2911
 30
0.000000
  70
    32
  0
VERTEX
  8
0
  5
5D3B
 10
56.0233
 20
33.2911
 30
0.000000
  70
    32
  0
VERTEX
  8
0
  5
5D3C
 10
56.0232
 20
33.2911
 30
0.000000
  70
    32
  0
VERTEX
  8
0
  5
5D3D
 10
56.0231
 20
33.2911
 30
0.000000
  70
    32
  0
VERTEX
  8
0
  5
5D3E
 10
56.0229
 20
33.2911
 30
0.000000
  70
    32
  0
VERTEX
  8
0
  5
5D3F
 10
56.0228
 20
33.2911
 30
0.000000
  70
    32
  0
VERTEX
  8
0
  5
5D40
 10
56.0226
 20
33.2911
 30
0.000000
  70
    32
  0
VERTEX
  8
0
  5
5D41
 10
56.0225
 20
33.2911
 30
0.000000
  70
    32
  0
VERTEX
  8
0
  5
5D42
 10
56.0224
 20
33.2911
 30
0.000000
  70
    32
  0
VERTEX
  8
0
  5
5D43
 10
56.0222
 20
33.2911
 30
0.000000
  70
    32
  0
VERTEX
  8
0
  5
5D44
 10
56.0221
 20
33.2911
 30
0.000000
  70
    32
  0
VERTEX
  8
0
  5
5D45
 10
56.0219
 20
33.2911
 30
0.000000
  70
    32
  0
VERTEX
  8
0
  5
5D46
 10
56.0218
 20
33.2911
 30
0.000000
  70
    32
  0
VERTEX
  8
0
  5
5D47
 10
56.0217
 20
33.2911
 30
0.000000
  70
    32
  0
VERTEX
  8
0
  5
5D48
 10
56.0215
 20
33.2911
 30
0.000000
  70
    32
  0
VERTEX
  8
0
  5
5D49
 10
56.0214
 20
33.2911
 30
0.000000
  70
    32
  0
VERTEX
  8
0
  5
5D4A
 10
56.0212
 20
33.2911
 30
0.000000
  70
    32
  0
VERTEX
  8
0
  5
5D4B
 10
56.0211
 20
33.2911
 30
0.000000
  70
    32
  0
VERTEX
  8
0
  5
5D4C
 10
56.0210
 20
33.2911
 30
0.000000
  70
    32
  0
VERTEX
  8
0
  5
5D4D
 10
56.0208
 20
33.2911
 30
0.000000
  70
    32
  0
VERTEX
  8
0
  5
5D4E
 10
56.0207
 20
33.2911
 30
0.000000
  70
    32
  0
VERTEX
  8
0
  5
5D4F
 10
56.0205
 20
33.2911
 30
0.000000
  70
    32
  0
VERTEX
  8
0
  5
5D50
 10
56.0204
 20
33.2912
 30
0.000000
  70
    32
  0
VERTEX
  8
0
  5
5D51
 10
56.0203
 20
33.2912
 30
0.000000
  70
    32
  0
VERTEX
  8
0
  5
5D52
 10
56.0201
 20
33.2912
 30
0.000000
  70
    32
  0
VERTEX
  8
0
  5
5D53
 10
56.0200
 20
33.2912
 30
0.000000
  70
    32
  0
VERTEX
  8
0
  5
5D54
 10
56.0198
 20
33.2912
 30
0.000000
  70
    32
  0
VERTEX
  8
0
  5
5D55
 10
56.0197
 20
33.2912
 30
0.000000
  70
    32
  0
VERTEX
  8
0
  5
5D56
 10
56.0196
 20
33.2912
 30
0.000000
  70
    32
  0
VERTEX
  8
0
  5
5D57
 10
56.0194
 20
33.2912
 30
0.000000
  70
    32
  0
VERTEX
  8
0
  5
5D58
 10
56.0193
 20
33.2912
 30
0.000000
  70
    32
  0
VERTEX
  8
0
  5
5D59
 10
56.0191
 20
33.2912
 30
0.000000
  70
    32
  0
VERTEX
  8
0
  5
5D5A
 10
56.0190
 20
33.2912
 30
0.000000
  70
    32
  0
VERTEX
  8
0
  5
5D5B
 10
56.0189
 20
33.2912
 30
0.000000
  70
    32
  0
VERTEX
  8
0
  5
5D5C
 10
56.0187
 20
33.2912
 30
0.000000
  70
    32
  0
VERTEX
  8
0
  5
5D5D
 10
56.0186
 20
33.2912
 30
0.000000
  70
    32
  0
VERTEX
  8
0
  5
5D5E
 10
56.0185
 20
33.2912
 30
0.000000
  70
    32
  0
VERTEX
  8
0
  5
5D5F
 10
56.0183
 20
33.2912
 30
0.000000
  70
    32
  0
VERTEX
  8
0
  5
5D60
 10
56.0182
 20
33.2912
 30
0.000000
  70
    32
  0
VERTEX
  8
0
  5
5D61
 10
56.0180
 20
33.2912
 30
0.000000
  70
    32
  0
VERTEX
  8
0
  5
5D62
 10
56.0179
 20
33.2912
 30
0.000000
  70
    32
  0
VERTEX
  8
0
  5
5D63
 10
56.0178
 20
33.2912
 30
0.000000
  70
    32
  0
VERTEX
  8
0
  5
5D64
 10
56.0176
 20
33.2912
 30
0.000000
  70
    32
  0
VERTEX
  8
0
  5
5D65
 10
56.0175
 20
33.2912
 30
0.000000
  70
    32
  0
VERTEX
  8
0
  5
5D66
 10
56.0173
 20
33.2912
 30
0.000000
  70
    32
  0
VERTEX
  8
0
  5
5D67
 10
56.0172
 20
33.2912
 30
0.000000
  70
    32
  0
VERTEX
  8
0
  5
5D68
 10
56.0171
 20
33.2912
 30
0.000000
  70
    32
  0
VERTEX
  8
0
  5
5D69
 10
56.0169
 20
33.2912
 30
0.000000
  70
    32
  0
VERTEX
  8
0
  5
5D6A
 10
56.0168
 20
33.2912
 30
0.000000
  70
    32
  0
VERTEX
  8
0
  5
5D6B
 10
56.0166
 20
33.2912
 30
0.000000
  70
    32
  0
VERTEX
  8
0
  5
5D6C
 10
56.0165
 20
33.2912
 30
0.000000
  70
    32
  0
VERTEX
  8
0
  5
5D6D
 10
56.0164
 20
33.2912
 30
0.000000
  70
    32
  0
VERTEX
  8
0
  5
5D6E
 10
56.0162
 20
33.2912
 30
0.000000
  70
    32
  0
VERTEX
  8
0
  5
5D6F
 10
56.0161
 20
33.2912
 30
0.000000
  70
    32
  0
VERTEX
  8
0
  5
5D70
 10
56.0159
 20
33.2912
 30
0.000000
  70
    32
  0
VERTEX
  8
0
  5
5D71
 10
56.0158
 20
33.2912
 30
0.000000
  70
    32
  0
VERTEX
  8
0
  5
5D72
 10
56.0157
 20
33.2912
 30
0.000000
  70
    32
  0
VERTEX
  8
0
  5
5D73
 10
56.0155
 20
33.2912
 30
0.000000
  70
    32
  0
VERTEX
  8
0
  5
5D74
 10
56.0154
 20
33.2912
 30
0.000000
  70
    32
  0
VERTEX
  8
0
  5
5D75
 10
56.0152
 20
33.2912
 30
0.000000
  70
    32
  0
VERTEX
  8
0
  5
5D76
 10
56.0151
 20
33.2912
 30
0.000000
  70
    32
  0
VERTEX
  8
0
  5
5D77
 10
56.0150
 20
33.2912
 30
0.000000
  70
    32
  0
VERTEX
  8
0
  5
5D78
 10
56.0148
 20
33.2912
 30
0.000000
  70
    32
  0
VERTEX
  8
0
  5
5D79
 10
56.0147
 20
33.2912
 30
0.000000
  70
    32
  0
VERTEX
  8
0
  5
5D7A
 10
56.0145
 20
33.2912
 30
0.000000
  70
    32
  0
VERTEX
  8
0
  5
5D7B
 10
56.0144
 20
33.2912
 30
0.000000
  70
    32
  0
VERTEX
  8
0
  5
5D7C
 10
56.0143
 20
33.2912
 30
0.000000
  70
    32
  0
VERTEX
  8
0
  5
5D7D
 10
56.0141
 20
33.2912
 30
0.000000
  70
    32
  0
VERTEX
  8
0
  5
5D7E
 10
56.0140
 20
33.2912
 30
0.000000
  70
    32
  0
VERTEX
  8
0
  5
5D7F
 10
56.0138
 20
33.2912
 30
0.000000
  70
    32
  0
VERTEX
  8
0
  5
5D80
 10
56.0137
 20
33.2912
 30
0.000000
  70
    32
  0
VERTEX
  8
0
  5
5D81
 10
56.0136
 20
33.2912
 30
0.000000
  70
    32
  0
VERTEX
  8
0
  5
5D82
 10
56.0134
 20
33.2912
 30
0.000000
  70
    32
  0
VERTEX
  8
0
  5
5D83
 10
56.0133
 20
33.2912
 30
0.000000
  70
    32
  0
VERTEX
  8
0
  5
5D84
 10
56.0131
 20
33.2912
 30
0.000000
  70
    32
  0
VERTEX
  8
0
  5
5D85
 10
56.0130
 20
33.2912
 30
0.000000
  70
    32
  0
VERTEX
  8
0
  5
5D86
 10
56.0129
 20
33.2912
 30
0.000000
  70
    32
  0
VERTEX
  8
0
  5
5D87
 10
56.0127
 20
33.2912
 30
0.000000
  70
    32
  0
VERTEX
  8
0
  5
5D88
 10
56.0126
 20
33.2912
 30
0.000000
  70
    32
  0
VERTEX
  8
0
  5
5D89
 10
56.0124
 20
33.2912
 30
0.000000
  70
    32
  0
VERTEX
  8
0
  5
5D8A
 10
56.0123
 20
33.2912
 30
0.000000
  70
    32
  0
VERTEX
  8
0
  5
5D8B
 10
56.0122
 20
33.2912
 30
0.000000
  70
    32
  0
VERTEX
  8
0
  5
5D8C
 10
56.0120
 20
33.2912
 30
0.000000
  70
    32
  0
VERTEX
  8
0
  5
5D8D
 10
56.0119
 20
33.2912
 30
0.000000
  70
    32
  0
VERTEX
  8
0
  5
5D8E
 10
56.0117
 20
33.2912
 30
0.000000
  70
    32
  0
VERTEX
  8
0
  5
5D8F
 10
56.0116
 20
33.2912
 30
0.000000
  70
    32
  0
VERTEX
  8
0
  5
5D90
 10
56.0115
 20
33.2912
 30
0.000000
  70
    32
  0
VERTEX
  8
0
  5
5D91
 10
56.0113
 20
33.2912
 30
0.000000
  70
    32
  0
VERTEX
  8
0
  5
5D92
 10
56.0112
 20
33.2912
 30
0.000000
  70
    32
  0
VERTEX
  8
0
  5
5D93
 10
56.0110
 20
33.2912
 30
0.000000
  70
    32
  0
VERTEX
  8
0
  5
5D94
 10
56.0109
 20
33.2912
 30
0.000000
  70
    32
  0
VERTEX
  8
0
  5
5D95
 10
56.0108
 20
33.2912
 30
0.000000
  70
    32
  0
VERTEX
  8
0
  5
5D96
 10
56.0106
 20
33.2912
 30
0.000000
  70
    32
  0
VERTEX
  8
0
  5
5D97
 10
56.0105
 20
33.2912
 30
0.000000
  70
    32
  0
VERTEX
  8
0
  5
5D98
 10
56.0103
 20
33.2912
 30
0.000000
  70
    32
  0
VERTEX
  8
0
  5
5D99
 10
56.0102
 20
33.2912
 30
0.000000
  70
    32
  0
VERTEX
  8
0
  5
5D9A
 10
56.0101
 20
33.2912
 30
0.000000
  70
    32
  0
VERTEX
  8
0
  5
5D9B
 10
56.0099
 20
33.2912
 30
0.000000
  70
    32
  0
VERTEX
  8
0
  5
5D9C
 10
56.0098
 20
33.2912
 30
0.000000
  70
    32
  0
VERTEX
  8
0
  5
5D9D
 10
56.0096
 20
33.2912
 30
0.000000
  70
    32
  0
VERTEX
  8
0
  5
5D9E
 10
56.0095
 20
33.2912
 30
0.000000
  70
    32
  0
VERTEX
  8
0
  5
5D9F
 10
56.0094
 20
33.2912
 30
0.000000
  70
    32
  0
VERTEX
  8
0
  5
5DA0
 10
56.0092
 20
33.2912
 30
0.000000
  70
    32
  0
VERTEX
  8
0
  5
5DA1
 10
56.0091
 20
33.2912
 30
0.000000
  70
    32
  0
VERTEX
  8
0
  5
5DA2
 10
56.0089
 20
33.2912
 30
0.000000
  70
    32
  0
VERTEX
  8
0
  5
5DA3
 10
56.0088
 20
33.2912
 30
0.000000
  70
    32
  0
VERTEX
  8
0
  5
5DA4
 10
56.0087
 20
33.2912
 30
0.000000
  70
    32
  0
VERTEX
  8
0
  5
5DA5
 10
56.0085
 20
33.2912
 30
0.000000
  70
    32
  0
VERTEX
  8
0
  5
5DA6
 10
56.0084
 20
33.2912
 30
0.000000
  70
    32
  0
VERTEX
  8
0
  5
5DA7
 10
56.0082
 20
33.2912
 30
0.000000
  70
    32
  0
VERTEX
  8
0
  5
5DA8
 10
56.0081
 20
33.2912
 30
0.000000
  70
    32
  0
VERTEX
  8
0
  5
5DA9
 10
56.0080
 20
33.2912
 30
0.000000
  70
    32
  0
VERTEX
  8
0
  5
5DAA
 10
56.0078
 20
33.2912
 30
0.000000
  70
    32
  0
VERTEX
  8
0
  5
5DAB
 10
56.0077
 20
33.2912
 30
0.000000
  70
    32
  0
VERTEX
  8
0
  5
5DAC
 10
56.0075
 20
33.2912
 30
0.000000
  70
    32
  0
VERTEX
  8
0
  5
5DAD
 10
56.0074
 20
33.2912
 30
0.000000
  70
    32
  0
VERTEX
  8
0
  5
5DAE
 10
56.0073
 20
33.2912
 30
0.000000
  70
    32
  0
VERTEX
  8
0
  5
5DAF
 10
56.0071
 20
33.2912
 30
0.000000
  70
    32
  0
VERTEX
  8
0
  5
5DB0
 10
56.0070
 20
33.2912
 30
0.000000
  70
    32
  0
VERTEX
  8
0
  5
5DB1
 10
56.0068
 20
33.2912
 30
0.000000
  70
    32
  0
VERTEX
  8
0
  5
5DB2
 10
56.0067
 20
33.2912
 30
0.000000
  70
    32
  0
VERTEX
  8
0
  5
5DB3
 10
56.0066
 20
33.2912
 30
0.000000
  70
    32
  0
VERTEX
  8
0
  5
5DB4
 10
56.0064
 20
33.2912
 30
0.000000
  70
    32
  0
SEQEND
  8
0
  5
5DB5
  0
LINE
  5
5156
  8
0
 10
56.00669956588505
 20
33.291239875643598
 30
0.0
 11
43.940214303712061
 21
33.291244005775972
 31
0.0
  0
POLYLINE
  5
5157
  8
0
 66
     1
 10
0.0
 20
0.0
 30
0.0
  0
VERTEX
  5
56E8
  8
0
 10
43.940183495713917
 20
31.84124400610326
 30
0.0
  0
VERTEX
  5
56E9
  8
0
 10
44.077031540339107
 20
31.841241114972721
 30
0.0
  0
VERTEX
  5
56EA
  8
0
 10
44.336992818458867
 20
31.841235713613951
 30
0.0
  0
VERTEX
  5
56EB
  8
0
 10
44.596767140307954
 20
31.84123043506187
 30
0.0
  0
VERTEX
  5
56EC
  8
0
 10
44.856230573080133
 20
31.84122528183725
 30
0.0
  0
VERTEX
  5
56ED
  8
0
 10
45.115262955490067
 20
31.841220256326629
 30
0.0
  0
VERTEX
  5
56EE
  8
0
 10
45.373744326024877
 20
31.841215360857412
 30
0.0
  0
VERTEX
  5
56EF
  8
0
 10
45.631554978362182
 20
31.841210597696751
 30
0.0
  0
VERTEX
  5
56F0
  8
0
 10
45.888575516810448
 20
31.841205969050531
 30
0.0
  0
VERTEX
  5
56F1
  8
0
 10
46.144686911605817
 20
31.841201477062331
 30
0.0
  0
VERTEX
  5
56F2
  8
0
 10
46.399770554038561
 20
31.841197123812499
 30
0.0
  0
VERTEX
  5
56F3
  8
0
 10
46.653708311385273
 20
31.84119291131708
 30
0.0
  0
VERTEX
  5
56F4
  8
0
 10
46.906382581620818
 20
31.841188841526929
 30
0.0
  0
VERTEX
  5
56F5
  8
0
 10
47.157676347884518
 20
31.84118491632686
 30
0.0
  0
VERTEX
  5
56F6
  8
0
 10
47.407473232675528
 20
31.841181137534651
 30
0.0
  0
VERTEX
  5
56F7
  8
0
 10
47.655657551752292
 20
31.841177506900369
 30
0.0
  0
VERTEX
  5
56F8
  8
0
 10
47.902114367711107
 20
31.84117402610541
 30
0.0
  0
VERTEX
  5
56F9
  8
0
 10
48.146729543219159
 20
31.841170696761779
 30
0.0
  0
VERTEX
  5
56FA
  8
0
 10
48.389389793877598
 20
31.841167520411361
 30
0.0
  0
VERTEX
  5
56FB
  8
0
 10
48.629982740689549
 20
31.841164498525181
 30
0.0
  0
VERTEX
  5
56FC
  8
0
 10
48.86839696210891
 20
31.84116163250274
 30
0.0
  0
VERTEX
  5
56FD
  8
0
 10
49.104522045647442
 20
31.841158923671351
 30
0.0
  0
VERTEX
  5
56FE
  8
0
 10
49.338248639013713
 20
31.841156373285521
 30
0.0
  0
VERTEX
  5
56FF
  8
0
 10
49.569468500762561
 20
31.8411539825264
 30
0.0
  0
VERTEX
  5
5700
  8
0
 10
49.798074550429853
 20
31.841151752501201
 30
0.0
  0
VERTEX
  5
5701
  8
0
 10
50.023960918131507
 20
31.841149684242708
 30
0.0
  0
VERTEX
  5
5702
  8
0
 10
50.247022993601689
 20
31.841147778708809
 30
0.0
  0
VERTEX
  5
5703
  8
0
 10
50.467157474649333
 20
31.841146036782
 30
0.0
  0
VERTEX
  5
5704
  8
0
 10
50.684262415009897
 20
31.841144459269032
 30
0.0
  0
VERTEX
  5
5705
  8
0
 10
50.898237271570324
 20
31.84114304690053
 30
0.0
  0
VERTEX
  5
5706
  8
0
 10
51.108982950946
 20
31.841141800330622
 30
0.0
  0
VERTEX
  5
5707
  8
0
 10
51.316401855387802
 20
31.841140720136679
 30
0.0
  0
VERTEX
  5
5708
  8
0
 10
51.520397927999142
 20
31.841139806819001
 30
0.0
  0
VERTEX
  5
5709
  8
0
 10
51.72087669724138
 20
31.841139060800661
 30
0.0
  0
VERTEX
  5
570A
  8
0
 10
51.917745320708299
 20
31.84113848242723
 30
0.0
  0
VERTEX
  5
570B
  8
0
 10
52.11091262814918
 20
31.84113807196665
 30
0.0
  0
VERTEX
  5
570C
  8
0
 10
52.300289163722063
 20
31.841137829609121
 30
0.0
  0
VERTEX
  5
570D
  8
0
 10
52.485787227457124
 20
31.84113775546702
 30
0.0
  0
VERTEX
  5
570E
  8
0
 10
52.667320915913287
 20
31.84113784957486
 30
0.0
  0
VERTEX
  5
570F
  8
0
 10
52.844806162009753
 20
31.841138111889201
 30
0.0
  0
VERTEX
  5
5710
  8
0
 10
53.018160774014333
 20
31.8411385422888
 30
0.0
  0
VERTEX
  5
5711
  8
0
 10
53.18730447367458
 20
31.841139140574569
 30
0.0
  0
VERTEX
  5
5712
  8
0
 10
53.35215893347462
 20
31.84113990646971
 30
0.0
  0
VERTEX
  5
5713
  8
0
 10
53.512647813002651
 20
31.8411408396199
 30
0.0
  0
VERTEX
  5
5714
  8
0
 10
53.668696794418032
 20
31.84114193959336
 30
0.0
  0
VERTEX
  5
5715
  8
0
 10
53.820233617003318
 20
31.841143205881171
 30
0.0
  0
VERTEX
  5
5716
  8
0
 10
53.967188110792542
 20
31.841144637897479
 30
0.0
  0
VERTEX
  5
5717
  8
0
 10
54.109492229267211
 20
31.841146234979799
 30
0.0
  0
VERTEX
  5
5718
  8
0
 10
54.247080081114497
 20
31.841147996389338
 30
0.0
  0
VERTEX
  5
5719
  8
0
 10
54.379887961044552
 20
31.841149921311398
 30
0.0
  0
VERTEX
  5
571A
  8
0
 10
54.507854379671393
 20
31.841152008855801
 30
0.0
  0
VERTEX
  5
571B
  8
0
 10
54.630920092465352
 20
31.84115425805734
 30
0.0
  0
VERTEX
  5
571C
  8
0
 10
54.74902812779365
 20
31.841156667876309
 30
0.0
  0
VERTEX
  5
571D
  8
0
 10
54.862123814081301
 20
31.8411592371992
 30
0.0
  0
VERTEX
  5
571E
  8
0
 10
54.97015480613792
 20
31.841161964839241
 30
0.0
  0
VERTEX
  5
571F
  8
0
 10
55.073071110724619
 20
31.84116484953724
 30
0.0
  0
VERTEX
  5
5720
  8
0
 10
55.170825111472404
 20
31.841167889962499
 30
0.0
  0
VERTEX
  5
5721
  8
0
 10
55.263371593323001
 20
31.841171084713849
 30
0.0
  0
VERTEX
  5
5722
  8
0
 10
55.350667766754192
 20
31.841174432321001
 30
0.0
  0
VERTEX
  5
5723
  8
0
 10
55.432673292200747
 20
31.841177931246168
 30
0.0
  0
VERTEX
  5
5724
  8
0
 10
55.50935030532353
 20
31.841181579886371
 30
0.0
  0
VERTEX
  5
5725
  8
0
 10
55.58066344419646
 20
31.841185376576512
 30
0.0
  0
VERTEX
  5
5726
  8
0
 10
55.646579880212109
 20
31.841189319594069
 30
0.0
  0
VERTEX
  5
5727
  8
0
 10
55.707069355854841
 20
31.841193407166529
 30
0.0
  0
VERTEX
  5
5728
  8
0
 10
55.762104235087669
 20
31.84119763748367
 30
0.0
  0
VERTEX
  5
5729
  8
0
 10
55.811659577399077
 20
31.841202008719868
 30
0.0
  0
VERTEX
  5
572A
  8
0
 10
55.855713258109553
 20
31.841206519077119
 30
0.0
  0
VERTEX
  5
572B
  8
0
 10
55.89424618488821
 20
31.84121116687534
 30
0.0
  0
VERTEX
  5
572C
  8
0
 10
55.92724273218554
 20
31.841215950762681
 30
0.0
  0
VERTEX
  5
572D
  8
0
 10
55.95469173063109
 20
31.841220870273979
 30
0.0
  0
VERTEX
  5
572E
  8
0
 10
55.976589125268198
 20
31.841225927611539
 30
0.0
  0
VERTEX
  5
572F
  8
0
 10
55.99294709790238
 20
31.841231135165149
 30
0.0
  0
VERTEX
  5
5730
  8
0
 10
56.003842302029263
 20
31.841236568729631
 30
0.0
  0
VERTEX
  5
5731
  8
0
 10
56.010265719334413
 20
31.841244287423478
 30
0.0
  0
VERTEX
  5
5732
  8
0
 10
56.01248181780754
 20
31.841252748901159
 30
0.0
  0
VERTEX
  5
5733
  8
0
 10
56.014355498228412
 20
31.841264821946389
 30
0.0
  0
VERTEX
  5
5734
  8
0
 10
56.018713137004831
 20
31.841311376920881
 30
0.0
  0
VERTEX
  5
5735
  8
0
 10
56.023048280727252
 20
31.84138359459255
 30
0.0
  0
VERTEX
  5
5736
  8
0
 10
56.030797823568747
 20
31.841577263630342
 30
0.0
  0
VERTEX
  5
5737
  8
0
 10
56.044148015609473
 20
31.842105440669322
 30
0.0
  0
VERTEX
  5
5738
  8
0
 10
56.065477399122393
 20
31.84346158551724
 30
0.0
  0
VERTEX
  5
5739
  8
0
 10
56.11262301489112
 20
31.8487142635041
 30
0.0
  0
VERTEX
  5
573A
  8
0
 10
56.155576477015387
 20
31.856253795323589
 30
0.0
  0
VERTEX
  5
573B
  8
0
 10
56.217135439303519
 20
31.871817894952191
 30
0.0
  0
VERTEX
  5
573C
  8
0
 10
56.270862064059983
 20
31.89025852799476
 30
0.0
  0
VERTEX
  5
573D
  8
0
 10
56.318118828778978
 20
31.91053357177335
 30
0.0
  0
VERTEX
  5
573E
  8
0
 10
56.366852228736917
 20
31.935820039766352
 30
0.0
  0
VERTEX
  5
573F
  8
0
 10
56.41490691750338
 20
31.965648974820251
 30
0.0
  0
VERTEX
  5
5740
  8
0
 10
56.461367818125019
 20
31.999833389549611
 30
0.0
  0
VERTEX
  5
5741
  8
0
 10
56.505515493403593
 20
32.038121234150552
 30
0.0
  0
VERTEX
  5
5742
  8
0
 10
56.546788844881377
 20
32.080230439215697
 30
0.0
  0
VERTEX
  5
5743
  8
0
 10
56.584732256161921
 20
32.125852860132923
 30
0.0
  0
VERTEX
  5
5744
  8
0
 10
56.618966336052928
 20
32.17465698292132
 30
0.0
  0
VERTEX
  5
5745
  8
0
 10
56.649171453240712
 20
32.226290091016082
 30
0.0
  0
VERTEX
  5
5746
  8
0
 10
56.675078525328253
 20
32.280380458029967
 30
0.0
  0
VERTEX
  5
5747
  8
0
 10
56.69646388618569
 20
32.336539709136602
 30
0.0
  0
VERTEX
  5
5748
  8
0
 10
56.713146448258868
 20
32.394365366308477
 30
0.0
  0
VERTEX
  5
5749
  8
0
 10
56.725923024845748
 20
32.459561592510831
 30
0.0
  0
VERTEX
  5
574A
  8
0
 10
56.732622185653703
 20
32.524672199580849
 30
0.0
  0
VERTEX
  5
574B
  8
0
 10
56.733456915697992
 20
32.589028894751138
 30
0.0
  0
VERTEX
  5
574C
  8
0
 10
56.72870173521617
 20
32.652198326840477
 30
0.0
  0
VERTEX
  5
574D
  8
0
 10
56.718645917498549
 20
32.713774086612133
 30
0.0
  0
VERTEX
  5
574E
  8
0
 10
56.703596648508523
 20
32.773375645286912
 30
0.0
  0
VERTEX
  5
574F
  8
0
 10
56.683880836795907
 20
32.830651210431803
 30
0.0
  0
VERTEX
  5
5750
  8
0
 10
56.65984568259276
 20
32.885280214718243
 30
0.0
  0
VERTEX
  5
5751
  8
0
 10
56.631858503421121
 20
32.936975503357111
 30
0.0
  0
VERTEX
  5
5752
  8
0
 10
56.600306155590182
 20
32.9854852981817
 30
0.0
  0
VERTEX
  5
5753
  8
0
 10
56.565594310724101
 20
33.030594999441547
 30
0.0
  0
VERTEX
  5
5754
  8
0
 10
56.528146813549121
 20
33.072128885210731
 30
0.0
  0
VERTEX
  5
5755
  8
0
 10
56.488405348505097
 20
33.109951775610647
 30
0.0
  0
VERTEX
  5
5756
  8
0
 10
56.446829672971752
 20
33.143970744941058
 30
0.0
  0
VERTEX
  5
5757
  8
0
 10
56.403898737012902
 20
33.17413698747832
 30
0.0
  0
VERTEX
  5
5758
  8
0
 10
56.360113109464614
 20
33.20044797331402
 30
0.0
  0
VERTEX
  5
5759
  8
0
 10
56.31599927984773
 20
33.222950066590471
 30
0.0
  0
VERTEX
  5
575A
  8
0
 10
56.272116616853943
 20
33.241741814061918
 30
0.0
  0
VERTEX
  5
575B
  8
0
 10
56.229068049876432
 20
33.256978124978893
 30
0.0
  0
VERTEX
  5
575C
  8
0
 10
56.187515932159641
 20
33.268875492572249
 30
0.0
  0
VERTEX
  5
575D
  8
0
 10
56.148205356636574
 20
33.277718080856907
 30
0.0
  0
VERTEX
  5
575E
  8
0
 10
56.112001312232309
 20
33.283863417837097
 30
0.0
  0
VERTEX
  5
575F
  8
0
 10
56.079978546653109
 20
33.287742997726561
 30
0.0
  0
VERTEX
  5
5760
  8
0
 10
56.053846657470821
 20
33.289844183400959
 30
0.0
  0
VERTEX
  5
5761
  8
0
 10
56.036693881832178
 20
33.290707857964982
 30
0.0
  0
VERTEX
  5
5762
  8
0
 10
56.02722897414467
 20
33.291010232199334
 30
0.0
  0
VERTEX
  5
5763
  8
0
 10
56.024320631089751
 20
33.291078298846649
 30
0.0
  0
SEQEND
  5
5764
  8
0
  0
ARC
  5
5158
  8
0
 10
30.725000000000001
 20
30.725000000000001
 30
0.0
 40
0.7250000000000001
 50
90.0
 51
270.0
  0
LINE
  5
5159
  8
0
 10
30.725000000000001
 20
30.0
 30
0.0
 11
58.274999999999963
 21
30.0
 31
0.0
  0
LINE
  5
515A
  8
0
 10
58.274999999999963
 20
31.449999999999999
 30
0.0
 11
30.725000000000001
 21
31.449999999999999
 31
0.0
  0
ARC
  5
515B
  8
0
 10
58.274999999999963
 20
30.725000000000001
 30
0.0
 40
0.7250000000000001
 50
270.0
 51
90.0
  0
LINE
  5
51A9
  8
1
 10
26.999999999999979
 20
82.250665945385876
 30
0.0
 11
61.999999999999979
 21
82.250665945385876
 31
0.0
  0
LINE
  5
51AA
  8
1
 10
44.499999999999979
 20
64.750665945385862
 30
0.0
 11
44.499999999999979
 21
99.750665945385876
 31
0.0
  0
LINE
  5
51AB
  8
0
 10
29.999999999999979
 20
82.250665945385876
 30
0.0
 11
30.60867662961321
 21
82.250665945385876
 31
0.0
  0
ARC
  5
51AC
  8
0
 10
44.499999999999979
 20
82.250665945385876
 30
0.0
 40
14.5
 50
180.0
 51
0.0
  0
ARC
  5
51AD
  8
0
 10
44.499999999999979
 20
82.250665945385876
 30
0.0
 40
13.050000000000001
 50
239.0292148958861
 51
0.0
  0
POLYLINE
  5
51AF
  8
0
 66
     1
 10
0.0
 20
0.0
 30
0.0
  0
VERTEX
  5
5765
  8
0
 10
44.473888579260098
 20
95.335189754909678
 30
0.0
  0
VERTEX
  5
5766
  8
0
 10
44.741785132894933
 20
95.332443438680485
 30
0.0
  0
VERTEX
  5
5767
  8
0
 10
45.264409879241143
 20
95.311256860296595
 30
0.0
  0
VERTEX
  5
5768
  8
0
 10
45.785795430428188
 20
95.269170025393336
 30
0.0
  0
VERTEX
  5
5769
  8
0
 10
46.305081705892668
 20
95.206250803302666
 30
0.0
  0
VERTEX
  5
576A
  8
0
 10
46.821437701980393
 20
95.122599877864616
 30
0.0
  0
VERTEX
  5
576B
  8
0
 10
47.334037107952362
 20
95.018351112854276
 30
0.0
  0
VERTEX
  5
576C
  8
0
 10
47.842059625479443
 20
94.893671337880065
 30
0.0
  0
VERTEX
  5
576D
  8
0
 10
48.344692281923329
 20
94.748760081242295
 30
0.0
  0
VERTEX
  5
576E
  8
0
 10
48.841130731869079
 20
94.583849250390585
 30
0.0
  0
VERTEX
  5
576F
  8
0
 10
49.330580544815092
 20
94.399202760495371
 30
0.0
  0
VERTEX
  5
5770
  8
0
 10
49.812258476953943
 20
94.195116111732233
 30
0.0
  0
VERTEX
  5
5771
  8
0
 10
50.285393724997483
 20
93.971915915962768
 30
0.0
  0
VERTEX
  5
5772
  8
0
 10
50.749229160036549
 20
93.729959373574985
 30
0.0
  0
VERTEX
  5
5773
  8
0
 10
51.203022539452292
 20
93.469633701328945
 30
0.0
  0
VERTEX
  5
5774
  8
0
 10
51.646047694934772
 20
93.191355512131736
 30
0.0
  0
VERTEX
  5
5775
  8
0
 10
52.077595694705892
 20
92.895570147742148
 30
0.0
  0
VERTEX
  5
5776
  8
0
 10
52.496975978080151
 20
92.582750965483768
 30
0.0
  0
VERTEX
  5
5777
  8
0
 10
52.903517460550162
 20
92.253398580115885
 30
0.0
  0
VERTEX
  5
5778
  8
0
 10
53.296569607624157
 20
91.908040062086258
 30
0.0
  0
VERTEX
  5
5779
  8
0
 10
53.675503475700147
 20
91.547228093458216
 30
0.0
  0
VERTEX
  5
577A
  8
0
 10
54.039712718312252
 20
91.171540082871488
 30
0.0
  0
VERTEX
  5
577B
  8
0
 10
54.38861455614105
 20
90.781577240963188
 30
0.0
  0
VERTEX
  5
577C
  8
0
 10
54.721650709240841
 20
90.377963617736995
 30
0.0
  0
VERTEX
  5
577D
  8
0
 10
55.038288289995741
 20
89.961345103428755
 30
0.0
  0
VERTEX
  5
577E
  8
0
 10
55.338020655383197
 20
89.532388394475447
 30
0.0
  0
VERTEX
  5
577F
  8
0
 10
55.620368217185991
 20
89.091779926248535
 30
0.0
  0
VERTEX
  5
5780
  8
0
 10
55.884879208864817
 20
88.640224774265846
 30
0.0
  0
VERTEX
  5
5781
  8
0
 10
56.131130407872192
 20
88.178445525644705
 30
0.0
  0
VERTEX
  5
5782
  8
0
 10
56.358727812260419
 20
87.707181122606727
 30
0.0
  0
VERTEX
  5
5783
  8
0
 10
56.56730727050914
 20
87.227185679887967
 30
0.0
  0
VERTEX
  5
5784
  8
0
 10
56.756535063575008
 20
86.739227277947833
 30
0.0
  0
VERTEX
  5
5785
  8
0
 10
56.926108438240632
 20
86.244086733909455
 30
0.0
  0
VERTEX
  5
5786
  8
0
 10
57.075756090918823
 20
85.74255635219788
 30
0.0
  0
VERTEX
  5
5787
  8
0
 10
57.205238601147393
 20
85.235438656873058
 30
0.0
  0
VERTEX
  5
5788
  8
0
 10
57.314348814089819
 20
84.723545107684629
 30
0.0
  0
VERTEX
  5
5789
  8
0
 10
57.402912171437812
 20
84.207694801899351
 30
0.0
  0
VERTEX
  5
578A
  8
0
 10
57.470786990195251
 20
83.688713163973546
 30
0.0
  0
VERTEX
  5
578B
  8
0
 10
57.517864688903991
 20
83.167430625162226
 30
0.0
  0
VERTEX
  5
578C
  8
0
 10
57.544069960957557
 20
82.644681295171807
 30
0.0
  0
VERTEX
  5
578D
  8
0
 10
57.54999999999999
 20
82.250665945385876
 30
0.0
  0
SEQEND
  5
578E
  8
0
  0
POLYLINE
  5
51B0
  8
0
 66
     1
 10
0.0
 20
0.0
 30
0.0
  0
VERTEX
  5
578F
  8
0
 10
58.999999999999979
 20
82.250665945385876
 30
0.0
  0
VERTEX
  5
5790
  8
0
 10
58.996951087672677
 20
82.548442706619284
 30
0.0
  0
VERTEX
  5
5791
  8
0
 10
58.975197741061983
 20
83.099653417715487
 30
0.0
  0
VERTEX
  5
5792
  8
0
 10
58.932553135385866
 20
83.649664601211427
 30
0.0
  0
VERTEX
  5
5793
  8
0
 10
58.869079180049511
 20
84.197660420171815
 30
0.0
  0
VERTEX
  5
5794
  8
0
 10
58.784867315159353
 20
84.742851397622715
 30
0.0
  0
VERTEX
  5
5795
  8
0
 10
58.680038859583853
 20
85.284452100249354
 30
0.0
  0
VERTEX
  5
5796
  8
0
 10
58.554744836297893
 20
85.821682267529297
 30
0.0
  0
VERTEX
  5
5797
  8
0
 10
58.409165754719737
 20
86.353767936219441
 30
0.0
  0
VERTEX
  5
5798
  8
0
 10
58.243511350520102
 20
86.879942555756216
 30
0.0
  0
VERTEX
  5
5799
  8
0
 10
58.058020283279319
 20
87.399448092959375
 30
0.0
  0
VERTEX
  5
579A
  8
0
 10
57.852959792431399
 20
87.911536124439039
 30
0.0
  0
VERTEX
  5
579B
  8
0
 10
57.628625311993439
 20
88.415468915130219
 30
0.0
  0
VERTEX
  5
579C
  8
0
 10
57.385340044638703
 20
88.910520481394826
 30
0.0
  0
VERTEX
  5
579D
  8
0
 10
57.123454495731131
 20
89.395977637155852
 30
0.0
  0
VERTEX
  5
579E
  8
0
 10
56.843345967997529
 20
89.871141021552859
 30
0.0
  0
VERTEX
  5
579F
  8
0
 10
56.545418017569922
 20
90.33532610663508
 30
0.0
  0
VERTEX
  5
57A0
  8
0
 10
56.230099872187203
 20
90.787864183638135
 30
0.0
  0
VERTEX
  5
57A1
  8
0
 10
55.897845812399709
 20
91.228103326420737
 30
0.0
  0
VERTEX
  5
57A2
  8
0
 10
55.549134516673718
 20
91.655409330672896
 30
0.0
  0
VERTEX
  5
57A3
  8
0
 10
55.184468371346469
 20
92.069166627541009
 30
0.0
  0
VERTEX
  5
57A4
  8
0
 10
54.8043727464295
 20
92.468779170354765
 30
0.0
  0
VERTEX
  5
57A5
  8
0
 10
54.40939523831188
 20
92.853671293177314
 30
0.0
  0
VERTEX
  5
57A6
  8
0
 10
54.000104880459247
 20
93.223288539944946
 30
0.0
  0
VERTEX
  5
57A7
  8
0
 10
53.577091323250478
 20
93.577098463002926
 30
0.0
  0
VERTEX
  5
57A8
  8
0
 10
53.140963984141287
 20
93.914591389889154
 30
0.0
  0
VERTEX
  5
57A9
  8
0
 10
52.692351169381688
 20
94.235281157265746
 30
0.0
  0
VERTEX
  5
57AA
  8
0
 10
52.231899168558961
 20
94.538705810943696
 30
0.0
  0
VERTEX
  5
57AB
  8
0
 10
51.7602713232748
 20
94.824428270996776
 30
0.0
  0
VERTEX
  5
57AC
  8
0
 10
51.278147071300829
 20
95.092036961011985
 30
0.0
  0
VERTEX
  5
57AD
  8
0
 10
50.786220967594183
 20
95.341146400574715
 30
0.0
  0
VERTEX
  5
57AE
  8
0
 10
50.285201683585491
 20
95.571397760140229
 30
0.0
  0
VERTEX
  5
57AF
  8
0
 10
49.77581098618257
 20
95.782459377499237
 30
0.0
  0
VERTEX
  5
57B0
  8
0
 10
49.258782697962239
 20
95.974027235098575
 30
0.0
  0
VERTEX
  5
57B1
  8
0
 10
48.734861640048941
 20
96.145825397535447
 30
0.0
  0
VERTEX
  5
57B2
  8
0
 10
48.204802559202832
 20
96.297606408602334
 30
0.0
  0
VERTEX
  5
57B3
  8
0
 10
47.669369040661337
 20
96.429151647315365
 30
0.0
  0
VERTEX
  5
57B4
  8
0
 10
47.129332408300307
 20
96.540271642420038
 30
0.0
  0
VERTEX
  5
57B5
  8
0
 10
46.585470613695271
 20
96.63080634492718
 30
0.0
  0
VERTEX
  5
57B6
  8
0
 10
46.038567115681793
 20
96.700625358291177
 30
0.0
  0
VERTEX
  5
57B7
  8
0
 10
45.489409752023477
 20
96.749628125905303
 30
0.0
  0
VERTEX
  5
57B8
  8
0
 10
44.938789604812229
 20
96.777744075647405
 30
0.0
  0
VERTEX
  5
57B9
  8
0
 10
44.473888579260098
 20
96.78518975490968
 30
0.0
  0
SEQEND
  5
57BA
  8
0
  0
POLYLINE
  5
51B1
  8
0
 66
     1
 10
0.0
 20
0.0
 30
0.0
  0
VERTEX
  5
57BB
  8
0
 10
32.041154989794542
 20
82.887285149938677
 30
0.0
  0
VERTEX
  5
57BC
  8
0
 10
32.043574264629662
 20
83.148336083917258
 30
0.0
  0
VERTEX
  5
57BD
  8
0
 10
32.064110791084239
 20
83.658234755508715
 30
0.0
  0
VERTEX
  5
57BE
  8
0
 10
32.10553276817334
 20
84.166862233532811
 30
0.0
  0
VERTEX
  5
57BF
  8
0
 10
32.167770176936898
 20
84.673338367827327
 30
0.0
  0
VERTEX
  5
57C0
  8
0
 10
32.250718512439768
 20
85.176811883693318
 30
0.0
  0
VERTEX
  5
57C1
  8
0
 10
32.354238459381222
 20
85.676436543903122
 30
0.0
  0
VERTEX
  5
57C2
  8
0
 10
32.478156124476392
 20
86.171372567695784
 30
0.0
  0
VERTEX
  5
57C3
  8
0
 10
32.62226332718226
 20
86.660788042536041
 30
0.0
  0
VERTEX
  5
57C4
  8
0
 10
32.786317948095402
 20
87.143860322839728
 30
0.0
  0
VERTEX
  5
57C5
  8
0
 10
32.970044334459701
 20
87.619777413308327
 30
0.0
  0
VERTEX
  5
57C6
  8
0
 10
33.173133762125453
 20
88.087739334538185
 30
0.0
  0
VERTEX
  5
57C7
  8
0
 10
33.395244953205101
 20
88.546959468597905
 30
0.0
  0
VERTEX
  5
57C8
  8
0
 10
33.636004648574989
 20
88.996665882296114
 30
0.0
  0
VERTEX
  5
57C9
  8
0
 10
33.895008234279807
 20
89.436102625899025
 30
0.0
  0
VERTEX
  5
57CA
  8
0
 10
34.171820420801893
 20
89.864531005096055
 30
0.0
  0
VERTEX
  5
57CB
  8
0
 10
34.465975974067057
 20
90.281230824052443
 30
0.0
  0
VERTEX
  5
57CC
  8
0
 10
34.776980496968839
 20
90.685501597438673
 30
0.0
  0
VERTEX
  5
57CD
  8
0
 10
35.104311260104261
 20
91.076663729373053
 30
0.0
  0
VERTEX
  5
57CE
  8
0
 10
35.447418080330159
 20
91.454059657273717
 30
0.0
  0
VERTEX
  5
57CF
  8
0
 10
35.805724245662397
 20
91.817054958668876
 30
0.0
  0
VERTEX
  5
57D0
  8
0
 10
36.178627484962682
 20
92.165039419082277
 30
0.0
  0
VERTEX
  5
57D1
  8
0
 10
36.565500938266652
 20
92.497428024140902
 30
0.0
  0
VERTEX
  5
57D2
  8
0
 10
36.965694284360531
 20
92.813662013914538
 30
0.0
  0
VERTEX
  5
57D3
  8
0
 10
37.378534811881693
 20
93.113209796162309
 30
0.0
  0
VERTEX
  5
57D4
  8
0
 10
37.803328544094072
 20
93.395567834075138
 30
0.0
  0
VERTEX
  5
57D5
  8
0
 10
38.239361406560569
 20
93.660261493548319
 30
0.0
  0
VERTEX
  5
57D6
  8
0
 10
38.685900428701743
 20
93.906845841711885
 30
0.0
  0
VERTEX
  5
57D7
  8
0
 10
39.142194977199082
 20
94.134906395364325
 30
0.0
  0
VERTEX
  5
57D8
  8
0
 10
39.607478019146512
 20
94.344059818042354
 30
0.0
  0
VERTEX
  5
57D9
  8
0
 10
40.080967412803808
 20
94.533954564550015
 30
0.0
  0
VERTEX
  5
57DA
  8
0
 10
40.561867223756991
 20
94.704271471860181
 30
0.0
  0
VERTEX
  5
57DB
  8
0
 10
41.049369064251067
 20
94.854724295396878
 30
0.0
  0
VERTEX
  5
57DC
  8
0
 10
41.542653453417962
 20
94.985060189799157
 30
0.0
  0
VERTEX
  5
57DD
  8
0
 10
42.040891196092247
 20
95.095060133366175
 30
0.0
  0
VERTEX
  5
57DE
  8
0
 10
42.543244777873809
 20
95.184539295478444
 30
0.0
  0
VERTEX
  5
57DF
  8
0
 10
43.048869774072479
 20
95.253347346389916
 30
0.0
  0
VERTEX
  5
57E0
  8
0
 10
43.556916270147589
 20
95.30136870888478
 30
0.0
  0
VERTEX
  5
57E1
  8
0
 10
44.066530291238877
 20
95.328522751392001
 30
0.0
  0
VERTEX
  5
57E2
  8
0
 10
44.473888579260098
 20
95.335189754909663
 30
0.0
  0
SEQEND
  5
57E3
  8
0
  0
POLYLINE
  5
51B2
  8
0
 66
     1
 10
0.0
 20
0.0
 30
0.0
  0
VERTEX
  5
57E4
  8
0
 10
44.473888579260098
 20
96.78518975490968
 30
0.0
  0
VERTEX
  5
57E5
  8
0
 10
44.182433692360043
 20
96.782133468675767
 30
0.0
  0
VERTEX
  5
57E6
  8
0
 10
43.643611920106338
 20
96.760366614709199
 30
0.0
  0
VERTEX
  5
57E7
  8
0
 10
43.1060405087932
 20
96.717709946800625
 30
0.0
  0
VERTEX
  5
57E8
  8
0
 10
42.57055341165151
 20
96.654228281454593
 30
0.0
  0
VERTEX
  5
57E9
  8
0
 10
42.037956882771802
 20
96.570017276292759
 30
0.0
  0
VERTEX
  5
57EA
  8
0
 10
41.509052811988433
 20
96.465203799265964
 30
0.0
  0
VERTEX
  5
57EB
  8
0
 10
40.984637520753992
 20
96.339945736778745
 30
0.0
  0
VERTEX
  5
57EC
  8
0
 10
40.46550056338603
 20
96.194431754940808
 30
0.0
  0
VERTEX
  5
57ED
  8
0
 10
39.95242353861952
 20
96.028881014506155
 30
0.0
  0
VERTEX
  5
57EE
  8
0
 10
39.446178913255189
 20
95.84354283994324
 30
0.0
  0
VERTEX
  5
57EF
  8
0
 10
38.947528859665553
 20
95.638696343148098
 30
0.0
  0
VERTEX
  5
57F0
  8
0
 10
38.457224108902643
 20
95.414650002379375
 30
0.0
  0
VERTEX
  5
57F1
  8
0
 10
37.976002821126627
 20
95.171741197061394
 30
0.0
  0
VERTEX
  5
57F2
  8
0
 10
37.504589475042771
 20
94.910335699165927
 30
0.0
  0
VERTEX
  5
57F3
  8
0
 10
37.043693778010528
 20
94.630827121948215
 30
0.0
  0
VERTEX
  5
57F4
  8
0
 10
36.59400959845059
 20
94.333636326875023
 30
0.0
  0
VERTEX
  5
57F5
  8
0
 10
36.156213922145277
 20
94.019210789643765
 30
0.0
  0
VERTEX
  5
57F6
  8
0
 10
35.73096583398835
 20
93.688023926252384
 30
0.0
  0
VERTEX
  5
57F7
  8
0
 10
35.318905526703681
 20
93.340574380137426
 30
0.0
  0
VERTEX
  5
57F8
  8
0
 10
34.920653338009721
 20
92.977385271454168
 30
0.0
  0
VERTEX
  5
57F9
  8
0
 10
34.536808817664088
 20
92.599003409629802
 30
0.0
  0
VERTEX
  5
57FA
  8
0
 10
34.167949825778962
 20
92.205998470370844
 30
0.0
  0
VERTEX
  5
57FB
  8
0
 10
33.814631689224917
 20
91.798962168887826
 30
0.0
  0
VERTEX
  5
57FC
  8
0
 10
33.477386317539683
 20
91.378507318727827
 30
0.0
  0
VERTEX
  5
57FD
  8
0
 10
33.15672141933446
 20
90.945266922665326
 30
0.0
  0
VERTEX
  5
57FE
  8
0
 10
32.853119745322701
 20
90.499893227106924
 30
0.0
  0
VERTEX
  5
57FF
  8
0
 10
32.567038362221048
 20
90.043056740834245
 30
0.0
  0
VERTEX
  5
5800
  8
0
 10
32.298907965221233
 20
89.575445226331468
 30
0.0
  0
VERTEX
  5
5801
  8
0
 10
32.049132230060522
 20
89.097762665204385
 30
0.0
  0
VERTEX
  5
5802
  8
0
 10
31.818087205658841
 20
88.610728199236249
 30
0.0
  0
VERTEX
  5
5803
  8
0
 10
31.606120748231071
 20
88.115075048659293
 30
0.0
  0
VERTEX
  5
5804
  8
0
 10
31.41355199772304
 20
87.611549409256625
 30
0.0
  0
VERTEX
  5
5805
  8
0
 10
31.240670897357159
 20
87.100909329940535
 30
0.0
  0
VERTEX
  5
5806
  8
0
 10
31.087737757010562
 20
86.583923572480884
 30
0.0
  0
VERTEX
  5
5807
  8
0
 10
30.954982861085998
 20
86.061370455086916
 30
0.0
  0
VERTEX
  5
5808
  8
0
 10
30.84260612146663
 20
85.534036681568068
 30
0.0
  0
VERTEX
  5
5809
  8
0
 10
30.750776776085079
 20
85.002716157822505
 30
0.0
  0
VERTEX
  5
580A
  8
0
 10
30.679633133565272
 20
84.468208797423387
 30
0.0
  0
VERTEX
  5
580B
  8
0
 10
30.629282364329509
 20
83.931319318086736
 30
0.0
  0
VERTEX
  5
580C
  8
0
 10
30.599800338496468
 20
83.392856030823765
 30
0.0
  0
VERTEX
  5
580D
  8
0
 10
30.591156066615419
 20
82.885518011195416
 30
0.0
  0
SEQEND
  5
580E
  8
0
  0
POLYLINE
  5
51B4
  8
0
 66
     1
 10
0.0
 20
0.0
 30
0.0
  0
VERTEX
  5
580F
  8
0
 10
43.939315867931988
 20
71.025743341802354
 30
0.0
  0
VERTEX
  5
5810
  8
0
 10
43.684504466100222
 20
71.028163318737796
 30
0.0
  0
VERTEX
  5
5811
  8
0
 10
43.186145333220203
 20
71.048700199267046
 30
0.0
  0
VERTEX
  5
5812
  8
0
 10
42.689060732578049
 20
71.090120822043531
 30
0.0
  0
VERTEX
  5
5813
  8
0
 10
42.194153470505952
 20
71.152351652951296
 30
0.0
  0
VERTEX
  5
5814
  8
0
 10
41.702295461187568
 20
71.235283045954844
 30
0.0
  0
VERTEX
  5
5815
  8
0
 10
41.214353242520218
 20
71.338768890366424
 30
0.0
  0
VERTEX
  5
5816
  8
0
 10
40.731186454208718
 20
71.462626867966577
 30
0.0
  0
VERTEX
  5
5817
  8
0
 10
40.253646324038669
 20
71.606638774056393
 30
0.0
  0
VERTEX
  5
5818
  8
0
 10
39.78257416894165
 20
71.770550901632959
 30
0.0
  0
VERTEX
  5
5819
  8
0
 10
39.318799913483232
 20
71.954074488014101
 30
0.0
  0
VERTEX
  5
581A
  8
0
 10
38.863140628369692
 20
72.156886223132062
 30
0.0
  0
VERTEX
  5
581B
  8
0
 10
38.416399091538359
 20
72.37862881860724
 30
0.0
  0
VERTEX
  5
581C
  8
0
 10
37.97936237435497
 20
72.618911636607749
 30
0.0
  0
VERTEX
  5
581D
  8
0
 10
37.552800455401417
 20
72.877311377396637
 30
0.0
  0
VERTEX
  5
581E
  8
0
 10
37.137464864285597
 20
73.153372824366727
 30
0.0
  0
VERTEX
  5
581F
  8
0
 10
36.734087357857767
 20
73.446609645261475
 30
0.0
  0
VERTEX
  5
5820
  8
0
 10
36.343378631160171
 20
73.756505248183402
 30
0.0
  0
VERTEX
  5
5821
  8
0
 10
35.966027065376387
 20
74.082513690895254
 30
0.0
  0
VERTEX
  5
5822
  8
0
 10
35.602697514985813
 20
74.424060641824809
 30
0.0
  0
VERTEX
  5
5823
  8
0
 10
35.254030136258542
 20
74.780544391094651
 30
0.0
  0
VERTEX
  5
5824
  8
0
 10
34.920639259157021
 20
75.151336909809487
 30
0.0
  0
VERTEX
  5
5825
  8
0
 10
34.603112304634777
 20
75.535784955747317
 30
0.0
  0
VERTEX
  5
5826
  8
0
 10
34.302008749244671
 20
75.933211223520772
 30
0.0
  0
VERTEX
  5
5827
  8
0
 10
34.017859138887879
 20
76.342915537193704
 30
0.0
  0
VERTEX
  5
5828
  8
0
 10
33.751164153448293
 20
76.764176083263635
 30
0.0
  0
VERTEX
  5
5829
  8
0
 10
33.502393723971331
 20
77.196250681848284
 30
0.0
  0
VERTEX
  5
582A
  8
0
 10
33.271986203951919
 20
77.638378093845404
 30
0.0
  0
VERTEX
  5
582B
  8
0
 10
33.06034759620443
 20
78.089779361771235
 30
0.0
  0
VERTEX
  5
582C
  8
0
 10
32.867850836689151
 20
78.549659181920646
 30
0.0
  0
VERTEX
  5
582D
  8
0
 10
32.694835136571079
 20
79.017207305436642
 30
0.0
  0
VERTEX
  5
582E
  8
0
 10
32.541605383684079
 20
79.491599965822843
 30
0.0
  0
VERTEX
  5
582F
  8
0
 10
32.408431604468703
 20
79.972001330386121
 30
0.0
  0
VERTEX
  5
5830
  8
0
 10
32.295548487347311
 20
80.457564973048775
 30
0.0
  0
VERTEX
  5
5831
  8
0
 10
32.203154968389157
 20
80.947435365936002
 30
0.0
  0
VERTEX
  5
5832
  8
0
 10
32.131413880009902
 20
81.440749387102926
 30
0.0
  0
VERTEX
  5
5833
  8
0
 10
32.080451663336973
 20
81.936637841740335
 30
0.0
  0
VERTEX
  5
5834
  8
0
 10
32.050358144760523
 20
82.434226994171127
 30
0.0
  0
VERTEX
  5
5835
  8
0
 10
32.041154989794542
 20
82.887285149938677
 30
0.0
  0
SEQEND
  5
5836
  8
0
  0
POLYLINE
  5
51B5
  8
0
 66
     1
 10
0.0
 20
0.0
 30
0.0
  0
VERTEX
  5
5837
  8
0
 10
30.591156066615419
 20
82.885518011195416
 30
0.0
  0
VERTEX
  5
5838
  8
0
 10
30.594569719063522
 20
82.599788664044695
 30
0.0
  0
VERTEX
  5
5839
  8
0
 10
30.61700488032157
 20
82.072217519035121
 30
0.0
  0
VERTEX
  5
583A
  8
0
 10
30.660337988043668
 20
81.545924684621355
 30
0.0
  0
VERTEX
  5
583B
  8
0
 10
30.724500433354631
 20
81.021761003370784
 30
0.0
  0
VERTEX
  5
583C
  8
0
 10
30.809391456760618
 20
80.50054954801945
 30
0.0
  0
VERTEX
  5
583D
  8
0
 10
30.914877753208181
 20
79.983108752095376
 30
0.0
  0
VERTEX
  5
583E
  8
0
 10
31.04079368118617
 20
79.470251128490503
 30
0.0
  0
VERTEX
  5
583F
  8
0
 10
31.186941522735399
 20
78.962781994134389
 30
0.0
  0
VERTEX
  5
5840
  8
0
 10
31.353091793758651
 20
78.461498205950903
 30
0.0
  0
VERTEX
  5
5841
  8
0
 10
31.538983604147671
 20
77.967186910074759
 30
0.0
  0
VERTEX
  5
5842
  8
0
 10
31.74432506716435
 20
77.480624306283943
 30
0.0
  0
VERTEX
  5
5843
  8
0
 10
31.96879375743843
 20
77.002574429582381
 30
0.0
  0
VERTEX
  5
5844
  8
0
 10
32.212037216866619
 20
76.533787950837663
 30
0.0
  0
VERTEX
  5
5845
  8
0
 10
32.473673507626572
 20
76.075000998352522
 30
0.0
  0
VERTEX
  5
5846
  8
0
 10
32.753291811441713
 20
75.626934002214483
 30
0.0
  0
VERTEX
  5
5847
  8
0
 10
33.050453074165702
 20
75.190290563234782
 30
0.0
  0
VERTEX
  5
5848
  8
0
 10
33.364690694679702
 20
74.765756348248715
 30
0.0
  0
VERTEX
  5
5849
  8
0
 10
33.695511257030411
 20
74.353998013509795
 30
0.0
  0
VERTEX
  5
584A
  8
0
 10
34.042395304666549
 20
73.955662157867039
 30
0.0
  0
VERTEX
  5
584B
  8
0
 10
34.404798155566688
 20
73.571374307368217
 30
0.0
  0
VERTEX
  5
584C
  8
0
 10
34.782150756987029
 20
73.201737932884853
 30
0.0
  0
VERTEX
  5
584D
  8
0
 10
35.173860578494249
 20
72.847333502302234
 30
0.0
  0
VERTEX
  5
584E
  8
0
 10
35.579312541890353
 20
72.508717568765661
 30
0.0
  0
VERTEX
  5
584F
  8
0
 10
35.997869986575701
 20
72.18642189641821
 30
0.0
  0
VERTEX
  5
5850
  8
0
 10
36.428875668841989
 20
71.880952625006898
 30
0.0
  0
VERTEX
  5
5851
  8
0
 10
36.871652793532157
 20
71.592789474674049
 30
0.0
  0
VERTEX
  5
5852
  8
0
 10
37.325506076453827
 20
71.322384992188375
 30
0.0
  0
VERTEX
  5
5853
  8
0
 10
37.789722835881982
 20
71.070163839806128
 30
0.0
  0
VERTEX
  5
5854
  8
0
 10
38.263574111442992
 20
70.836522127885331
 30
0.0
  0
VERTEX
  5
5855
  8
0
 10
38.746315808623862
 20
70.621826792309378
 30
0.0
  0
VERTEX
  5
5856
  8
0
 10
39.237189867115127
 20
70.426415017704556
 30
0.0
  0
VERTEX
  5
5857
  8
0
 10
39.735425451152523
 20
70.25059370736551
 30
0.0
  0
VERTEX
  5
5858
  8
0
 10
40.240240159988709
 20
70.094639000729586
 30
0.0
  0
VERTEX
  5
5859
  8
0
 10
40.750841256595983
 20
69.958795839164935
 30
0.0
  0
VERTEX
  5
585A
  8
0
 10
41.266426912667299
 20
69.843277580763242
 30
0.0
  0
VERTEX
  5
585B
  8
0
 10
41.78618746795977
 20
69.748265664749198
 30
0.0
  0
VERTEX
  5
585C
  8
0
 10
42.309306701999702
 20
69.673909326041581
 30
0.0
  0
VERTEX
  5
585D
  8
0
 10
42.83496311614838
 20
69.620325360420992
 30
0.0
  0
VERTEX
  5
585E
  8
0
 10
43.362331224010951
 20
69.587597940680126
 30
0.0
  0
VERTEX
  5
585F
  8
0
 10
43.862778245104579
 20
69.575878837654585
 30
0.0
  0
VERTEX
  5
5860
  8
0
 10
43.941081931494047
 20
69.575744417313274
 30
0.0
  0
SEQEND
  5
5861
  8
0
  0
POLYLINE
  5
51B7
  8
0
 66
     1
 10
0.0
 20
0.0
 30
0.0
  0
VERTEX
  5
5862
  8
0
 10
55.283806614597587
 20
82.397902412466365
 30
0.0
  0
VERTEX
  5
5863
  8
0
 10
55.281385026526642
 20
82.149130201465965
 30
0.0
  0
VERTEX
  5
5864
  8
0
 10
55.260835304375782
 20
81.661922206232987
 30
0.0
  0
VERTEX
  5
5865
  8
0
 10
55.219389355962647
 20
81.176017713088825
 30
0.0
  0
VERTEX
  5
5866
  8
0
 10
55.157124155505173
 20
80.692340142727645
 30
0.0
  0
VERTEX
  5
5867
  8
0
 10
55.074154483288602
 20
80.211781113304184
 30
0.0
  0
VERTEX
  5
5868
  8
0
 10
54.970633286065407
 20
79.735226489989628
 30
0.0
  0
VERTEX
  5
5869
  8
0
 10
54.846751395382611
 20
79.26355475621051
 30
0.0
  0
VERTEX
  5
586A
  8
0
 10
54.702737175802298
 20
78.797635394247521
 30
0.0
  0
VERTEX
  5
586B
  8
0
 10
54.538856103932673
 20
78.338327282427343
 30
0.0
  0
VERTEX
  5
586C
  8
0
 10
54.355410279047447
 20
77.886477111861808
 30
0.0
  0
VERTEX
  5
586D
  8
0
 10
54.152737866194038
 20
77.442917825652444
 30
0.0
  0
VERTEX
  5
586E
  8
0
 10
53.93121247281843
 20
77.008467083438859
 30
0.0
  0
VERTEX
  5
586F
  8
0
 10
53.691242460055072
 20
76.583925754120145
 30
0.0
  0
VERTEX
  5
5870
  8
0
 10
53.433270189951749
 20
76.170076439529083
 30
0.0
  0
VERTEX
  5
5871
  8
0
 10
53.157771210016833
 20
75.767682031779287
 30
0.0
  0
VERTEX
  5
5872
  8
0
 10
52.86525337659257
 20
75.377484306945917
 30
0.0
  0
VERTEX
  5
5873
  8
0
 10
52.556255918669677
 20
75.00020255767123
 30
0.0
  0
VERTEX
  5
5874
  8
0
 10
52.231348443869912
 20
74.636532267217007
 30
0.0
  0
VERTEX
  5
5875
  8
0
 10
51.891129888427798
 20
74.287143827406425
 30
0.0
  0
VERTEX
  5
5876
  8
0
 10
51.536227413108783
 20
73.952681302820309
 30
0.0
  0
VERTEX
  5
5877
  8
0
 10
51.167295247097151
 20
73.63376124352493
 30
0.0
  0
VERTEX
  5
5878
  8
0
 10
50.785013481986738
 20
73.33097154852004
 30
0.0
  0
VERTEX
  5
5879
  8
0
 10
50.39008681809598
 20
73.044870382002813
 30
0.0
  0
VERTEX
  5
587A
  8
0
 10
49.983243265419709
 20
72.775985144444832
 30
0.0
  0
VERTEX
  5
587B
  8
0
 10
49.565232801611359
 20
72.524811500378888
 30
0.0
  0
VERTEX
  5
587C
  8
0
 10
49.136825989469997
 20
72.291812464688576
 30
0.0
  0
VERTEX
  5
587D
  8
0
 10
48.698812556480817
 20
72.077417549084061
 30
0.0
  0
VERTEX
  5
587E
  8
0
 10
48.251999939026781
 20
71.882021970337547
 30
0.0
  0
VERTEX
  5
587F
  8
0
 10
47.797211793956279
 20
71.705985921738801
 30
0.0
  0
VERTEX
  5
5880
  8
0
 10
47.33528648024933
 20
71.549633909112714
 30
0.0
  0
VERTEX
  5
5881
  8
0
 10
46.867075513581973
 20
71.413254152623409
 30
0.0
  0
VERTEX
  5
5882
  8
0
 10
46.393441996637797
 20
71.297098055467757
 30
0.0
  0
VERTEX
  5
5883
  8
0
 10
45.915259028059467
 20
71.201379740437233
 30
0.0
  0
VERTEX
  5
5884
  8
0
 10
45.433408092973963
 20
71.126275655202761
 30
0.0
  0
VERTEX
  5
5885
  8
0
 10
44.948777438057931
 20
71.071924247050163
 30
0.0
  0
VERTEX
  5
5886
  8
0
 10
44.462260434139161
 20
71.038425707665681
 30
0.0
  0
VERTEX
  5
5887
  8
0
 10
44.000416950051182
 20
71.025982107823779
 30
0.0
  0
VERTEX
  5
5888
  8
0
 10
43.939315867931988
 20
71.025743341802354
 30
0.0
  0
SEQEND
  5
5889
  8
0
  0
POLYLINE
  5
51B8
  8
0
 66
     1
 10
0.0
 20
0.0
 30
0.0
  0
VERTEX
  5
588A
  8
0
 10
43.941081931494047
 20
69.575744417313274
 30
0.0
  0
VERTEX
  5
588B
  8
0
 10
44.221604812877587
 20
69.579158493422796
 30
0.0
  0
VERTEX
  5
588C
  8
0
 10
44.738955690348902
 20
69.601593417539618
 30
0.0
  0
VERTEX
  5
588D
  8
0
 10
45.255001684466457
 20
69.644924660665424
 30
0.0
  0
VERTEX
  5
588E
  8
0
 10
45.768874291593448
 20
69.709080812715655
 30
0.0
  0
VERTEX
  5
588F
  8
0
 10
46.279733471484953
 20
69.793956996251239
 30
0.0
  0
VERTEX
  5
5890
  8
0
 10
46.78674411338821
 20
69.899414462637992
 30
0.0
  0
VERTEX
  5
5891
  8
0
 10
47.289077397825707
 20
70.025280818645882
 30
0.0
  0
VERTEX
  5
5892
  8
0
 10
47.785912151480979
 20
70.171350308263584
 30
0.0
  0
VERTEX
  5
5893
  8
0
 10
48.276436189584992
 20
70.337384149051331
 30
0.0
  0
VERTEX
  5
5894
  8
0
 10
48.75984764361008
 20
70.523110922482971
 30
0.0
  0
VERTEX
  5
5895
  8
0
 10
49.235356272098542
 20
70.728227017638773
 30
0.0
  0
VERTEX
  5
5896
  8
0
 10
49.702184752484513
 20
70.952397127523653
 30
0.0
  0
VERTEX
  5
5897
  8
0
 10
50.159569951797472
 20
71.195254797199624
 30
0.0
  0
VERTEX
  5
5898
  8
0
 10
50.606764174169463
 20
71.456403022836241
 30
0.0
  0
VERTEX
  5
5899
  8
0
 10
51.04303638310725
 20
71.735414900700107
 30
0.0
  0
VERTEX
  5
589A
  8
0
 10
51.467673396530508
 20
72.031834325021975
 30
0.0
  0
VERTEX
  5
589B
  8
0
 10
51.879981052623727
 20
72.345176733601107
 30
0.0
  0
VERTEX
  5
589C
  8
0
 10
52.279285344595323
 20
72.674929899928173
 30
0.0
  0
VERTEX
  5
589D
  8
0
 10
52.664933522488269
 20
73.020554770530708
 30
0.0
  0
VERTEX
  5
589E
  8
0
 10
53.036295160242588
 20
73.381486346174029
 30
0.0
  0
VERTEX
  5
589F
  8
0
 10
53.392763186264268
 20
73.757134605475443
 30
0.0
  0
VERTEX
  5
58A0
  8
0
 10
53.733754875815947
 20
74.146885469423012
 30
0.0
  0
VERTEX
  5
58A1
  8
0
 10
54.058712803607911
 20
74.550101805221644
 30
0.0
  0
VERTEX
  5
58A2
  8
0
 10
54.36710575503097
 20
74.966124467825523
 30
0.0
  0
VERTEX
  5
58A3
  8
0
 10
54.658429594542874
 20
75.394273377454397
 30
0.0
  0
VERTEX
  5
58A4
  8
0
 10
54.932208089787743
 20
75.833848631332671
 30
0.0
  0
VERTEX
  5
58A5
  8
0
 10
55.187993690101649
 20
76.284131647832623
 30
0.0
  0
VERTEX
  5
58A6
  8
0
 10
55.42536825813179
 20
76.744386341153174
 30
0.0
  0
VERTEX
  5
58A7
  8
0
 10
55.643943753373357
 20
77.213860324612625
 30
0.0
  0
VERTEX
  5
58A8
  8
0
 10
55.843362866506119
 20
77.691786140588675
 30
0.0
  0
VERTEX
  5
58A9
  8
0
 10
56.023299603494742
 20
78.177382515095417
 30
0.0
  0
VERTEX
  5
58AA
  8
0
 10
56.183459818496857
 20
78.669855634945861
 30
0.0
  0
VERTEX
  5
58AB
  8
0
 10
56.323581694708693
 20
79.168400445413198
 30
0.0
  0
VERTEX
  5
58AC
  8
0
 10
56.443436172361857
 20
79.672201966267579
 30
0.0
  0
VERTEX
  5
58AD
  8
0
 10
56.542827323171352
 20
80.180436624039856
 30
0.0
  0
VERTEX
  5
58AE
  8
0
 10
56.62159267062308
 20
80.692273598331525
 30
0.0
  0
VERTEX
  5
58AF
  8
0
 10
56.679603455577343
 20
81.206876179971914
 30
0.0
  0
VERTEX
  5
58B0
  8
0
 10
56.716764846753478
 20
81.723403138802396
 30
0.0
  0
VERTEX
  5
58B1
  8
0
 10
56.733016095752397
 20
82.2410100988495
 30
0.0
  0
VERTEX
  5
58B2
  8
0
 10
56.733805539087463
 20
82.399668475373005
 30
0.0
  0
SEQEND
  5
58B3
  8
0
  0
POLYLINE
  5
51B9
  8
0
 66
     1
 10
0.0
 20
0.0
 30
0.0
  0
VERTEX
  5
58B4
  8
0
 10
44.402644763934717
 20
93.259648872375635
 30
0.0
  0
VERTEX
  5
58B5
  8
0
 10
44.645571284601409
 20
93.257227871204577
 30
0.0
  0
VERTEX
  5
58B6
  8
0
 10
45.121970424374219
 20
93.236680413485445
 30
0.0
  0
VERTEX
  5
58B7
  8
0
 10
45.597038554302891
 20
93.195238562192941
 30
0.0
  0
VERTEX
  5
58B8
  8
0
 10
46.069832647380821
 20
93.132982697212057
 30
0.0
  0
VERTEX
  5
58B9
  8
0
 10
46.539442369011489
 20
93.050032681701296
 30
0.0
  0
VERTEX
  5
58BA
  8
0
 10
47.004963520817313
 20
92.946548229090993
 30
0.0
  0
VERTEX
  5
58BB
  8
0
 10
47.465499778032701
 20
92.822728595698564
 30
0.0
  0
VERTEX
  5
58BC
  8
0
 10
47.920164416238869
 20
92.678812196775326
 30
0.0
  0
VERTEX
  5
58BD
  8
0
 10
48.368082019564532
 20
92.515076147024743
 30
0.0
  0
VERTEX
  5
58BE
  8
0
 10
48.80839016704229
 20
92.331835726486645
 30
0.0
  0
VERTEX
  5
58BF
  8
0
 10
49.240241093860249
 20
92.129443772824544
 30
0.0
  0
VERTEX
  5
58C0
  8
0
 10
49.662803324294458
 20
91.908290001200527
 30
0.0
  0
VERTEX
  5
58C1
  8
0
 10
50.075263273166208
 20
91.668800253060539
 30
0.0
  0
VERTEX
  5
58C2
  8
0
 10
50.476826812729577
 20
91.411435675293063
 30
0.0
  0
VERTEX
  5
58C3
  8
0
 10
50.866720801965961
 20
91.136691831358064
 30
0.0
  0
VERTEX
  5
58C4
  8
0
 10
51.244194575332671
 20
90.845097746116892
 30
0.0
  0
VERTEX
  5
58C5
  8
0
 10
51.60852138809836
 20
90.537214886219004
 30
0.0
  0
VERTEX
  5
58C6
  8
0
 10
51.9589998154797
 20
90.213636078029623
 30
0.0
  0
VERTEX
  5
58C7
  8
0
 10
52.294955102888061
 20
89.874984365198657
 30
0.0
  0
VERTEX
  5
58C8
  8
0
 10
52.615740464690568
 20
89.521911808089996
 30
0.0
  0
VERTEX
  5
58C9
  8
0
 10
52.920738328990851
 20
89.155098227399606
 30
0.0
  0
VERTEX
  5
58CA
  8
0
 10
53.209361526042002
 20
88.775249894398144
 30
0.0
  0
VERTEX
  5
58CB
  8
0
 10
53.48105441801372
 20
88.383098170335515
 30
0.0
  0
VERTEX
  5
58CC
  8
0
 10
53.735293967952458
 20
87.979398097639574
 30
0.0
  0
VERTEX
  5
58CD
  8
0
 10
53.971590745887937
 20
87.564926945634483
 30
0.0
  0
VERTEX
  5
58CE
  8
0
 10
54.189489870168053
 20
87.140482713587474
 30
0.0
  0
VERTEX
  5
58CF
  8
0
 10
54.38857188222287
 20
86.706882593975081
 30
0.0
  0
VERTEX
  5
58D0
  8
0
 10
54.568453553093811
 20
86.264961398932115
 30
0.0
  0
VERTEX
  5
58D1
  8
0
 10
54.72878862019158
 20
85.815569952916491
 30
0.0
  0
VERTEX
  5
58D2
  8
0
 10
54.869268452882729
 20
85.359573454686256
 30
0.0
  0
VERTEX
  5
58D3
  8
0
 10
54.989622645642591
 20
84.897849811739718
 30
0.0
  0
VERTEX
  5
58D4
  8
0
 10
55.089619537648602
 20
84.431287950422757
 30
0.0
  0
VERTEX
  5
58D5
  8
0
 10
55.16906665783231
 20
83.960786104950927
 30
0.0
  0
VERTEX
  5
58D6
  8
0
 10
55.227811094548748
 20
83.487250088631441
 30
0.0
  0
VERTEX
  5
58D7
  8
0
 10
55.26573978916597
 20
83.011591550604635
 30
0.0
  0
VERTEX
  5
58D8
  8
0
 10
55.282779753024137
 20
82.53472622144858
 30
0.0
  0
VERTEX
  5
58D9
  8
0
 10
55.283806614597587
 20
82.397902412466365
 30
0.0
  0
SEQEND
  5
58DA
  8
0
  0
POLYLINE
  5
51BA
  8
0
 66
     1
 10
0.0
 20
0.0
 30
0.0
  0
VERTEX
  5
58DB
  8
0
 10
56.733805539087463
 20
82.399668475373005
 30
0.0
  0
VERTEX
  5
58DC
  8
0
 10
56.730392402418921
 20
82.675158258478575
 30
0.0
  0
VERTEX
  5
58DD
  8
0
 10
56.707968921443218
 20
83.182642866666697
 30
0.0
  0
VERTEX
  5
58DE
  8
0
 10
56.664662036296228
 20
83.68879726266357
 30
0.0
  0
VERTEX
  5
58DF
  8
0
 10
56.600545910779687
 20
84.192736142413366
 30
0.0
  0
VERTEX
  5
58E0
  8
0
 10
56.515729468933927
 20
84.69360333810792
 30
0.0
  0
VERTEX
  5
58E1
  8
0
 10
56.410356807022907
 20
85.190547904201054
 30
0.0
  0
VERTEX
  5
58E2
  8
0
 10
56.284606948886477
 20
85.682725560144206
 30
0.0
  0
VERTEX
  5
58E3
  8
0
 10
56.138693541639128
 20
86.169300125371279
 30
0.0
  0
VERTEX
  5
58E4
  8
0
 10
55.972864492466982
 20
86.649444940498668
 30
0.0
  0
VERTEX
  5
58E5
  8
0
 10
55.787401547143389
 20
87.122344272315587
 30
0.0
  0
VERTEX
  5
58E6
  8
0
 10
55.582619810985001
 20
87.587194700167515
 30
0.0
  0
VERTEX
  5
58E7
  8
0
 10
55.358867213066482
 20
88.043206481370021
 30
0.0
  0
VERTEX
  5
58E8
  8
0
 10
55.116523914612088
 20
88.489604893324724
 30
0.0
  0
VERTEX
  5
58E9
  8
0
 10
54.856001662577093
 20
88.925631550050056
 30
0.0
  0
VERTEX
  5
58EA
  8
0
 10
54.577743089524489
 20
89.350545690885014
 30
0.0
  0
VERTEX
  5
58EB
  8
0
 10
54.28222096099794
 20
89.763625439170568
 30
0.0
  0
VERTEX
  5
58EC
  8
0
 10
53.969937371676878
 20
90.16416902876756
 30
0.0
  0
VERTEX
  5
58ED
  8
0
 10
53.641422891692542
 20
90.551495996324036
 30
0.0
  0
VERTEX
  5
58EE
  8
0
 10
53.29723566456326
 20
90.924948337265704
 30
0.0
  0
VERTEX
  5
58EF
  8
0
 10
52.937960458293823
 20
91.283891623545557
 30
0.0
  0
VERTEX
  5
58F0
  8
0
 10
52.564207671261187
 20
91.627716081255272
 30
0.0
  0
VERTEX
  5
58F1
  8
0
 10
52.17661229458529
 20
91.955837626269982
 30
0.0
  0
VERTEX
  5
58F2
  8
0
 10
51.775832832759221
 20
92.267698856170909
 30
0.0
  0
VERTEX
  5
58F3
  8
0
 10
51.362550184379899
 20
92.562769996766846
 30
0.0
  0
VERTEX
  5
58F4
  8
0
 10
50.937466484891651
 20
92.840549801611473
 30
0.0
  0
VERTEX
  5
58F5
  8
0
 10
50.50130391331507
 20
93.100566402996677
 30
0.0
  0
VERTEX
  5
58F6
  8
0
 10
50.054803464996979
 20
93.342378112984164
 30
0.0
  0
VERTEX
  5
58F7
  8
0
 10
49.598723692470259
 20
93.565574173123707
 30
0.0
  0
VERTEX
  5
58F8
  8
0
 10
49.133839416569948
 20
93.769775451594626
 30
0.0
  0
VERTEX
  5
58F9
  8
0
 10
48.66094040999625
 20
93.954635086595971
 30
0.0
  0
VERTEX
  5
58FA
  8
0
 10
48.180830055565231
 20
94.119839074903794
 30
0.0
  0
VERTEX
  5
58FB
  8
0
 10
47.69432398142559
 20
94.265106804606262
 30
0.0
  0
VERTEX
  5
58FC
  8
0
 10
47.202248675561322
 20
94.390191531122724
 30
0.0
  0
VERTEX
  5
58FD
  8
0
 10
46.705440081930107
 20
94.49488079570915
 30
0.0
  0
VERTEX
  5
58FE
  8
0
 10
46.204742180620237
 20
94.578996785749268
 30
0.0
  0
VERTEX
  5
58FF
  8
0
 10
45.701005554434488
 20
94.642396636229464
 30
0.0
  0
VERTEX
  5
5900
  8
0
 10
45.195085944326962
 20
94.684972671894997
 30
0.0
  0
VERTEX
  5
5901
  8
0
 10
44.687842796144281
 20
94.706652589684225
 30
0.0
  0
VERTEX
  5
5902
  8
0
 10
44.400877623223359
 20
94.709647795552357
 30
0.0
  0
SEQEND
  5
5903
  8
0
  0
POLYLINE
  5
51BB
  8
0
 66
     1
 10
0.0
 20
0.0
 30
0.0
  0
VERTEX
  5
5904
  8
0
 10
34.006894252674819
 20
82.825795390349441
 30
0.0
  0
VERTEX
  5
5905
  8
0
 10
34.00902337125931
 20
83.063374765684273
 30
0.0
  0
VERTEX
  5
5906
  8
0
 10
34.028985490231982
 20
83.529863730152243
 30
0.0
  0
VERTEX
  5
5907
  8
0
 10
34.069826957598352
 20
83.99499152408896
 30
0.0
  0
VERTEX
  5
5908
  8
0
 10
34.131465352931833
 20
84.457796771388047
 30
0.0
  0
VERTEX
  5
5909
  8
0
 10
34.213777067359374
 20
84.917350342856025
 30
0.0
  0
VERTEX
  5
590A
  8
0
 10
34.316596988270227
 20
85.372729623322854
 30
0.0
  0
VERTEX
  5
590B
  8
0
 10
34.439718828007912
 20
85.823020359592249
 30
0.0
  0
VERTEX
  5
590C
  8
0
 10
34.582895535552247
 20
86.267318496389038
 30
0.0
  0
VERTEX
  5
590D
  8
0
 10
34.745839790122531
 20
86.704731992165733
 30
0.0
  0
VERTEX
  5
590E
  8
0
 10
34.92822457575469
 20
87.134382611106517
 30
0.0
  0
VERTEX
  5
590F
  8
0
 10
35.129683835741709
 20
87.555407687713299
 30
0.0
  0
VERTEX
  5
5910
  8
0
 10
35.349813205664169
 20
87.966961860405291
 30
0.0
  0
VERTEX
  5
5911
  8
0
 10
35.588170823573861
 20
88.368218770619478
 30
0.0
  0
VERTEX
  5
5912
  8
0
 10
35.844278215737333
 20
88.758372723968392
 30
0.0
  0
VERTEX
  5
5913
  8
0
 10
36.117621256185643
 20
89.136640310076103
 30
0.0
  0
VERTEX
  5
5914
  8
0
 10
36.407651198166128
 20
89.502261977800998
 30
0.0
  0
VERTEX
  5
5915
  8
0
 10
36.713785775437863
 20
89.854503562633738
 30
0.0
  0
VERTEX
  5
5916
  8
0
 10
37.035410371209693
 20
90.192657763158948
 30
0.0
  0
VERTEX
  5
5917
  8
0
 10
37.371879252372523
 20
90.516045563566635
 30
0.0
  0
VERTEX
  5
5918
  8
0
 10
37.722516836225999
 20
90.824017573862477
 30
0.0
  0
VERTEX
  5
5919
  8
0
 10
38.086619068697964
 20
91.115955363125835
 30
0.0
  0
VERTEX
  5
591A
  8
0
 10
38.463454882280452
 20
91.391272735076086
 30
0.0
  0
VERTEX
  5
591B
  8
0
 10
38.852267632947452
 20
91.649416874079364
 30
0.0
  0
VERTEX
  5
591C
  8
0
 10
39.25227662112318
 20
91.889869456537795
 30
0.0
  0
VERTEX
  5
591D
  8
0
 10
39.66267866114098
 20
92.112147692757645
 30
0.0
  0
VERTEX
  5
591E
  8
0
 10
40.082649695997738
 20
92.315805297179139
 30
0.0
  0
VERTEX
  5
591F
  8
0
 10
40.511346454116882
 20
92.500433384999923
 30
0.0
  0
VERTEX
  5
5920
  8
0
 10
40.947908144749739
 20
92.665661293383124
 30
0.0
  0
VERTEX
  5
5921
  8
0
 10
41.391458188565338
 20
92.811157325596255
 30
0.0
  0
VERTEX
  5
5922
  8
0
 10
41.84110597990886
 20
92.936629416588602
 30
0.0
  0
VERTEX
  5
5923
  8
0
 10
42.295948677144587
 20
93.041825718679149
 30
0.0
  0
VERTEX
  5
5924
  8
0
 10
42.75507301744787
 20
93.126535106194098
 30
0.0
  0
VERTEX
  5
5925
  8
0
 10
43.217557152360463
 20
93.190587598059835
 30
0.0
  0
VERTEX
  5
5926
  8
0
 10
43.682472500387611
 20
93.233854697528528
 30
0.0
  0
VERTEX
  5
5927
  8
0
 10
44.14888561288533
 20
93.256249648384284
 30
0.0
  0
VERTEX
  5
5928
  8
0
 10
44.402644763934717
 20
93.259648872375607
 30
0.0
  0
SEQEND
  5
5929
  8
0
  0
POLYLINE
  5
51BC
  8
0
 66
     1
 10
0.0
 20
0.0
 30
0.0
  0
VERTEX
  5
592A
  8
0
 10
44.400877623223359
 20
94.709647795552357
 30
0.0
  0
VERTEX
  5
592B
  8
0
 10
44.130254139192601
 20
94.706232969392786
 30
0.0
  0
VERTEX
  5
592C
  8
0
 10
43.632366757591207
 20
94.683807238320327
 30
0.0
  0
VERTEX
  5
592D
  8
0
 10
43.135857711254658
 20
94.640499531653987
 30
0.0
  0
VERTEX
  5
592E
  8
0
 10
42.641628722663917
 20
94.576386920540074
 30
0.0
  0
VERTEX
  5
592F
  8
0
 10
42.150550970066583
 20
94.491582513524136
 30
0.0
  0
VERTEX
  5
5930
  8
0
 10
41.663490060794103
 20
94.386235891544317
 30
0.0
  0
VERTEX
  5
5931
  8
0
 10
41.181304509592202
 20
94.260532842979828
 30
0.0
  0
VERTEX
  5
5932
  8
0
 10
40.704844225680603
 20
94.114695034644456
 30
0.0
  0
VERTEX
  5
5933
  8
0
 10
40.234949015171168
 20
93.948979619592336
 30
0.0
  0
VERTEX
  5
5934
  8
0
 10
39.772447101477532
 20
93.763678782451734
 30
0.0
  0
VERTEX
  5
5935
  8
0
 10
39.318153666312448
 20
93.559119223110486
 30
0.0
  0
VERTEX
  5
5936
  8
0
 10
38.872869413831189
 20
93.335661579685464
 30
0.0
  0
VERTEX
  5
5937
  8
0
 10
38.437379160434979
 20
93.093699791812213
 30
0.0
  0
VERTEX
  5
5938
  8
0
 10
38.012450452700229
 20
92.833660405393957
 30
0.0
  0
VERTEX
  5
5939
  8
0
 10
37.59883221584969
 20
92.556001820050938
 30
0.0
  0
VERTEX
  5
593A
  8
0
 10
37.197253435123258
 20
92.26121348060704
 30
0.0
  0
VERTEX
  5
593B
  8
0
 10
36.808421872349392
 20
91.949815014048852
 30
0.0
  0
VERTEX
  5
593C
  8
0
 10
36.433022819953102
 20
91.622355313482103
 30
0.0
  0
VERTEX
  5
593D
  8
0
 10
36.071717894571222
 20
91.279411570703274
 30
0.0
  0
VERTEX
  5
593E
  8
0
 10
35.725143872375192
 20
90.921588259089859
 30
0.0
  0
VERTEX
  5
593F
  8
0
 10
35.393911582495299
 20
90.549516085433325
 30
0.0
  0
VERTEX
  5
5940
  8
0
 10
35.07860482522225
 20
90.163850878099538
 30
0.0
  0
VERTEX
  5
5941
  8
0
 10
34.779779307657734
 20
89.765272387119495
 30
0.0
  0
VERTEX
  5
5942
  8
0
 10
34.497961693655313
 20
89.354483114841599
 30
0.0
  0
VERTEX
  5
5943
  8
0
 10
34.233648676653083
 20
88.932207078752768
 30
0.0
  0
VERTEX
  5
5944
  8
0
 10
33.987306105178767
 20
88.499188536509422
 30
0.0
  0
VERTEX
  5
5945
  8
0
 10
33.759368162556861
 20
88.056190675411216
 30
0.0
  0
VERTEX
  5
5946
  8
0
 10
33.550236602249171
 20
87.60399426860306
 30
0.0
  0
VERTEX
  5
5947
  8
0
 10
33.36028004016724
 20
87.143396300350076
 30
0.0
  0
VERTEX
  5
5948
  8
0
 10
33.189833305196132
 20
86.675208562784206
 30
0.0
  0
VERTEX
  5
5949
  8
0
 10
33.039196849071097
 20
86.200256226569223
 30
0.0
  0
VERTEX
  5
594A
  8
0
 10
32.90863621664645
 20
85.719376387977093
 30
0.0
  0
VERTEX
  5
594B
  8
0
 10
32.798381577494112
 20
85.233416594912356
 30
0.0
  0
VERTEX
  5
594C
  8
0
 10
32.708627319662853
 20
84.743233354455157
 30
0.0
  0
VERTEX
  5
594D
  8
0
 10
32.639531706324
 20
84.249690624532263
 30
0.0
  0
VERTEX
  5
594E
  8
0
 10
32.591216595921857
 20
83.753658292350309
 30
0.0
  0
VERTEX
  5
594F
  8
0
 10
32.563767226335848
 20
83.256010642253329
 30
0.0
  0
VERTEX
  5
5950
  8
0
 10
32.556898559951868
 20
82.822261117456478
 30
0.0
  0
SEQEND
  5
5951
  8
0
  0
POLYLINE
  5
51BE
  8
0
 66
     1
 10
0.0
 20
0.0
 30
0.0
  0
VERTEX
  5
5952
  8
0
 10
34.079558829067693
 20
81.646432444182153
 30
0.0
  0
VERTEX
  5
5953
  8
0
 10
34.044563837984342
 20
81.982553424715235
 30
0.0
  0
VERTEX
  5
5954
  8
0
 10
34.015308421759343
 20
82.439260351658135
 30
0.0
  0
VERTEX
  5
5955
  8
0
 10
34.006894252674819
 20
82.825795390349441
 30
0.0
  0
SEQEND
  5
5956
  8
0
  0
POLYLINE
  5
51BF
  8
0
 66
     1
 10
0.0
 20
0.0
 30
0.0
  0
VERTEX
  5
5957
  8
0
 10
32.556898559951868
 20
82.822261117456478
 30
0.0
  0
VERTEX
  5
5958
  8
0
 10
32.560641579853872
 20
82.556066909592545
 30
0.0
  0
VERTEX
  5
5959
  8
0
 10
32.583677895360474
 20
82.066944510392858
 30
0.0
  0
VERTEX
  5
595A
  8
0
 10
32.627603912795941
 20
81.579226319151701
 30
0.0
  0
VERTEX
  5
595B
  8
0
 10
32.692338731787267
 20
81.093829179536982
 30
0.0
  0
VERTEX
  5
595C
  8
0
 10
32.777764131519717
 20
80.611639460490352
 30
0.0
  0
VERTEX
  5
595D
  8
0
 10
32.883724113722373
 20
80.133537669636354
 30
0.0
  0
VERTEX
  5
595E
  8
0
 10
33.010025187221437
 20
79.660396850177648
 30
0.0
  0
VERTEX
  5
595F
  8
0
 10
33.15643672112337
 20
79.193080987428061
 30
0.0
  0
VERTEX
  5
5960
  8
0
 10
33.322691365712537
 20
78.732443431857462
 30
0.0
  0
VERTEX
  5
5961
  8
0
 10
33.508485540299468
 20
78.279325341514664
 30
0.0
  0
VERTEX
  5
5962
  8
0
 10
33.713479987135628
 20
77.834554146660821
 30
0.0
  0
VERTEX
  5
5963
  8
0
 10
33.937300390390739
 20
77.398942039403693
 30
0.0
  0
VERTEX
  5
5964
  8
0
 10
34.179538059072492
 20
76.973284491081813
 30
0.0
  0
VERTEX
  5
5965
  8
0
 10
34.439750672652032
 20
76.558358800094283
 30
0.0
  0
VERTEX
  5
5966
  8
0
 10
34.717463088045442
 20
76.154922672822579
 30
0.0
  0
VERTEX
  5
5967
  8
0
 10
35.012168206490777
 20
75.763712840227555
 30
0.0
  0
VERTEX
  5
5968
  8
0
 10
35.32332789875128
 20
75.385443712643962
 30
0.0
  0
VERTEX
  5
5969
  8
0
 10
35.650373986968511
 20
75.020806075226744
 30
0.0
  0
VERTEX
  5
596A
  8
0
 10
35.992709281387292
 20
74.670465826429364
 30
0.0
  0
VERTEX
  5
596B
  8
0
 10
36.349708670073518
 20
74.335062761819643
 30
0.0
  0
VERTEX
  5
596C
  8
0
 10
36.720720259647841
 20
74.015209405456091
 30
0.0
  0
VERTEX
  5
596D
  8
0
 10
37.105066564966847
 20
73.711489890963577
 30
0.0
  0
VERTEX
  5
596E
  8
0
 10
37.50204574559033
 20
73.424458894357542
 30
0.0
  0
VERTEX
  5
596F
  8
0
 10
37.910932886790633
 20
73.154640620572962
 30
0.0
  0
VERTEX
  5
5970
  8
0
 10
38.33098132277312
 20
72.902527845558438
 30
0.0
  0
VERTEX
  5
5971
  8
0
 10
38.76142399970233
 20
72.668581015694201
 30
0.0
  0
VERTEX
  5
5972
  8
0
 10
39.201474876053211
 20
72.45322740619082
 30
0.0
  0
VERTEX
  5
5973
  8
0
 10
39.650330357734482
 20
72.256860340016999
 30
0.0
  0
VERTEX
  5
5974
  8
0
 10
40.107170765371478
 20
72.079838468796396
 30
0.0
  0
VERTEX
  5
5975
  8
0
 10
40.571161831069368
 20
71.922485116999894
 30
0.0
  0
VERTEX
  5
5976
  8
0
 10
41.041456221926843
 20
71.785087690644474
 30
0.0
  0
VERTEX
  5
5977
  8
0
 10
41.517195087517138
 20
71.66789715159274
 30
0.0
  0
VERTEX
  5
5978
  8
0
 10
41.997509628509
 20
71.571127558426454
 30
0.0
  0
VERTEX
  5
5979
  8
0
 10
42.481522683558268
 20
71.49495567474591
 30
0.0
  0
VERTEX
  5
597A
  8
0
 10
42.968350331569098
 20
71.439520645622906
 30
0.0
  0
VERTEX
  5
597B
  8
0
 10
43.45710350638965
 20
71.404923742810894
 30
0.0
  0
VERTEX
  5
597C
  8
0
 10
43.921116867560478
 20
71.391427196246269
 30
0.0
  0
VERTEX
  5
597D
  8
0
 10
44.050535223011401
 20
71.391012461631902
 30
0.0
  0
SEQEND
  5
597E
  8
0
  0
POLYLINE
  5
51C1
  8
0
 66
     1
 10
0.0
 20
0.0
 30
0.0
  0
VERTEX
  5
597F
  8
0
 10
44.050535223011451
 20
71.391012461631902
 30
0.0
  0
VERTEX
  5
5980
  8
0
 10
44.312680450191721
 20
71.394752164783426
 30
0.0
  0
VERTEX
  5
5981
  8
0
 10
44.793806253947629
 20
71.417780755597647
 30
0.0
  0
VERTEX
  5
5982
  8
0
 10
45.273503439039388
 20
71.461697420111449
 30
0.0
  0
VERTEX
  5
5983
  8
0
 10
45.750839012988969
 20
71.526418488797944
 30
0.0
  0
VERTEX
  5
5984
  8
0
 10
46.224911119022948
 20
71.61182168080208
 30
0.0
  0
VERTEX
  5
5985
  8
0
 10
46.694824070383078
 20
71.717745639850961
 30
0.0
  0
VERTEX
  5
5986
  8
0
 10
47.159690038398743
 20
71.843990238820226
 30
0.0
  0
VERTEX
  5
5987
  8
0
 10
47.618630729902328
 20
71.990316957843334
 30
0.0
  0
VERTEX
  5
5988
  8
0
 10
48.07077904663047
 20
72.156449334958609
 30
0.0
  0
VERTEX
  5
5989
  8
0
 10
48.515280723473133
 20
72.342073488441656
 30
0.0
  0
VERTEX
  5
598A
  8
0
 10
48.951295942477287
 20
72.546838709837004
 30
0.0
  0
VERTEX
  5
598B
  8
0
 10
49.37800091955436
 20
72.770358126568055
 30
0.0
  0
VERTEX
  5
598C
  8
0
 10
49.79458946089423
 20
73.012209432873703
 30
0.0
  0
VERTEX
  5
598D
  8
0
 10
50.200274486145283
 20
73.27193568769033
 30
0.0
  0
VERTEX
  5
598E
  8
0
 10
50.594289515482537
 20
73.549046177972428
 30
0.0
  0
VERTEX
  5
598F
  8
0
 10
50.975890117753671
 20
73.843017345819476
 30
0.0
  0
VERTEX
  5
5990
  8
0
 10
51.344355316968262
 20
74.153293777658703
 30
0.0
  0
VERTEX
  5
5991
  8
0
 10
51.698988954471453
 20
74.479289253614326
 30
0.0
  0
VERTEX
  5
5992
  8
0
 10
52.039121004229429
 20
74.8203878550799
 30
0.0
  0
VERTEX
  5
5993
  8
0
 10
52.364108838740982
 20
75.175945128402788
 30
0.0
  0
VERTEX
  5
5994
  8
0
 10
52.673338443184178
 20
75.545289302480512
 30
0.0
  0
VERTEX
  5
5995
  8
0
 10
52.966225575503167
 20
75.927722557969645
 30
0.0
  0
VERTEX
  5
5996
  8
0
 10
53.242216870244512
 20
76.322522345708876
 30
0.0
  0
VERTEX
  5
5997
  8
0
 10
53.500790884056499
 20
76.728942751865048
 30
0.0
  0
VERTEX
  5
5998
  8
0
 10
53.741459080876531
 20
77.146215907223223
 30
0.0
  0
VERTEX
  5
5999
  8
0
 10
53.963766754945397
 20
77.57355343795831
 30
0.0
  0
VERTEX
  5
599A
  8
0
 10
54.167293889904421
 20
78.01014795514692
 30
0.0
  0
VERTEX
  5
599B
  8
0
 10
54.35165595235177
 20
78.455174580204954
 30
0.0
  0
VERTEX
  5
599C
  8
0
 10
54.516504618359853
 20
78.907792503369961
 30
0.0
  0
VERTEX
  5
599D
  8
0
 10
54.661528431580138
 20
79.367146572282252
 30
0.0
  0
VERTEX
  5
599E
  8
0
 10
54.786453391692
 20
79.832368907664971
 30
0.0
  0
VERTEX
  5
599F
  8
0
 10
54.891043472084768
 20
80.302580543048919
 30
0.0
  0
VERTEX
  5
59A0
  8
0
 10
54.975101065793673
 20
80.776893085445394
 30
0.0
  0
VERTEX
  5
59A1
  8
0
 10
55.038467358848187
 20
81.254410393828977
 30
0.0
  0
VERTEX
  5
59A2
  8
0
 10
55.08102263032643
 20
81.734230272259026
 30
0.0
  0
VERTEX
  5
59A3
  8
0
 10
55.102686478549948
 20
82.215446174440757
 30
0.0
  0
VERTEX
  5
59A4
  8
0
 10
55.105649681649233
 20
82.500117956207504
 30
0.0
  0
SEQEND
  5
59A5
  8
0
  0
POLYLINE
  5
51C2
  8
0
 66
     1
 10
0.0
 20
0.0
 30
0.0
  0
VERTEX
  5
59A6
  8
0
 10
55.105649681649233
 20
82.500117956207504
 30
0.0
  0
VERTEX
  5
59A7
  8
0
 10
55.101914502012541
 20
82.758291398917208
 30
0.0
  0
VERTEX
  5
59A8
  8
0
 10
55.078904374985292
 20
83.231591705103426
 30
0.0
  0
VERTEX
  5
59A9
  8
0
 10
55.035018891410438
 20
83.703440135666511
 30
0.0
  0
VERTEX
  5
59AA
  8
0
 10
54.970344438961583
 20
84.172888348044495
 30
0.0
  0
VERTEX
  5
59AB
  8
0
 10
54.885007281852872
 20
84.639019777428203
 30
0.0
  0
VERTEX
  5
59AC
  8
0
 10
54.779174031256943
 20
85.100924339249815
 30
0.0
  0
VERTEX
  5
59AD
  8
0
 10
54.653051320215667
 20
85.557700202517537
 30
0.0
  0
VERTEX
  5
59AE
  8
0
 10
54.50688539997671
 20
86.008455551415153
 30
0.0
  0
VERTEX
  5
59AF
  8
0
 10
54.340961658860159
 20
86.452310327307231
 30
0.0
  0
VERTEX
  5
59B0
  8
0
 10
54.15560406460046
 20
86.888397947735044
 30
0.0
  0
VERTEX
  5
59B1
  8
0
 10
53.951174531261728
 20
87.315866999030362
 30
0.0
  0
VERTEX
  5
59B2
  8
0
 10
53.72807221197062
 20
87.733882899230053
 30
0.0
  0
VERTEX
  5
59B3
  8
0
 10
53.486732718861589
 20
88.141629528032468
 30
0.0
  0
VERTEX
  5
59B4
  8
0
 10
53.227627271769542
 20
88.538310820602277
 30
0.0
  0
VERTEX
  5
59B5
  8
0
 10
52.951261777347362
 20
88.923152322103547
 30
0.0
  0
VERTEX
  5
59B6
  8
0
 10
52.658175840421713
 20
89.295402699919549
 30
0.0
  0
VERTEX
  5
59B7
  8
0
 10
52.348941709534053
 20
89.654335210601957
 30
0.0
  0
VERTEX
  5
59B8
  8
0
 10
52.024163158742773
 20
89.999249118682798
 30
0.0
  0
VERTEX
  5
59B9
  8
0
 10
51.684474307886703
 20
90.32947106457982
 30
0.0
  0
VERTEX
  5
59BA
  8
0
 10
51.33053838363103
 20
90.644356378925565
 30
0.0
  0
VERTEX
  5
59BB
  8
0
 10
50.963046423730958
 20
90.943290340759674
 30
0.0
  0
VERTEX
  5
59BC
  8
0
 10
50.582715927059589
 20
91.225689377134145
 30
0.0
  0
VERTEX
  5
59BD
  8
0
 10
50.19028945205006
 20
91.491002201798594
 30
0.0
  0
VERTEX
  5
59BE
  8
0
 10
49.786533166303947
 20
91.738710890752174
 30
0.0
  0
VERTEX
  5
59BF
  8
0
 10
49.372235350207717
 20
91.968331892577226
 30
0.0
  0
VERTEX
  5
59C0
  8
0
 10
48.94820485749208
 20
92.179416971593369
 30
0.0
  0
VERTEX
  5
59C1
  8
0
 10
48.515269535746178
 20
92.371554082008998
 30
0.0
  0
VERTEX
  5
59C2
  8
0
 10
48.074274609978289
 20
92.544368171378096
 30
0.0
  0
VERTEX
  5
59C3
  8
0
 10
47.626081032383162
 20
92.697521911812515
 30
0.0
  0
VERTEX
  5
59C4
  8
0
 10
47.171563801538902
 20
92.830716357539302
 30
0.0
  0
VERTEX
  5
59C5
  8
0
 10
46.711610254315453
 20
92.943691527537865
 30
0.0
  0
VERTEX
  5
59C6
  8
0
 10
46.247118333826542
 20
93.036226912136314
 30
0.0
  0
VERTEX
  5
59C7
  8
0
 10
45.778994836799519
 20
93.108141902597225
 30
0.0
  0
VERTEX
  5
59C8
  8
0
 10
45.308153643780692
 20
93.159296142867731
 30
0.0
  0
VERTEX
  5
59C9
  8
0
 10
44.835513935618089
 20
93.189589802825623
 30
0.0
  0
VERTEX
  5
59CA
  8
0
 10
44.360661473743761
 20
93.198960597242547
 30
0.0
  0
SEQEND
  5
59CB
  8
0
  0
POLYLINE
  5
51C3
  8
0
 66
     1
 10
0.0
 20
0.0
 30
0.0
  0
VERTEX
  5
59CC
  8
0
 10
44.360661473743761
 20
93.198960597242547
 30
0.0
  0
VERTEX
  5
59CD
  8
0
 10
44.106376210120722
 20
93.195227053272617
 30
0.0
  0
VERTEX
  5
59CE
  8
0
 10
43.640794304285038
 20
93.172221402109855
 30
0.0
  0
VERTEX
  5
59CF
  8
0
 10
43.176710206990982
 20
93.128341801462682
 30
0.0
  0
VERTEX
  5
59D0
  8
0
 10
42.715087338137131
 20
93.063677546290705
 30
0.0
  0
VERTEX
  5
59D1
  8
0
 10
42.25685585724208
 20
92.978359052308875
 30
0.0
  0
VERTEX
  5
59D2
  8
0
 10
41.802939069398207
 20
92.872558351556336
 30
0.0
  0
VERTEX
  5
59D3
  8
0
 10
41.354251569938221
 20
92.746488743944468
 30
0.0
  0
VERTEX
  5
59D4
  8
0
 10
40.911697402097531
 20
92.600404365353228
 30
0.0
  0
VERTEX
  5
59D5
  8
0
 10
40.476168236220957
 20
92.434599673533398
 30
0.0
  0
VERTEX
  5
59D6
  8
0
 10
40.048541574168532
 20
92.249408852888877
 30
0.0
  0
VERTEX
  5
59D7
  8
0
 10
39.629678982519962
 20
92.045205139374417
 30
0.0
  0
VERTEX
  5
59D8
  8
0
 10
39.220424358113164
 20
91.822400066902247
 30
0.0
  0
VERTEX
  5
59D9
  8
0
 10
38.821602229383167
 20
91.581442636805534
 30
0.0
  0
VERTEX
  5
59DA
  8
0
 10
38.434016096891902
 20
91.322818412057273
 30
0.0
  0
VERTEX
  5
59DB
  8
0
 10
38.058446816356181
 20
91.047048538090706
 30
0.0
  0
VERTEX
  5
59DC
  8
0
 10
37.695651027394071
 20
90.754688692209115
 30
0.0
  0
VERTEX
  5
59DD
  8
0
 10
37.346359631115241
 20
90.446327963712463
 30
0.0
  0
VERTEX
  5
59DE
  8
0
 10
37.01127631958159
 20
90.122587667000985
 30
0.0
  0
VERTEX
  5
59DF
  8
0
 10
36.691076160059183
 20
89.784120090045846
 30
0.0
  0
VERTEX
  5
59E0
  8
0
 10
36.386404264641307
 20
89.431607214366949
 30
0.0
  0
VERTEX
  5
59E1
  8
0
 10
36.097874450804028
 20
89.065759302928683
 30
0.0
  0
VERTEX
  5
59E2
  8
0
 10
35.826067997484053
 20
88.687313452182337
 30
0.0
  0
VERTEX
  5
59E3
  8
0
 10
35.571532497564341
 20
88.297032130384466
 30
0.0
  0
VERTEX
  5
59E4
  8
0
 10
35.334780756095178
 20
87.895701642858896
 30
0.0
  0
VERTEX
  5
59E5
  8
0
 10
35.116289758373433
 20
87.484130549424066
 30
0.0
  0
VERTEX
  5
59E6
  8
0
 10
34.916499709938229
 20
87.06314803714551
 30
0.0
  0
VERTEX
  5
59E7
  8
0
 10
34.73581315039722
 20
86.633602251654239
 30
0.0
  0
VERTEX
  5
59E8
  8
0
 10
34.5745941428547
 20
86.196358590353356
 30
0.0
  0
VERTEX
  5
59E9
  8
0
 10
34.433167540566252
 20
85.752297960911676
 30
0.0
  0
VERTEX
  5
59EA
  8
0
 10
34.311818332294571
 20
85.302315008510703
 30
0.0
  0
VERTEX
  5
59EB
  8
0
 10
34.210791067688298
 20
84.847316315376275
 30
0.0
  0
VERTEX
  5
59EC
  8
0
 10
34.13028936385011
 20
84.388218576181174
 30
0.0
  0
VERTEX
  5
59ED
  8
0
 10
34.070475494102858
 20
83.925946752957572
 30
0.0
  0
VERTEX
  5
59EE
  8
0
 10
34.031470059800057
 20
83.461432213198904
 30
0.0
  0
VERTEX
  5
59EF
  8
0
 10
34.013351745867368
 20
82.995610854871543
 30
0.0
  0
VERTEX
  5
59F0
  8
0
 10
34.012019713219367
 20
82.787029606388785
 30
0.0
  0
SEQEND
  5
59F1
  8
0
  0
POLYLINE
  5
51C5
  8
0
 66
     1
 10
0.0
 20
0.0
 30
0.0
  0
VERTEX
  5
59F2
  8
0
 10
34.012019713219367
 20
82.787029606388785
 30
0.0
  0
VERTEX
  5
59F3
  8
0
 10
34.016059402348368
 20
82.536290743966987
 30
0.0
  0
VERTEX
  5
59F4
  8
0
 10
34.039631602511669
 20
82.077778636854049
 30
0.0
  0
VERTEX
  5
59F5
  8
0
 10
34.084085089411403
 20
81.620788590181178
 30
0.0
  0
VERTEX
  5
59F6
  8
0
 10
34.14932671255989
 20
81.166297701073262
 30
0.0
  0
VERTEX
  5
59F7
  8
0
 10
34.235220943142998
 20
80.715250005707915
 30
0.0
  0
VERTEX
  5
59F8
  8
0
 10
34.341589360679201
 20
80.268582383017034
 30
0.0
  0
VERTEX
  5
59F9
  8
0
 10
34.468211023207147
 20
79.827222614556547
 30
0.0
  0
VERTEX
  5
59FA
  8
0
 10
34.614822925993032
 20
79.392087458446468
 30
0.0
  0
VERTEX
  5
59FB
  8
0
 10
34.78112054745484
 20
78.964080746161883
 30
0.0
  0
VERTEX
  5
59FC
  8
0
 10
34.966758481175738
 20
78.54409150610914
 30
0.0
  0
VERTEX
  5
59FD
  8
0
 10
35.171351152705348
 20
78.132992117865399
 30
0.0
  0
VERTEX
  5
59FE
  8
0
 10
35.394473619673512
 20
77.731636500895462
 30
0.0
  0
VERTEX
  5
59FF
  8
0
 10
35.635662453569957
 20
77.340858341494283
 30
0.0
  0
VERTEX
  5
5A00
  8
0
 10
35.89441670137618
 20
76.961469361622846
 30
0.0
  0
VERTEX
  5
5A01
  8
0
 10
36.170198925072079
 20
76.594257633222455
 30
0.0
  0
VERTEX
  5
5A02
  8
0
 10
36.462436316878247
 20
76.239985941501146
 30
0.0
  0
VERTEX
  5
5A03
  8
0
 10
36.77052188793958
 20
75.899390200585998
 30
0.0
  0
VERTEX
  5
5A04
  8
0
 10
37.093815728002973
 20
75.573177924830219
 30
0.0
  0
VERTEX
  5
5A05
  8
0
 10
37.431646333495372
 20
75.26202675895118
 30
0.0
  0
VERTEX
  5
5A06
  8
0
 10
37.783312001264477
 20
74.966583070056487
 30
0.0
  0
VERTEX
  5
5A07
  8
0
 10
38.148082285108877
 20
74.687460604488791
 30
0.0
  0
VERTEX
  5
5A08
  8
0
 10
38.525199512092321
 20
74.425239212289711
 30
0.0
  0
VERTEX
  5
5A09
  8
0
 10
38.913880355509811
 20
74.180463641943874
 30
0.0
  0
VERTEX
  5
5A0A
  8
0
 10
39.313317461255878
 20
73.953642407921194
 30
0.0
  0
VERTEX
  5
5A0B
  8
0
 10
39.722681124230668
 20
73.745246733386523
 30
0.0
  0
VERTEX
  5
5A0C
  8
0
 10
40.141121011313857
 20
73.555709570290759
 30
0.0
  0
VERTEX
  5
5A0D
  8
0
 10
40.567767927336689
 20
73.385424698898902
 30
0.0
  0
VERTEX
  5
5A0E
  8
0
 10
41.001735620391088
 20
73.234745908645976
 30
0.0
  0
VERTEX
  5
5A0F
  8
0
 10
41.442122622729109
 20
73.103986262044117
 30
0.0
  0
VERTEX
  5
5A10
  8
0
 10
41.888014123430281
 20
72.993417443191333
 30
0.0
  0
VERTEX
  5
5A11
  8
0
 10
42.338483868944913
 20
72.903269192256886
 30
0.0
  0
VERTEX
  5
5A12
  8
0
 10
42.792596087560668
 20
72.833728827139197
 30
0.0
  0
VERTEX
  5
5A13
  8
0
 10
43.249407433787297
 20
72.784940853310218
 30
0.0
  0
VERTEX
  5
5A14
  8
0
 10
43.707968948610556
 20
72.757006662675792
 30
0.0
  0
VERTEX
  5
5A15
  8
0
 10
44.128622020763167
 20
72.74976861714498
 30
0.0
  0
SEQEND
  5
5A16
  8
0
  0
POLYLINE
  5
51C7
  8
0
 66
     1
 10
0.0
 20
0.0
 30
0.0
  0
VERTEX
  5
5A17
  8
0
 10
52.430303651956343
 20
82.567667811900776
 30
0.0
  0
VERTEX
  5
5A18
  8
0
 10
52.428407887031909
 20
82.356825468021526
 30
0.0
  0
VERTEX
  5
5A19
  8
0
 10
52.408907242862973
 20
81.939496832383625
 30
0.0
  0
VERTEX
  5
5A1A
  8
0
 10
52.368521752684202
 20
81.523636638051656
 30
0.0
  0
VERTEX
  5
5A1B
  8
0
 10
52.3073535406592
 20
81.110321812943027
 30
0.0
  0
VERTEX
  5
5A1C
  8
0
 10
52.225556219380138
 20
80.700590323893437
 30
0.0
  0
VERTEX
  5
5A1D
  8
0
 10
52.123335206957996
 20
80.295471132083435
 30
0.0
  0
VERTEX
  5
5A1E
  8
0
 10
52.000947211643258
 20
79.895981615802128
 30
0.0
  0
VERTEX
  5
5A1F
  8
0
 10
51.858699587153268
 20
79.503125015500004
 30
0.0
  0
VERTEX
  5
5A20
  8
0
 10
51.696949560812563
 20
79.117887914345346
 30
0.0
  0
VERTEX
  5
5A21
  8
0
 10
51.516103336446101
 20
78.74123776061171
 30
0.0
  0
VERTEX
  5
5A22
  8
0
 10
51.316615074276939
 20
78.374120438119462
 30
0.0
  0
VERTEX
  5
5A23
  8
0
 10
51.098985750390888
 20
78.017457890831764
 30
0.0
  0
VERTEX
  5
5A24
  8
0
 10
50.863761898632262
 20
77.672145807571326
 30
0.0
  0
VERTEX
  5
5A25
  8
0
 10
50.611534238090123
 20
77.339051372671435
 30
0.0
  0
VERTEX
  5
5A26
  8
0
 10
50.342936189621732
 20
77.01901108821076
 30
0.0
  0
VERTEX
  5
5A27
  8
0
 10
50.05864228513903
 20
76.712828673300663
 30
0.0
  0
VERTEX
  5
5A28
  8
0
 10
49.759366473652477
 20
76.421273045700445
 30
0.0
  0
VERTEX
  5
5A29
  8
0
 10
49.445860328326582
 20
76.145076390829644
 30
0.0
  0
VERTEX
  5
5A2A
  8
0
 10
49.11891115905005
 20
75.884932323026362
 30
0.0
  0
VERTEX
  5
5A2B
  8
0
 10
48.779340035258691
 20
75.64149414366895
 30
0.0
  0
VERTEX
  5
5A2C
  8
0
 10
48.427999723979759
 20
75.415373200536749
 30
0.0
  0
VERTEX
  5
5A2D
  8
0
 10
48.065772548272179
 20
75.207137352528491
 30
0.0
  0
VERTEX
  5
5A2E
  8
0
 10
47.6935681714439
 20
75.017309543594905
 30
0.0
  0
VERTEX
  5
5A2F
  8
0
 10
47.312321312608482
 20
74.846366489466334
 30
0.0
  0
VERTEX
  5
5A30
  8
0
 10
46.922989399319619
 20
74.694737480473734
 30
0.0
  0
VERTEX
  5
5A31
  8
0
 10
46.526550163177291
 20
74.562803303469167
 30
0.0
  0
VERTEX
  5
5A32
  8
0
 10
46.123999184444671
 20
74.450895285553457
 30
0.0
  0
VERTEX
  5
5A33
  8
0
 10
45.716347391841317
 20
74.359294462012542
 30
0.0
  0
VERTEX
  5
5A34
  8
0
 10
45.30461852379139
 20
74.288230870551644
 30
0.0
  0
VERTEX
  5
5A35
  8
0
 10
44.971841351824743
 20
74.246166144168399
 30
0.0
  0
SEQEND
  5
5A36
  8
0
  0
POLYLINE
  5
51C8
  8
0
 66
     1
 10
0.0
 20
0.0
 30
0.0
  0
VERTEX
  5
5A37
  8
0
 10
44.128622020763167
 20
72.74976861714498
 30
0.0
  0
VERTEX
  5
5A38
  8
0
 10
44.376109726153089
 20
72.753802774888783
 30
0.0
  0
VERTEX
  5
5A39
  8
0
 10
44.828160756009567
 20
72.777362707154055
 30
0.0
  0
VERTEX
  5
5A3A
  8
0
 10
45.2786670640983
 20
72.821802301346167
 30
0.0
  0
VERTEX
  5
5A3B
  8
0
 10
45.726636625291498
 20
72.887025671714653
 30
0.0
  0
VERTEX
  5
5A3C
  8
0
 10
46.171111110867201
 20
72.972893288086027
 30
0.0
  0
VERTEX
  5
5A3D
  8
0
 10
46.61113967400977
 20
73.079221457240436
 30
0.0
  0
VERTEX
  5
5A3E
  8
0
 10
47.045780978891827
 20
73.205782715501073
 30
0.0
  0
VERTEX
  5
5A3F
  8
0
 10
47.474105214435809
 20
73.352306315337984
 30
0.0
  0
VERTEX
  5
5A40
  8
0
 10
47.895196083422697
 20
73.518478804567764
 30
0.0
  0
VERTEX
  5
5A41
  8
0
 10
48.308152762690241
 20
73.703944696909204
 30
0.0
  0
VERTEX
  5
5A42
  8
0
 10
48.712091830229127
 20
73.908307232461652
 30
0.0
  0
VERTEX
  5
5A43
  8
0
 10
49.10614915505235
 20
74.131129226477299
 30
0.0
  0
VERTEX
  5
5A44
  8
0
 10
49.489481745797413
 20
74.371934004613706
 30
0.0
  0
VERTEX
  5
5A45
  8
0
 10
49.861269554103927
 20
74.630206422664415
 30
0.0
  0
VERTEX
  5
5A46
  8
0
 10
50.220717228911582
 20
74.905393968586708
 30
0.0
  0
VERTEX
  5
5A47
  8
0
 10
50.567055817922871
 20
75.196907944468876
 30
0.0
  0
VERTEX
  5
5A48
  8
0
 10
50.899544412592917
 20
75.504124725908667
 30
0.0
  0
VERTEX
  5
5A49
  8
0
 10
51.217471733125848
 20
75.826387096108334
 30
0.0
  0
VERTEX
  5
5A4A
  8
0
 10
51.52015765008796
 20
76.163005651832833
 30
0.0
  0
VERTEX
  5
5A4B
  8
0
 10
51.80695463938136
 20
76.513260278222873
 30
0.0
  0
VERTEX
  5
5A4C
  8
0
 10
52.077249167467791
 20
76.876401689308778
 30
0.0
  0
VERTEX
  5
5A4D
  8
0
 10
52.330463003876083
 20
77.251653030928225
 30
0.0
  0
VERTEX
  5
5A4E
  8
0
 10
52.566054458188177
 20
77.638211542620041
 30
0.0
  0
VERTEX
  5
5A4F
  8
0
 10
52.783519538856211
 20
78.035250274938022
 30
0.0
  0
VERTEX
  5
5A50
  8
0
 10
52.98239303137175
 20
78.441919858511525
 30
0.0
  0
VERTEX
  5
5A51
  8
0
 10
53.162249493480921
 20
78.857350321067784
 30
0.0
  0
VERTEX
  5
5A52
  8
0
 10
53.322704165316367
 20
79.280652948529877
 30
0.0
  0
VERTEX
  5
5A53
  8
0
 10
53.46341379249899
 20
79.710922186207426
 30
0.0
  0
VERTEX
  5
5A54
  8
0
 10
53.58407736044834
 20
80.147237576014334
 30
0.0
  0
VERTEX
  5
5A55
  8
0
 10
53.684436738331527
 20
80.588665725568745
 30
0.0
  0
VERTEX
  5
5A56
  8
0
 10
53.764277231272253
 20
81.034262304962709
 30
0.0
  0
VERTEX
  5
5A57
  8
0
 10
53.823428039639197
 20
81.483074066929817
 30
0.0
  0
VERTEX
  5
5A58
  8
0
 10
53.861762624430902
 20
81.934140886090205
 30
0.0
  0
VERTEX
  5
5A59
  8
0
 10
53.879198977975619
 20
82.386497812908488
 30
0.0
  0
VERTEX
  5
5A5A
  8
0
 10
53.88029397238202
 20
82.572965988178311
 30
0.0
  0
SEQEND
  5
5A5B
  8
0
  0
POLYLINE
  5
51C9
  8
0
 66
     1
 10
0.0
 20
0.0
 30
0.0
  0
VERTEX
  5
5A5C
  8
0
 10
44.343392154850648
 20
90.60103169241097
 30
0.0
  0
VERTEX
  5
5A5D
  8
0
 10
44.550299180085148
 20
90.599129605731264
 30
0.0
  0
VERTEX
  5
5A5E
  8
0
 10
44.960407080674919
 20
90.579618869258752
 30
0.0
  0
VERTEX
  5
5A5F
  8
0
 10
45.369022503615021
 20
90.539225102363034
 30
0.0
  0
VERTEX
  5
5A60
  8
0
 10
45.775051135949901
 20
90.47805391623541
 30
0.0
  0
VERTEX
  5
5A61
  8
0
 10
46.17743850798005
 20
90.39626416304489
 30
0.0
  0
VERTEX
  5
5A62
  8
0
 10
46.575139614576223
 20
90.294068251541745
 30
0.0
  0
VERTEX
  5
5A63
  8
0
 10
46.967121624011533
 20
90.171731595520995
 30
0.0
  0
VERTEX
  5
5A64
  8
0
 10
47.352366562235517
 20
90.029571923765701
 30
0.0
  0
VERTEX
  5
5A65
  8
0
 10
47.729873958410089
 20
89.867958453804789
 30
0.0
  0
VERTEX
  5
5A66
  8
0
 10
48.098663444786759
 20
89.687310931660932
 30
0.0
  0
VERTEX
  5
5A67
  8
0
 10
48.457777304129287
 20
89.488098540117591
 30
0.0
  0
VERTEX
  5
5A68
  8
0
 10
48.806282958028909
 20
89.270838678382475
 30
0.0
  0
VERTEX
  5
5A69
  8
0
 10
49.14327538961934
 20
89.036095616364236
 30
0.0
  0
VERTEX
  5
5A6A
  8
0
 10
49.467879494378202
 20
88.784479027108461
 30
0.0
  0
VERTEX
  5
5A6B
  8
0
 10
49.779252352893458
 20
88.516642401257855
 30
0.0
  0
VERTEX
  5
5A6C
  8
0
 10
50.076585419689629
 20
88.233281347710118
 30
0.0
  0
VERTEX
  5
5A6D
  8
0
 10
50.359106622429671
 20
87.935131784941646
 30
0.0
  0
VERTEX
  5
5A6E
  8
0
 10
50.626082366053687
 20
87.622968027748414
 30
0.0
  0
VERTEX
  5
5A6F
  8
0
 10
50.876819436668683
 20
87.297600774424765
 30
0.0
  0
VERTEX
  5
5A70
  8
0
 10
51.110666800272021
 20
86.959874999654446
 30
0.0
  0
VERTEX
  5
5A71
  8
0
 10
51.32701729167028
 20
86.610667758630228
 30
0.0
  0
VERTEX
  5
5A72
  8
0
 10
51.525309189248937
 20
86.250885908140773
 30
0.0
  0
VERTEX
  5
5A73
  8
0
 10
51.705027671546169
 20
85.881463750575563
 30
0.0
  0
VERTEX
  5
5A74
  8
0
 10
51.865706151898081
 20
85.503360606988664
 30
0.0
  0
VERTEX
  5
5A75
  8
0
 10
52.00692748774086
 20
85.117558325540855
 30
0.0
  0
VERTEX
  5
5A76
  8
0
 10
52.128325061482123
 20
84.725058731799294
 30
0.0
  0
VERTEX
  5
5A77
  8
0
 10
52.229583730189553
 20
84.326881027514673
 30
0.0
  0
VERTEX
  5
5A78
  8
0
 10
52.310440641682341
 20
83.924059144625829
 30
0.0
  0
VERTEX
  5
5A79
  8
0
 10
52.370685914958791
 20
83.517639061345676
 30
0.0
  0
VERTEX
  5
5A7A
  8
0
 10
52.410163183240883
 20
83.108676087276621
 30
0.0
  0
VERTEX
  5
5A7B
  8
0
 10
52.428769998270113
 20
82.698232124575611
 30
0.0
  0
VERTEX
  5
5A7C
  8
0
 10
52.430303651956343
 20
82.567667811900776
 30
0.0
  0
SEQEND
  5
5A7D
  8
0
  0
POLYLINE
  5
51CA
  8
0
 66
     1
 10
0.0
 20
0.0
 30
0.0
  0
VERTEX
  5
5A7E
  8
0
 10
53.88029397238202
 20
82.572965988178311
 30
0.0
  0
VERTEX
  5
5A7F
  8
0
 10
53.876266502249763
 20
82.81722436942789
 30
0.0
  0
VERTEX
  5
5A80
  8
0
 10
53.852729315806677
 20
83.262880365555276
 30
0.0
  0
VERTEX
  5
5A81
  8
0
 10
53.80832498850399
 20
83.706970071350014
 30
0.0
  0
VERTEX
  5
5A82
  8
0
 10
53.743152087422843
 20
84.148487291341823
 30
0.0
  0
VERTEX
  5
5A83
  8
0
 10
53.657354062815763
 20
84.586460144244853
 30
0.0
  0
VERTEX
  5
5A84
  8
0
 10
53.551119771278692
 20
85.019924556070663
 30
0.0
  0
VERTEX
  5
5A85
  8
0
 10
53.424683060282497
 20
85.447926378191653
 30
0.0
  0
VERTEX
  5
5A86
  8
0
 10
53.278322253094622
 20
85.869523488767527
 30
0.0
  0
VERTEX
  5
5A87
  8
0
 10
53.112359535629849
 20
86.283787867638125
 30
0.0
  0
VERTEX
  5
5A88
  8
0
 10
52.927160246591519
 20
86.689807640091047
 30
0.0
  0
VERTEX
  5
5A89
  8
0
 10
52.72313207247791
 20
87.086689084983192
 30
0.0
  0
VERTEX
  5
5A8A
  8
0
 10
52.500724149242927
 20
87.473558602776194
 30
0.0
  0
VERTEX
  5
5A8B
  8
0
 10
52.260426072606641
 20
87.849564639135366
 30
0.0
  0
VERTEX
  5
5A8C
  8
0
 10
52.002766819216767
 20
88.213879559843804
 30
0.0
  0
VERTEX
  5
5A8D
  8
0
 10
51.728313581057741
 20
88.565701472892414
 30
0.0
  0
VERTEX
  5
5A8E
  8
0
 10
51.437670515698962
 20
88.904255993727176
 30
0.0
  0
VERTEX
  5
5A8F
  8
0
 10
51.131477415158407
 20
89.228797949762296
 30
0.0
  0
VERTEX
  5
5A90
  8
0
 10
50.810408296338302
 20
89.538613020406984
 30
0.0
  0
VERTEX
  5
5A91
  8
0
 10
50.475169916161732
 20
89.833019308997876
 30
0.0
  0
VERTEX
  5
5A92
  8
0
 10
50.126500214705381
 20
90.111368843183044
 30
0.0
  0
VERTEX
  5
5A93
  8
0
 10
49.765166689778461
 20
90.373049000465898
 30
0.0
  0
VERTEX
  5
5A94
  8
0
 10
49.391964706550738
 20
90.61748385578278
 30
0.0
  0
VERTEX
  5
5A95
  8
0
 10
49.007715745971247
 20
90.844135448165957
 30
0.0
  0
VERTEX
  5
5A96
  8
0
 10
48.613265595850898
 20
91.052504963722868
 30
0.0
  0
VERTEX
  5
5A97
  8
0
 10
48.209482488608373
 20
91.242133832349154
 30
0.0
  0
VERTEX
  5
5A98
  8
0
 10
47.797255189789411
 20
91.41260473578663
 30
0.0
  0
VERTEX
  5
5A99
  8
0
 10
47.377491041577599
 20
91.563542524831817
 30
0.0
  0
VERTEX
  5
5A9A
  8
0
 10
46.951113965607341
 20
91.694615043703891
 30
0.0
  0
VERTEX
  5
5A9B
  8
0
 10
46.519062429477493
 20
91.805533859784589
 30
0.0
  0
VERTEX
  5
5A9C
  8
0
 10
46.082287381438881
 20
91.896054897150947
 30
0.0
  0
VERTEX
  5
5A9D
  8
0
 10
45.641750157795833
 20
91.965978972533605
 30
0.0
  0
VERTEX
  5
5A9E
  8
0
 10
45.198420367616997
 20
92.015152232546569
 30
0.0
  0
VERTEX
  5
5A9F
  8
0
 10
44.753273759398809
 20
92.043466491249916
 30
0.0
  0
VERTEX
  5
5AA0
  8
0
 10
44.338090737314161
 20
92.051022000989661
 30
0.0
  0
SEQEND
  5
5AA1
  8
0
  0
POLYLINE
  5
51CB
  8
0
 66
     1
 10
0.0
 20
0.0
 30
0.0
  0
VERTEX
  5
5AA2
  8
0
 10
36.83554448778191
 20
83.034734554628486
 30
0.0
  0
VERTEX
  5
5AA3
  8
0
 10
36.836970049796577
 20
83.234116096780497
 30
0.0
  0
VERTEX
  5
5AA4
  8
0
 10
36.855516918424918
 20
83.630392386446204
 30
0.0
  0
VERTEX
  5
5AA5
  8
0
 10
36.894930893524339
 20
84.025124833760344
 30
0.0
  0
VERTEX
  5
5AA6
  8
0
 10
36.955102761464651
 20
84.417189851093525
 30
0.0
  0
VERTEX
  5
5AA7
  8
0
 10
37.035866406342549
 20
84.805501530393784
 30
0.0
  0
VERTEX
  5
5AA8
  8
0
 10
37.136998639110608
 20
85.188984287289856
 30
0.0
  0
VERTEX
  5
5AA9
  8
0
 10
37.258219803588567
 20
85.566575842924635
 30
0.0
  0
VERTEX
  5
5AAA
  8
0
 10
37.399194541093699
 20
85.937230177178336
 30
0.0
  0
VERTEX
  5
5AAB
  8
0
 10
37.559532711385181
 20
86.299920438341616
 30
0.0
  0
VERTEX
  5
5AAC
  8
0
 10
37.738790467593709
 20
86.653641800812309
 30
0.0
  0
VERTEX
  5
5AAD
  8
0
 10
37.936471451425497
 20
86.997414211916364
 30
0.0
  0
VERTEX
  5
5AAE
  8
0
 10
38.152028051650838
 20
87.330284980123935
 30
0.0
  0
VERTEX
  5
5AAF
  8
0
 10
38.38486320291922
 20
87.651331898325154
 30
0.0
  0
VERTEX
  5
5AB0
  8
0
 10
38.634331916300177
 20
87.959665539911811
 30
0.0
  0
VERTEX
  5
5AB1
  8
0
 10
38.899743073121762
 20
88.254431733959706
 30
0.0
  0
VERTEX
  5
5AB2
  8
0
 10
39.18036134847965
 20
88.534813941340914
 30
0.0
  0
VERTEX
  5
5AB3
  8
0
 10
39.475409258765957
 20
88.800035524835494
 30
0.0
  0
VERTEX
  5
5AB4
  8
0
 10
39.784069327213707
 20
89.049361906725636
 30
0.0
  0
VERTEX
  5
5AB5
  8
0
 10
40.105486361094712
 20
89.282102607728604
 30
0.0
  0
VERTEX
  5
5AB6
  8
0
 10
40.438769833882787
 20
89.497613161521457
 30
0.0
  0
VERTEX
  5
5AB7
  8
0
 10
40.782996365395917
 20
89.695296899522646
 30
0.0
  0
VERTEX
  5
5AB8
  8
0
 10
41.13721229266676
 20
89.874606601020531
 30
0.0
  0
VERTEX
  5
5AB9
  8
0
 10
41.50043632405729
 20
90.035046004174575
 30
0.0
  0
VERTEX
  5
5ABA
  8
0
 10
41.871662268930748
 20
90.176171173857526
 30
0.0
  0
VERTEX
  5
5ABB
  8
0
 10
42.249861835019409
 20
90.297591722752244
 30
0.0
  0
VERTEX
  5
5ABC
  8
0
 10
42.633987485483694
 20
90.398971882565547
 30
0.0
  0
VERTEX
  5
5ABD
  8
0
 10
43.022975347538448
 20
90.480031422668844
 30
0.0
  0
VERTEX
  5
5ABE
  8
0
 10
43.415748164432017
 20
90.540546413921447
 30
0.0
  0
VERTEX
  5
5ABF
  8
0
 10
43.811218282491531
 20
90.580349835875751
 30
0.0
  0
VERTEX
  5
5AC0
  8
0
 10
44.208290664906862
 20
90.599332026002827
 30
0.0
  0
VERTEX
  5
5AC1
  8
0
 10
44.343392154850648
 20
90.60103169241097
 30
0.0
  0
SEQEND
  5
5AC2
  8
0
  0
POLYLINE
  5
51CC
  8
0
 66
     1
 10
0.0
 20
0.0
 30
0.0
  0
VERTEX
  5
5AC3
  8
0
 10
44.338090737314218
 20
92.051022000989661
 30
0.0
  0
VERTEX
  5
5AC4
  8
0
 10
44.099988574644819
 20
92.047008011741823
 30
0.0
  0
VERTEX
  5
5AC5
  8
0
 10
43.666546684764597
 20
92.023524016762366
 30
0.0
  0
VERTEX
  5
5AC6
  8
0
 10
43.234759116629988
 20
91.979207815889794
 30
0.0
  0
VERTEX
  5
5AC7
  8
0
 10
42.805660804178189
 20
91.914163585307591
 30
0.0
  0
VERTEX
  5
5AC8
  8
0
 10
42.38024917734365
 20
91.828542770356364
 30
0.0
  0
VERTEX
  5
5AC9
  8
0
 10
41.95951304906945
 20
91.722544664640097
 30
0.0
  0
VERTEX
  5
5ACA
  8
0
 10
41.54443031968399
 20
91.596415940952255
 30
0.0
  0
VERTEX
  5
5ACB
  8
0
 10
41.13596570124534
 20
91.450450071045651
 30
0.0
  0
VERTEX
  5
5ACC
  8
0
 10
40.735068473561881
 20
91.284986636229945
 30
0.0
  0
VERTEX
  5
5ACD
  8
0
 10
40.342670277163492
 20
91.100410530551315
 30
0.0
  0
VERTEX
  5
5ACE
  8
0
 10
39.959682948387957
 20
90.897151058566351
 30
0.0
  0
VERTEX
  5
5ACF
  8
0
 10
39.586996401629257
 20
90.675680929974988
 30
0.0
  0
VERTEX
  5
5AD0
  8
0
 10
39.225476563653757
 20
90.436515153618416
 30
0.0
  0
VERTEX
  5
5AD1
  8
0
 10
38.875963364747037
 20
90.180209833580037
 30
0.0
  0
VERTEX
  5
5AD2
  8
0
 10
38.539268791296003
 20
89.907360870349834
 30
0.0
  0
VERTEX
  5
5AD3
  8
0
 10
38.216175004239609
 20
89.618602570221327
 30
0.0
  0
VERTEX
  5
5AD4
  8
0
 10
37.90743252765035
 20
89.314606166291995
 30
0.0
  0
VERTEX
  5
5AD5
  8
0
 10
37.613758511519087
 20
88.996078254622176
 30
0.0
  0
VERTEX
  5
5AD6
  8
0
 10
37.335835072629017
 20
88.663759149285056
 30
0.0
  0
VERTEX
  5
5AD7
  8
0
 10
37.074307717206558
 20
88.318421160203627
 30
0.0
  0
VERTEX
  5
5AD8
  8
0
 10
36.829783848837259
 20
87.960866797822888
 30
0.0
  0
VERTEX
  5
5AD9
  8
0
 10
36.602831364929877
 20
87.591926908807039
 30
0.0
  0
VERTEX
  5
5ADA
  8
0
 10
36.393977344806537
 20
87.212458747082479
 30
0.0
  0
VERTEX
  5
5ADB
  8
0
 10
36.203706832285128
 20
86.823343984668753
 30
0.0
  0
VERTEX
  5
5ADC
  8
0
 10
36.032461725332418
 20
86.425486691524355
 30
0.0
  0
VERTEX
  5
5ADD
  8
0
 10
35.88063979883308
 20
86.019811384542948
 30
0.0
  0
VERTEX
  5
5ADE
  8
0
 10
35.748593636475881
 20
85.607260529448723
 30
0.0
  0
VERTEX
  5
5ADF
  8
0
 10
35.636629910673918
 20
85.188792538390686
 30
0.0
  0
VERTEX
  5
5AE0
  8
0
 10
35.545008674005182
 20
84.765379549916645
 30
0.0
  0
VERTEX
  5
5AE1
  8
0
 10
35.473942757848967
 20
84.338005177527322
 30
0.0
  0
VERTEX
  5
5AE2
  8
0
 10
35.423597279572832
 20
83.907662231899735
 30
0.0
  0
VERTEX
  5
5AE3
  8
0
 10
35.394089259383207
 20
83.475350421887271
 30
0.0
  0
VERTEX
  5
5AE4
  8
0
 10
35.385571454039876
 20
83.025891397898505
 30
0.0
  0
SEQEND
  5
5AE5
  8
0
  0
POLYLINE
  5
51CE
  8
0
 66
     1
 10
0.0
 20
0.0
 30
0.0
  0
VERTEX
  5
5AE6
  8
0
 10
44.943819202265082
 20
75.021044040898261
 30
0.0
  0
VERTEX
  5
5AE7
  8
0
 10
44.736858700979127
 20
75.022940077656244
 30
0.0
  0
VERTEX
  5
5AE8
  8
0
 10
44.326738788607457
 20
75.042394122547591
 30
0.0
  0
VERTEX
  5
5AE9
  8
0
 10
43.918056678316283
 20
75.082671138007385
 30
0.0
  0
VERTEX
  5
5AEA
  8
0
 10
43.511908612208721
 20
75.143665350621831
 30
0.0
  0
VERTEX
  5
5AEB
  8
0
 10
43.109348829201089
 20
75.225218014678234
 30
0.0
  0
VERTEX
  5
5AEC
  8
0
 10
42.711422191176759
 20
75.327117057518535
 30
0.0
  0
VERTEX
  5
5AED
  8
0
 10
42.319161486356371
 20
75.449097636660525
 30
0.0
  0
VERTEX
  5
5AEE
  8
0
 10
41.93358475692483
 20
75.590842833222624
 30
0.0
  0
VERTEX
  5
5AEF
  8
0
 10
41.555692665655307
 20
75.751984479162815
 30
0.0
  0
VERTEX
  5
5AF0
  8
0
 10
41.186465908166703
 20
75.932104116102067
 30
0.0
  0
VERTEX
  5
5AF1
  8
0
 10
40.826862677322403
 20
76.130734083189253
 30
0.0
  0
VERTEX
  5
5AF2
  8
0
 10
40.477816411741259
 20
76.347358583078432
 30
0.0
  0
VERTEX
  5
5AF3
  8
0
 10
40.140232938678167
 20
76.581415259526494
 30
0.0
  0
VERTEX
  5
5AF4
  8
0
 10
39.814988310528101
 20
76.832296585043338
 30
0.0
  0
VERTEX
  5
5AF5
  8
0
 10
39.502926575867413
 20
77.099351415994533
 30
0.0
  0
VERTEX
  5
5AF6
  8
0
 10
39.204857597752529
 20
77.381886677724054
 30
0.0
  0
VERTEX
  5
5AF7
  8
0
 10
38.92155495989423
 20
77.679169157149545
 30
0.0
  0
VERTEX
  5
5AF8
  8
0
 10
38.65375396595298
 20
77.990427398300511
 30
0.0
  0
VERTEX
  5
5AF9
  8
0
 10
38.402149736969513
 20
78.314853696031406
 30
0.0
  0
VERTEX
  5
5AFA
  8
0
 10
38.167395411708448
 20
78.65160618291705
 30
0.0
  0
VERTEX
  5
5AFB
  8
0
 10
37.950100454451992
 20
78.999811004117305
 30
0.0
  0
VERTEX
  5
5AFC
  8
0
 10
37.750829074528362
 20
79.358564574793235
 30
0.0
  0
VERTEX
  5
5AFD
  8
0
 10
37.570098761603418
 20
79.726935914460483
 30
0.0
  0
VERTEX
  5
5AFE
  8
0
 10
37.408378940498359
 20
80.103969052479528
 30
0.0
  0
VERTEX
  5
5AFF
  8
0
 10
37.266089749025852
 20
80.488685498707071
 30
0.0
  0
VERTEX
  5
5B00
  8
0
 10
37.14360094205913
 20
80.880086773166653
 30
0.0
  0
VERTEX
  5
5B01
  8
0
 10
37.041230924762473
 20
81.277156988438463
 30
0.0
  0
VERTEX
  5
5B02
  8
0
 10
36.959245917620571
 20
81.678865478322933
 30
0.0
  0
VERTEX
  5
5B03
  8
0
 10
36.897859255604182
 20
82.084169466191426
 30
0.0
  0
VERTEX
  5
5B04
  8
0
 10
36.857230823498902
 20
82.492016766312048
 30
0.0
  0
VERTEX
  5
5B05
  8
0
 10
36.837466629110317
 20
82.901348511317053
 30
0.0
  0
VERTEX
  5
5B06
  8
0
 10
36.83554448778191
 20
83.034734554628486
 30
0.0
  0
SEQEND
  5
5B07
  8
0
  0
POLYLINE
  5
51CF
  8
0
 66
     1
 10
0.0
 20
0.0
 30
0.0
  0
VERTEX
  5
5B08
  8
0
 10
35.385571454039876
 20
83.025891397898505
 30
0.0
  0
VERTEX
  5
5B09
  8
0
 10
35.390194177769082
 20
82.782140504994715
 30
0.0
  0
VERTEX
  5
5B0A
  8
0
 10
35.414816578368843
 20
82.337500043346424
 30
0.0
  0
VERTEX
  5
5B0B
  8
0
 10
35.460301727523003
 20
81.894427814555797
 30
0.0
  0
VERTEX
  5
5B0C
  8
0
 10
35.526548906094241
 20
81.453924873502672
 30
0.0
  0
VERTEX
  5
5B0D
  8
0
 10
35.613412553229047
 20
81.016960657404098
 30
0.0
  0
VERTEX
  5
5B0E
  8
0
 10
35.72070175482046
 20
80.584496849602075
 30
0.0
  0
VERTEX
  5
5B0F
  8
0
 10
35.848180657404313
 20
80.157485270536725
 30
0.0
  0
VERTEX
  5
5B10
  8
0
 10
35.995568980932411
 20
79.736865785126184
 30
0.0
  0
VERTEX
  5
5B11
  8
0
 10
36.162542629080441
 20
79.323564235526163
 30
0.0
  0
VERTEX
  5
5B12
  8
0
 10
36.348734395880889
 20
78.918490403803332
 30
0.0
  0
VERTEX
  5
5B13
  8
0
 10
36.553734767261503
 20
78.522536009006643
 30
0.0
  0
VERTEX
  5
5B14
  8
0
 10
36.777092815854061
 20
78.136572743065415
 30
0.0
  0
VERTEX
  5
5B15
  8
0
 10
37.018317187229783
 20
77.761450349874821
 30
0.0
  0
VERTEX
  5
5B16
  8
0
 10
37.276877175506208
 20
77.397994751848813
 30
0.0
  0
VERTEX
  5
5B17
  8
0
 10
37.552203886065833
 20
77.047006228132062
 30
0.0
  0
VERTEX
  5
5B18
  8
0
 10
37.843691482921813
 20
76.70925764855977
 30
0.0
  0
VERTEX
  5
5B19
  8
0
 10
38.150698518068552
 20
76.385492767343123
 30
0.0
  0
VERTEX
  5
5B1A
  8
0
 10
38.472549339961098
 20
76.0764245803351
 30
0.0
  0
VERTEX
  5
5B1B
  8
0
 10
38.808535578078278
 20
75.782733749598009
 30
0.0
  0
VERTEX
  5
5B1C
  8
0
 10
39.15791770034302
 20
75.505067098851271
 30
0.0
  0
VERTEX
  5
5B1D
  8
0
 10
39.519926639999291
 20
75.244036183225234
 30
0.0
  0
VERTEX
  5
5B1E
  8
0
 10
39.893765488376552
 20
75.000215936584141
 30
0.0
  0
VERTEX
  5
5B1F
  8
0
 10
40.278611249813572
 20
74.77414339951136
 30
0.0
  0
VERTEX
  5
5B20
  8
0
 10
40.673616654862577
 20
74.566316530869855
 30
0.0
  0
VERTEX
  5
5B21
  8
0
 10
41.077912027753413
 20
74.37719310566456
 30
0.0
  0
VERTEX
  5
5B22
  8
0
 10
41.490607110232389
 20
74.207189737807539
 30
0.0
  0
VERTEX
  5
5B23
  8
0
 10
41.910793108242757
 20
74.056680905575462
 30
0.0
  0
VERTEX
  5
5B24
  8
0
 10
42.337544806025313
 20
73.925998090909303
 30
0.0
  0
VERTEX
  5
5B25
  8
0
 10
42.769922513489668
 20
73.815429093306449
 30
0.0
  0
VERTEX
  5
5B26
  8
0
 10
43.206974140399083
 20
73.725217393656123
 30
0.0
  0
VERTEX
  5
5B27
  8
0
 10
43.64773729819192
 20
73.655561616415355
 30
0.0
  0
VERTEX
  5
5B28
  8
0
 10
44.091241424690828
 20
73.606615091357796
 30
0.0
  0
VERTEX
  5
5B29
  8
0
 10
44.536509926909368
 20
73.578485515886712
 30
0.0
  0
VERTEX
  5
5B2A
  8
0
 10
44.949120619801512
 20
73.571053732319569
 30
0.0
  0
SEQEND
  5
5B2B
  8
0
  0
POLYLINE
  5
51D1
  8
0
 10
44.949124129663247
 20
73.571053752102571
 30
0.0
 66
     1
 70
     8
  0
VERTEX
  8
0
  5
5DB6
 10
44.9491
 20
73.5711
 30
0.000000
  70
    32
  0
VERTEX
  8
0
  5
5DB7
 10
44.9497
 20
73.5713
 30
0.000000
  70
    32
  0
VERTEX
  8
0
  5
5DB8
 10
44.9504
 20
73.5719
 30
0.000000
  70
    32
  0
VERTEX
  8
0
  5
5DB9
 10
44.9510
 20
73.5730
 30
0.000000
  70
    32
  0
VERTEX
  8
0
  5
5DBA
 10
44.9516
 20
73.5746
 30
0.000000
  70
    32
  0
VERTEX
  8
0
  5
5DBB
 10
44.9522
 20
73.5765
 30
0.000000
  70
    32
  0
VERTEX
  8
0
  5
5DBC
 10
44.9528
 20
73.5789
 30
0.000000
  70
    32
  0
VERTEX
  8
0
  5
5DBD
 10
44.9534
 20
73.5818
 30
0.000000
  70
    32
  0
VERTEX
  8
0
  5
5DBE
 10
44.9540
 20
73.5850
 30
0.000000
  70
    32
  0
VERTEX
  8
0
  5
5DBF
 10
44.9546
 20
73.5887
 30
0.000000
  70
    32
  0
VERTEX
  8
0
  5
5DC0
 10
44.9552
 20
73.5928
 30
0.000000
  70
    32
  0
VERTEX
  8
0
  5
5DC1
 10
44.9558
 20
73.5974
 30
0.000000
  70
    32
  0
VERTEX
  8
0
  5
5DC2
 10
44.9564
 20
73.6023
 30
0.000000
  70
    32
  0
VERTEX
  8
0
  5
5DC3
 10
44.9569
 20
73.6077
 30
0.000000
  70
    32
  0
VERTEX
  8
0
  5
5DC4
 10
44.9575
 20
73.6135
 30
0.000000
  70
    32
  0
VERTEX
  8
0
  5
5DC5
 10
44.9581
 20
73.6197
 30
0.000000
  70
    32
  0
VERTEX
  8
0
  5
5DC6
 10
44.9586
 20
73.6263
 30
0.000000
  70
    32
  0
VERTEX
  8
0
  5
5DC7
 10
44.9592
 20
73.6333
 30
0.000000
  70
    32
  0
VERTEX
  8
0
  5
5DC8
 10
44.9597
 20
73.6407
 30
0.000000
  70
    32
  0
VERTEX
  8
0
  5
5DC9
 10
44.9602
 20
73.6485
 30
0.000000
  70
    32
  0
VERTEX
  8
0
  5
5DCA
 10
44.9608
 20
73.6567
 30
0.000000
  70
    32
  0
VERTEX
  8
0
  5
5DCB
 10
44.9613
 20
73.6653
 30
0.000000
  70
    32
  0
VERTEX
  8
0
  5
5DCC
 10
44.9618
 20
73.6743
 30
0.000000
  70
    32
  0
VERTEX
  8
0
  5
5DCD
 10
44.9623
 20
73.6836
 30
0.000000
  70
    32
  0
VERTEX
  8
0
  5
5DCE
 10
44.9628
 20
73.6933
 30
0.000000
  70
    32
  0
VERTEX
  8
0
  5
5DCF
 10
44.9632
 20
73.7034
 30
0.000000
  70
    32
  0
VERTEX
  8
0
  5
5DD0
 10
44.9637
 20
73.7138
 30
0.000000
  70
    32
  0
VERTEX
  8
0
  5
5DD1
 10
44.9642
 20
73.7246
 30
0.000000
  70
    32
  0
VERTEX
  8
0
  5
5DD2
 10
44.9646
 20
73.7357
 30
0.000000
  70
    32
  0
VERTEX
  8
0
  5
5DD3
 10
44.9650
 20
73.7472
 30
0.000000
  70
    32
  0
VERTEX
  8
0
  5
5DD4
 10
44.9655
 20
73.7589
 30
0.000000
  70
    32
  0
VERTEX
  8
0
  5
5DD5
 10
44.9659
 20
73.7711
 30
0.000000
  70
    32
  0
VERTEX
  8
0
  5
5DD6
 10
44.9663
 20
73.7835
 30
0.000000
  70
    32
  0
VERTEX
  8
0
  5
5DD7
 10
44.9667
 20
73.7962
 30
0.000000
  70
    32
  0
VERTEX
  8
0
  5
5DD8
 10
44.9670
 20
73.8093
 30
0.000000
  70
    32
  0
VERTEX
  8
0
  5
5DD9
 10
44.9674
 20
73.8226
 30
0.000000
  70
    32
  0
VERTEX
  8
0
  5
5DDA
 10
44.9677
 20
73.8362
 30
0.000000
  70
    32
  0
VERTEX
  8
0
  5
5DDB
 10
44.9681
 20
73.8501
 30
0.000000
  70
    32
  0
VERTEX
  8
0
  5
5DDC
 10
44.9684
 20
73.8642
 30
0.000000
  70
    32
  0
VERTEX
  8
0
  5
5DDD
 10
44.9687
 20
73.8787
 30
0.000000
  70
    32
  0
VERTEX
  8
0
  5
5DDE
 10
44.9690
 20
73.8933
 30
0.000000
  70
    32
  0
VERTEX
  8
0
  5
5DDF
 10
44.9693
 20
73.9083
 30
0.000000
  70
    32
  0
VERTEX
  8
0
  5
5DE0
 10
44.9696
 20
73.9234
 30
0.000000
  70
    32
  0
VERTEX
  8
0
  5
5DE1
 10
44.9698
 20
73.9388
 30
0.000000
  70
    32
  0
VERTEX
  8
0
  5
5DE2
 10
44.9701
 20
73.9544
 30
0.000000
  70
    32
  0
VERTEX
  8
0
  5
5DE3
 10
44.9703
 20
73.9702
 30
0.000000
  70
    32
  0
VERTEX
  8
0
  5
5DE4
 10
44.9705
 20
73.9861
 30
0.000000
  70
    32
  0
VERTEX
  8
0
  5
5DE5
 10
44.9707
 20
74.0023
 30
0.000000
  70
    32
  0
VERTEX
  8
0
  5
5DE6
 10
44.9709
 20
74.0187
 30
0.000000
  70
    32
  0
VERTEX
  8
0
  5
5DE7
 10
44.9711
 20
74.0352
 30
0.000000
  70
    32
  0
VERTEX
  8
0
  5
5DE8
 10
44.9712
 20
74.0519
 30
0.000000
  70
    32
  0
VERTEX
  8
0
  5
5DE9
 10
44.9714
 20
74.0687
 30
0.000000
  70
    32
  0
VERTEX
  8
0
  5
5DEA
 10
44.9715
 20
74.0857
 30
0.000000
  70
    32
  0
VERTEX
  8
0
  5
5DEB
 10
44.9716
 20
74.1027
 30
0.000000
  70
    32
  0
VERTEX
  8
0
  5
5DEC
 10
44.9717
 20
74.1199
 30
0.000000
  70
    32
  0
VERTEX
  8
0
  5
5DED
 10
44.9718
 20
74.1373
 30
0.000000
  70
    32
  0
VERTEX
  8
0
  5
5DEE
 10
44.9718
 20
74.1547
 30
0.000000
  70
    32
  0
VERTEX
  8
0
  5
5DEF
 10
44.9719
 20
74.1721
 30
0.000000
  70
    32
  0
VERTEX
  8
0
  5
5DF0
 10
44.9719
 20
74.1897
 30
0.000000
  70
    32
  0
VERTEX
  8
0
  5
5DF1
 10
44.9720
 20
74.2073
 30
0.000000
  70
    32
  0
VERTEX
  8
0
  5
5DF2
 10
44.9720
 20
74.2250
 30
0.000000
  70
    32
  0
VERTEX
  8
0
  5
5DF3
 10
44.9719
 20
74.2428
 30
0.000000
  70
    32
  0
VERTEX
  8
0
  5
5DF4
 10
44.9719
 20
74.2605
 30
0.000000
  70
    32
  0
VERTEX
  8
0
  5
5DF5
 10
44.9719
 20
74.2783
 30
0.000000
  70
    32
  0
VERTEX
  8
0
  5
5DF6
 10
44.9718
 20
74.2961
 30
0.000000
  70
    32
  0
VERTEX
  8
0
  5
5DF7
 10
44.9717
 20
74.3139
 30
0.000000
  70
    32
  0
VERTEX
  8
0
  5
5DF8
 10
44.9717
 20
74.3316
 30
0.000000
  70
    32
  0
VERTEX
  8
0
  5
5DF9
 10
44.9716
 20
74.3494
 30
0.000000
  70
    32
  0
VERTEX
  8
0
  5
5DFA
 10
44.9714
 20
74.3671
 30
0.000000
  70
    32
  0
VERTEX
  8
0
  5
5DFB
 10
44.9713
 20
74.3848
 30
0.000000
  70
    32
  0
VERTEX
  8
0
  5
5DFC
 10
44.9712
 20
74.4024
 30
0.000000
  70
    32
  0
VERTEX
  8
0
  5
5DFD
 10
44.9710
 20
74.4200
 30
0.000000
  70
    32
  0
VERTEX
  8
0
  5
5DFE
 10
44.9708
 20
74.4375
 30
0.000000
  70
    32
  0
VERTEX
  8
0
  5
5DFF
 10
44.9706
 20
74.4549
 30
0.000000
  70
    32
  0
VERTEX
  8
0
  5
5E00
 10
44.9704
 20
74.4722
 30
0.000000
  70
    32
  0
VERTEX
  8
0
  5
5E01
 10
44.9702
 20
74.4894
 30
0.000000
  70
    32
  0
VERTEX
  8
0
  5
5E02
 10
44.9700
 20
74.5065
 30
0.000000
  70
    32
  0
VERTEX
  8
0
  5
5E03
 10
44.9697
 20
74.5235
 30
0.000000
  70
    32
  0
VERTEX
  8
0
  5
5E04
 10
44.9694
 20
74.5403
 30
0.000000
  70
    32
  0
VERTEX
  8
0
  5
5E05
 10
44.9692
 20
74.5570
 30
0.000000
  70
    32
  0
VERTEX
  8
0
  5
5E06
 10
44.9689
 20
74.5735
 30
0.000000
  70
    32
  0
VERTEX
  8
0
  5
5E07
 10
44.9686
 20
74.5898
 30
0.000000
  70
    32
  0
VERTEX
  8
0
  5
5E08
 10
44.9683
 20
74.6060
 30
0.000000
  70
    32
  0
VERTEX
  8
0
  5
5E09
 10
44.9679
 20
74.6220
 30
0.000000
  70
    32
  0
VERTEX
  8
0
  5
5E0A
 10
44.9676
 20
74.6378
 30
0.000000
  70
    32
  0
VERTEX
  8
0
  5
5E0B
 10
44.9672
 20
74.6534
 30
0.000000
  70
    32
  0
VERTEX
  8
0
  5
5E0C
 10
44.9669
 20
74.6687
 30
0.000000
  70
    32
  0
VERTEX
  8
0
  5
5E0D
 10
44.9665
 20
74.6839
 30
0.000000
  70
    32
  0
VERTEX
  8
0
  5
5E0E
 10
44.9661
 20
74.6988
 30
0.000000
  70
    32
  0
VERTEX
  8
0
  5
5E0F
 10
44.9657
 20
74.7135
 30
0.000000
  70
    32
  0
VERTEX
  8
0
  5
5E10
 10
44.9653
 20
74.7279
 30
0.000000
  70
    32
  0
VERTEX
  8
0
  5
5E11
 10
44.9648
 20
74.7421
 30
0.000000
  70
    32
  0
VERTEX
  8
0
  5
5E12
 10
44.9644
 20
74.7559
 30
0.000000
  70
    32
  0
VERTEX
  8
0
  5
5E13
 10
44.9639
 20
74.7696
 30
0.000000
  70
    32
  0
VERTEX
  8
0
  5
5E14
 10
44.9635
 20
74.7829
 30
0.000000
  70
    32
  0
VERTEX
  8
0
  5
5E15
 10
44.9630
 20
74.7959
 30
0.000000
  70
    32
  0
VERTEX
  8
0
  5
5E16
 10
44.9625
 20
74.8087
 30
0.000000
  70
    32
  0
VERTEX
  8
0
  5
5E17
 10
44.9620
 20
74.8211
 30
0.000000
  70
    32
  0
VERTEX
  8
0
  5
5E18
 10
44.9615
 20
74.8332
 30
0.000000
  70
    32
  0
VERTEX
  8
0
  5
5E19
 10
44.9610
 20
74.8450
 30
0.000000
  70
    32
  0
VERTEX
  8
0
  5
5E1A
 10
44.9605
 20
74.8564
 30
0.000000
  70
    32
  0
VERTEX
  8
0
  5
5E1B
 10
44.9600
 20
74.8676
 30
0.000000
  70
    32
  0
VERTEX
  8
0
  5
5E1C
 10
44.9594
 20
74.8783
 30
0.000000
  70
    32
  0
VERTEX
  8
0
  5
5E1D
 10
44.9589
 20
74.8888
 30
0.000000
  70
    32
  0
VERTEX
  8
0
  5
5E1E
 10
44.9584
 20
74.8988
 30
0.000000
  70
    32
  0
VERTEX
  8
0
  5
5E1F
 10
44.9578
 20
74.9085
 30
0.000000
  70
    32
  0
VERTEX
  8
0
  5
5E20
 10
44.9572
 20
74.9179
 30
0.000000
  70
    32
  0
VERTEX
  8
0
  5
5E21
 10
44.9567
 20
74.9268
 30
0.000000
  70
    32
  0
VERTEX
  8
0
  5
5E22
 10
44.9561
 20
74.9354
 30
0.000000
  70
    32
  0
VERTEX
  8
0
  5
5E23
 10
44.9555
 20
74.9436
 30
0.000000
  70
    32
  0
VERTEX
  8
0
  5
5E24
 10
44.9549
 20
74.9514
 30
0.000000
  70
    32
  0
VERTEX
  8
0
  5
5E25
 10
44.9543
 20
74.9588
 30
0.000000
  70
    32
  0
VERTEX
  8
0
  5
5E26
 10
44.9537
 20
74.9658
 30
0.000000
  70
    32
  0
VERTEX
  8
0
  5
5E27
 10
44.9531
 20
74.9724
 30
0.000000
  70
    32
  0
VERTEX
  8
0
  5
5E28
 10
44.9525
 20
74.9786
 30
0.000000
  70
    32
  0
VERTEX
  8
0
  5
5E29
 10
44.9519
 20
74.9844
 30
0.000000
  70
    32
  0
VERTEX
  8
0
  5
5E2A
 10
44.9513
 20
74.9898
 30
0.000000
  70
    32
  0
VERTEX
  8
0
  5
5E2B
 10
44.9507
 20
74.9948
 30
0.000000
  70
    32
  0
VERTEX
  8
0
  5
5E2C
 10
44.9501
 20
74.9993
 30
0.000000
  70
    32
  0
VERTEX
  8
0
  5
5E2D
 10
44.9494
 20
75.0034
 30
0.000000
  70
    32
  0
VERTEX
  8
0
  5
5E2E
 10
44.9488
 20
75.0071
 30
0.000000
  70
    32
  0
VERTEX
  8
0
  5
5E2F
 10
44.9482
 20
75.0104
 30
0.000000
  70
    32
  0
VERTEX
  8
0
  5
5E30
 10
44.9476
 20
75.0132
 30
0.000000
  70
    32
  0
VERTEX
  8
0
  5
5E31
 10
44.9469
 20
75.0156
 30
0.000000
  70
    32
  0
VERTEX
  8
0
  5
5E32
 10
44.9463
 20
75.0175
 30
0.000000
  70
    32
  0
VERTEX
  8
0
  5
5E33
 10
44.9457
 20
75.0191
 30
0.000000
  70
    32
  0
VERTEX
  8
0
  5
5E34
 10
44.9451
 20
75.0202
 30
0.000000
  70
    32
  0
VERTEX
  8
0
  5
5E35
 10
44.9444
 20
75.0208
 30
0.000000
  70
    32
  0
VERTEX
  8
0
  5
5E36
 10
44.9438
 20
75.0210
 30
0.000000
  70
    32
  0
SEQEND
  8
0
  5
5E37
  0
ENDSEC
  0
EOF
