  0
SECTION
  2
HEADER
  9
$ACADVER
  1
AC1009
  9
$INSBASE
 10
0.0
 20
0.0
 30
0.0
  9
$EXTMIN
 10
0.0
 20
-1.4802182810368341
 30
0.0
  9
$EXTMAX
 10
135.0
 20
151.5
 30
0.0
  9
$LIMMIN
 10
0.0
 20
0.0
  9
$LIMMAX
 10
192.5
 20
135.0
  9
$ORTHOMODE
 70
     1
  9
$REGENMODE
 70
     1
  9
$FILLMODE
 70
     1
  9
$QTEXTMODE
 70
     0
  9
$MIRRTEXT
 70
     0
  9
$DRAGMODE
 70
     2
  9
$LTSCALE
 40
5.0
  9
$OSMODE
 70
    37
  9
$ATTMODE
 70
     1
  9
$TEXTSIZE
 40
1.6000000000000489
  9
$TRACEWID
 40
0.05
  9
$TEXTSTYLE
  7
STANDARD
  9
$CLAYER
  8
0
  9
$CELTYPE
  6
BYLAYER
  9
$CECOLOR
 62
   256
  9
$DIMSCALE
 40
1.0
  9
$DIMASZ
 40
3.0
  9
$DIMEXO
 40
2.0
  9
$DIMDLI
 40
0.38
  9
$DIMRND
 40
0.0
  9
$DIMDLE
 40
0.0
  9
$DIMEXE
 40
2.0
  9
$DIMTP
 40
0.0
  9
$DIMTM
 40
0.0
  9
$DIMTXT
 40
3.0
  9
$DIMCEN
 40
0.0
  9
$DIMTSZ
 40
0.0
  9
$DIMTOL
 70
     0
  9
$DIMLIM
 70
     0
  9
$DIMTIH
 70
     0
  9
$DIMTOH
 70
     0
  9
$DIMSE1
 70
     0
  9
$DIMSE2
 70
     0
  9
$DIMTAD
 70
     1
  9
$DIMZIN
 70
     9
  9
$DIMBLK
  1

  9
$DIMASO
 70
     0
  9
$DIMSHO
 70
     0
  9
$DIMPOST
  1

  9
$DIMAPOST
  1

  9
$DIMALT
 70
     0
  9
$DIMALTD
 70
     2
  9
$DIMALTF
 40
25.399999999999999
  9
$DIMLFAC
 40
1.0
  9
$DIMTOFL
 70
     1
  9
$DIMTVP
 40
1.6000000000000001
  9
$DIMTIX
 70
     1
  9
$DIMSOXD
 70
     0
  9
$DIMSAH
 70
     0
  9
$DIMBLK1
  1

  9
$DIMBLK2
  1

  9
$DIMSTYLE
  2
STANDARD
  9
$DIMCLRD
 70
     0
  9
$DIMCLRE
 70
     0
  9
$DIMCLRT
 70
     0
  9
$DIMTFAC
 40
1.0
  9
$DIMGAP
 40
0.09
  9
$LUNITS
 70
     2
  9
$LUPREC
 70
     1
  9
$SKETCHINC
 40
0.1
  9
$FILLETRAD
 40
0.3
  9
$AUNITS
 70
     0
  9
$AUPREC
 70
     1
  9
$MENU
  1
E:\r13\win\SUPPORT\ACAD
  9
$ELEVATION
 40
0.0
  9
$PELEVATION
 40
0.0
  9
$THICKNESS
 40
0.0
  9
$LIMCHECK
 70
     0
  9
$BLIPMODE
 70
     0
  9
$CHAMFERA
 40
0.0
  9
$CHAMFERB
 40
0.0
  9
$SKPOLY
 70
     0
  9
$TDCREATE
 40
2448328.489641204
  9
$TDUPDATE
 40
2459200.3880060301
  9
$TDINDWG
 40
1.1365710532
  9
$TDUSRTIMER
 40
2456598.9408375118
  9
$USRTIMER
 70
     1
  9
$ANGBASE
 50
0.0
  9
$ANGDIR
 70
     0
  9
$PDMODE
 70
    35
  9
$PDSIZE
 40
0.0
  9
$PLINEWID
 40
0.0
  9
$COORDS
 70
     1
  9
$SPLFRAME
 70
     0
  9
$SPLINETYPE
 70
     6
  9
$SPLINESEGS
 70
     8
  9
$ATTDIA
 70
     0
  9
$ATTREQ
 70
     1
  9
$HANDLING
 70
     1
  9
$HANDSEED
  5
5C76
  9
$SURFTAB1
 70
     6
  9
$SURFTAB2
 70
     6
  9
$SURFTYPE
 70
     6
  9
$SURFU
 70
     6
  9
$SURFV
 70
     6
  9
$UCSNAME
  2

  9
$UCSORG
 10
0.0
 20
0.0
 30
0.0
  9
$UCSXDIR
 10
1.0
 20
0.0
 30
0.0
  9
$UCSYDIR
 10
0.0
 20
1.0
 30
0.0
  9
$PUCSNAME
  2

  9
$PUCSORG
 10
0.0
 20
0.0
 30
0.0
  9
$PUCSXDIR
 10
1.0
 20
0.0
 30
0.0
  9
$PUCSYDIR
 10
0.0
 20
1.0
 30
0.0
  9
$USERI1
 70
     3
  9
$USERI2
 70
     1
  9
$USERI3
 70
     1
  9
$USERI4
 70
     0
  9
$USERI5
 70
     0
  9
$USERR1
 40
0.5
  9
$USERR2
 40
3.0
  9
$USERR3
 40
3.0
  9
$USERR4
 40
3.0
  9
$USERR5
 40
10.0
  9
$WORLDVIEW
 70
     1
  9
$SHADEDGE
 70
     3
  9
$SHADEDIF
 70
    70
  9
$TILEMODE
 70
     1
  9
$MAXACTVP
 70
    16
  9
$PLIMCHECK
 70
     0
  9
$PEXTMIN
 10
1.0000000000000000E+020
 20
1.0000000000000000E+020
 30
1.0000000000000000E+020
  9
$PEXTMAX
 10
-1.0000000000000000E+020
 20
-1.0000000000000000E+020
 30
-1.0000000000000000E+020
  9
$PLIMMIN
 10
0.0
 20
0.0
  9
$PLIMMAX
 10
12.0
 20
9.0
  9
$UNITMODE
 70
     0
  9
$VISRETAIN
 70
     0
  9
$PLINEGEN
 70
     1
  9
$PSLTSCALE
 70
     0
  0
ENDSEC
  0
SECTION
  2
TABLES
  0
TABLE
  2
VPORT
 70
     1
  0
VPORT
  2
*ACTIVE
 70
     0
 10
0.0
 20
0.0
 11
1.0
 21
1.0
 12
104.6002746656891
 22
75.010321371491685
 13
0.0
 23
0.0
 14
2.5
 24
2.5
 15
5.0
 25
5.0
 16
0.0
 26
0.0
 36
1.0
 17
0.0
 27
0.0
 37
0.0
 40
154.31137778914669
 41
2.415644171779141
 42
50.0
 43
0.0
 44
0.0
 50
0.0
 51
0.0
 71
     0
 72
   500
 73
     1
 74
     0
 75
     0
 76
     0
 77
     0
 78
     2
  0
ENDTAB
  0
TABLE
  2
LTYPE
 70
     4
  0
LTYPE
  2
CONTINUOUS
 70
     0
  3
Solid Line
 72
    65
 73
     0
 40
0.0
  0
LTYPE
  2
CENTER
 70
     0
  3
____ _ ____ _ ____ _ ____ _ ____ _ ____ _ ____
 72
    65
 73
     4
 40
2.0
 49
1.25
 49
-0.25
 49
0.25
 49
-0.25
  0
LTYPE
  2
HIDDEN
 70
     0
  3
_ _ _ _ _ _ _ _ _ _ _ _ _ _ _ _ _ _ _ _ _ _ _
 72
    65
 73
     2
 40
0.375
 49
0.25
 49
-0.125
  0
LTYPE
  2
PHANTOM2
 70
     0
  3
___ _ _ ___ _ _ ___ _ _ ___ _ _
 72
    65
 73
     6
 40
1.25
 49
0.625
 49
-0.125
 49
0.125
 49
-0.125
 49
0.125
 49
-0.125
  0
ENDTAB
  0
TABLE
  2
LAYER
 70
     5
  0
LAYER
  2
0
 70
     0
 62
     7
  6
CONTINUOUS
  0
LAYER
  2
1
 70
     0
 62
     1
  6
CENTER
  0
LAYER
  2
2
 70
     0
 62
     2
  6
HIDDEN
  0
LAYER
  2
DEFPOINTS
 70
     0
 62
     7
  6
CONTINUOUS
  0
LAYER
  2
3
 70
     0
 62
     3
  6
CONTINUOUS
  0
ENDTAB
  0
TABLE
  2
STYLE
 70
     2
  0
STYLE
  2
STANDARD
 70
     0
 40
0.0
 41
1.0
 50
0.0
 71
     0
 42
1.6000000000000489
  3
SIMPLEX
  4
BIGFONT
  0
STYLE
  2
STANDARD1
 70
     0
 40
0.0
 41
1.0
 50
0.0
 71
     0
 42
3.0
  3
txt
  4

  0
ENDTAB
  0
TABLE
  2
VIEW
 70
     1
  0
VIEW
  2
ALL
 70
     0
 40
87.5
 10
71.617647058823522
 20
43.75
 41
0.0
 11
0.0
 21
0.0
 31
1.0
 12
0.0
 22
0.0
 32
0.0
 42
50.0
 43
0.0
 44
0.0
 50
0.0
 71
     0
  0
ENDTAB
  0
TABLE
  2
UCS
 70
     0
  0
ENDTAB
  0
TABLE
  2
APPID
 70
     7
  0
APPID
  2
ACAD
 70
     0
  0
APPID
  2
ACAD_EXEMPT_FROM_CAD_STANDARDS
 70
     0
  0
APPID
  2
ACAD_DSTYLE_DIMJAG
 70
     0
  0
APPID
  2
ACAD_DSTYLE_DIMTALN
 70
     0
  0
APPID
  2
ACAD_MLEADERVER
 70
     0
  0
APPID
  2
ACAD_NAV_VCDISPLAY
 70
     0
  0
APPID
  2
ACAD_DSTYLE_DIMRADIAL_EXTENSION
 70
     0
  0
ENDTAB
  0
TABLE
  2
DIMSTYLE
 70
     2
  0
DIMSTYLE
  2
STANDARD
 70
     0
  3

  4

  5

  6

  7

 40
1.0
 41
0.18
 42
0.0625
 43
0.38
 44
0.18
 45
0.0
 46
0.0
 47
0.0
 48
0.0
140
0.18
141
0.09
142
0.0
143
25.399999999999999
144
1.0
145
0.0
146
1.0
147
0.09
 71
     0
 72
     0
 73
     1
 74
     1
 75
     0
 76
     0
 77
     0
 78
     0
170
     0
171
     2
172
     0
173
     0
174
     0
175
     0
176
     0
177
     0
178
     0
  0
DIMSTYLE
  2
ISO-25
 70
     0
  3

  4

  5

  6

  7

 40
1.0
 41
2.5
 42
0.625
 43
3.75
 44
1.25
 45
0.0
 46
0.0
 47
0.0
 48
0.0
140
2.5
141
2.5
142
0.0
143
0.03937007874016
144
1.0
145
0.0
146
1.0
147
0.625
 71
     0
 72
     0
 73
     0
 74
     0
 75
     0
 76
     0
 77
     1
 78
     8
170
     0
171
     3
172
     1
173
     0
174
     0
175
     0
176
     0
177
     0
178
     0
  0
ENDTAB
  0
ENDSEC
  0
SECTION
  2
BLOCKS
  0
BLOCK
  8
0
  2
$MODEL_SPACE
 70
     0
 10
0.0
 20
0.0
 30
0.0
  3
$MODEL_SPACE
  1

  0
ENDBLK
  5
BAB
  8
0
  0
BLOCK
 67
     1
  8
0
  2
$PAPER_SPACE
 70
     0
 10
0.0
 20
0.0
 30
0.0
  3
$PAPER_SPACE
  1

  0
ENDBLK
  5
BA9
 67
     1
  8
0
  0
ENDSEC
  0
SECTION
  2
ENTITIES
  0
TEXT
  5
2813
  8
0
 62
     3
 10
0.0
 20
0.0
 30
0.0
 40
5.0
  1
RLES3346ITT-SUS
  7
STANDARD1
  0
LINE
  5
5851
  8
2
 10
113.1928203230275
 20
118.2
 30
0.0
 11
116.0
 21
118.2
 31
0.0
  0
LINE
  5
5852
  8
2
 10
116.0
 20
145.80000000000001
 30
0.0
 11
113.1928203230275
 21
145.80000000000001
 31
0.0
  0
LINE
  5
5853
  8
2
 10
116.0
 20
146.63077978398701
 30
0.0
 11
112.7020725942164
 21
146.63077978398701
 31
0.0
  0
LINE
  5
5854
  8
2
 10
116.0
 20
145.7986813892054
 30
0.0
 11
113.19282032301371
 21
145.7986813892054
 31
0.0
  0
LINE
  5
5855
  8
2
 10
116.0
 20
117.36922021601291
 30
0.0
 11
112.7020725942276
 21
117.36922021601291
 31
0.0
  0
LINE
  5
5856
  8
2
 10
116.0
 20
118.2013186107945
 30
0.0
 11
113.1928203230275
 21
118.2013186107945
 31
0.0
  0
LINE
  5
5857
  8
2
 10
116.0
 20
117.40334142269521
 30
0.0
 11
112.7020725942163
 21
117.40334142269521
 31
0.0
  0
LINE
  5
5858
  8
2
 10
116.0
 20
146.59665857730471
 30
0.0
 11
112.70207259421279
 21
146.59665857730471
 31
0.0
  0
LINE
  5
5859
  8
2
 10
116.0
 20
118.30386421680559
 30
0.0
 11
113.19282032299679
 21
118.30386421680559
 31
0.0
  0
LINE
  5
585A
  8
2
 10
116.0
 20
145.69613578319439
 30
0.0
 11
113.1928203230275
 21
145.69613578319439
 31
0.0
  0
LINE
  5
585B
  8
2
 10
125.5
 20
138.5
 30
0.0
 11
132.0
 21
138.5
 31
0.0
  0
LINE
  5
585C
  8
2
 10
132.0
 20
143.5
 30
0.0
 11
125.5
 21
143.5
 31
0.0
  0
LINE
  5
585D
  8
2
 10
125.5
 20
120.5
 30
0.0
 11
132.0
 21
120.5
 31
0.0
  0
LINE
  5
585E
  8
2
 10
132.0
 20
125.5
 30
0.0
 11
125.5
 21
125.5
 31
0.0
  0
LINE
  5
585F
  8
2
 10
116.0
 20
146.39235724579211
 30
0.0
 11
112.7020725942163
 21
146.39235724579211
 31
0.0
  0
LINE
  5
5860
  8
2
 10
116.0
 20
145.6441836690434
 30
0.0
 11
113.19282032296999
 21
145.6441836690434
 31
0.0
  0
LINE
  5
5861
  8
2
 10
116.0
 20
117.6076427542078
 30
0.0
 11
112.70207259422909
 21
117.6076427542078
 31
0.0
  0
LINE
  5
5862
  8
2
 10
116.0
 20
118.3558163309565
 30
0.0
 11
113.1928203230275
 21
118.3558163309565
 31
0.0
  0
LINE
  5
5863
  8
2
 10
116.0
 20
117.7093707607341
 30
0.0
 11
112.7020725942163
 21
117.7093707607341
 31
0.0
  0
LINE
  5
5864
  8
2
 10
116.0
 20
146.2906292392658
 30
0.0
 11
112.7020725942436
 21
146.2906292392658
 31
0.0
  0
LINE
  5
5865
  8
2
 10
116.0
 20
118.6615429183734
 30
0.0
 11
113.19282032298619
 21
118.6615429183734
 31
0.0
  0
LINE
  5
5866
  8
2
 10
116.0
 20
145.3384570816265
 30
0.0
 11
113.1928203230275
 21
145.3384570816265
 31
0.0
  0
LINE
  5
5867
  8
2
 10
116.0
 20
145.88583232349379
 30
0.0
 11
112.7020725942163
 21
145.88583232349379
 31
0.0
  0
LINE
  5
5868
  8
2
 10
116.0
 20
145.23552062291401
 30
0.0
 11
113.1928203230829
 21
145.23552062291401
 31
0.0
  0
LINE
  5
5869
  8
2
 10
116.0
 20
118.1141676765061
 30
0.0
 11
112.7020725942033
 21
118.1141676765061
 31
0.0
  0
LINE
  5
586A
  8
2
 10
116.0
 20
118.764479377086
 30
0.0
 11
113.1928203230275
 21
118.764479377086
 31
0.0
  0
LINE
  5
586B
  8
2
 10
116.0
 20
118.2816074825916
 30
0.0
 11
112.7020725942163
 21
118.2816074825916
 31
0.0
  0
LINE
  5
586C
  8
2
 10
116.0
 20
145.71839251740829
 30
0.0
 11
112.7020725941789
 21
145.71839251740829
 31
0.0
  0
LINE
  5
586D
  8
2
 10
116.0
 20
118.8820944540219
 30
0.0
 11
113.002294734195
 21
118.8820944540219
 31
0.0
  0
LINE
  5
586E
  8
2
 10
112.8075102284201
 20
118.8178016377843
 30
0.0
 11
116.0
 21
118.8178016377843
 31
0.0
  0
POLYLINE
  5
586F
  8
2
 66
     1
 10
0.0
 20
0.0
 30
0.0
  0
VERTEX
  5
5BCE
  8
2
 10
112.8064629567985
 20
118.81780164376799
 30
0.0
  0
VERTEX
  5
5BCF
  8
2
 10
112.8559334831406
 20
118.82279192863859
 30
0.0
  0
VERTEX
  5
5BD0
  8
2
 10
112.92599499767449
 20
118.844135853501
 30
0.0
  0
VERTEX
  5
5BD1
  8
2
 10
113.002294734195
 20
118.8820944540219
 30
0.0
  0
SEQEND
  5
5BD2
  8
2
  0
LINE
  5
5870
  8
2
 10
116.0
 20
145.11790554597809
 30
0.0
 11
113.0022947341949
 21
145.11790554597809
 31
0.0
  0
LINE
  5
5871
  8
2
 10
116.0
 20
145.1821983622157
 30
0.0
 11
112.8074825862422
 21
145.1821983622157
 31
0.0
  0
POLYLINE
  5
5872
  8
2
 66
     1
 10
0.0
 20
0.0
 30
0.0
  0
VERTEX
  5
5BD3
  8
2
 10
112.80647894969781
 20
145.18219835199329
 30
0.0
  0
VERTEX
  5
5BD4
  8
2
 10
112.7540256105099
 20
145.1754917720003
 30
0.0
  0
VERTEX
  5
5BD5
  8
2
 10
112.6890775469205
 20
145.143343395025
 30
0.0
  0
VERTEX
  5
5BD6
  8
2
 10
112.6359889330254
 20
145.08618918007599
 30
0.0
  0
VERTEX
  5
5BD7
  8
2
 10
112.5932443452898
 20
145.0036510916465
 30
0.0
  0
VERTEX
  5
5BD8
  8
2
 10
112.5603437047063
 20
144.8921162769895
 30
0.0
  0
VERTEX
  5
5BD9
  8
2
 10
112.539007435145
 20
144.75452153695329
 30
0.0
  0
VERTEX
  5
5BDA
  8
2
 10
112.5288675134595
 20
144.5364259153539
 30
0.0
  0
SEQEND
  5
5BDB
  8
2
  0
LINE
  5
5874
  8
2
 10
132.0
 20
134.5
 30
0.0
 11
125.5
 21
134.49999999999989
 31
0.0
  0
LINE
  5
587B
  8
2
 10
116.0
 20
136.44114510157681
 30
0.0
 11
113.19282032306749
 21
136.44114510157681
 31
0.0
  0
LINE
  5
587C
  8
2
 10
116.0
 20
136.8006490425993
 30
0.0
 11
113.1928203230275
 21
136.8006490425993
 31
0.0
  0
LINE
  5
587D
  8
2
 10
116.0
 20
127.55885489842311
 30
0.0
 11
113.1928203230275
 21
127.55885489842311
 31
0.0
  0
LINE
  5
587E
  8
2
 10
116.0
 20
127.1993509574006
 30
0.0
 11
113.1928203230169
 21
127.1993509574006
 31
0.0
  0
LINE
  5
587F
  8
2
 10
116.0
 20
138.08360784039269
 30
0.0
 11
112.7829016319029
 21
138.08360784039269
 31
0.0
  0
LINE
  5
5880
  8
2
 10
116.0
 20
125.9163921596073
 30
0.0
 11
112.7829016319029
 21
125.9163921596073
 31
0.0
  0
LINE
  5
5881
  8
2
 10
116.0
 20
138.0650288980689
 30
0.0
 11
112.7020725942163
 21
138.0650288980689
 31
0.0
  0
LINE
  5
5882
  8
2
 10
116.0
 20
125.9349711019311
 30
0.0
 11
112.7020725942355
 21
125.9349711019311
 31
0.0
  0
LINE
  5
5883
  8
2
 10
116.0
 20
137.60642324731609
 30
0.0
 11
112.7020725941945
 21
137.60642324731609
 31
0.0
  0
LINE
  5
5884
  8
2
 10
116.0
 20
126.3935767526839
 30
0.0
 11
112.7020725942163
 21
126.3935767526839
 31
0.0
  0
LINE
  5
5885
  8
2
 10
116.0
 20
134.6206480979543
 30
0.0
 11
113.19282032299481
 21
134.6206480979543
 31
0.0
  0
LINE
  5
5886
  8
2
 10
116.0
 20
134.99420130370831
 30
0.0
 11
113.1928203230275
 21
134.99420130370831
 31
0.0
  0
LINE
  5
5887
  8
2
 10
116.0
 20
129.3793519020457
 30
0.0
 11
113.1928203230275
 21
129.3793519020457
 31
0.0
  0
LINE
  5
5888
  8
2
 10
116.0
 20
129.00579869629161
 30
0.0
 11
113.19282032303541
 21
129.00579869629161
 31
0.0
  0
LINE
  5
5889
  8
2
 10
117.5
 20
118.40000000000001
 30
0.0
 11
125.5
 21
118.40000000000001
 31
0.0
  0
LINE
  5
588A
  8
2
 10
125.5
 20
145.59999999999991
 30
0.0
 11
117.5
 21
145.59999999999991
 31
0.0
  0
LINE
  5
588B
  8
2
 10
125.5
 20
145.59999999999991
 30
0.0
 11
125.5
 21
118.40000000000001
 31
0.0
  0
LINE
  5
588C
  8
2
 10
116.0
 20
131.2486666212765
 30
0.0
 11
113.1928203230275
 21
131.2486666212765
 31
0.0
  0
LINE
  5
588D
  8
2
 10
116.0
 20
130.8680227402244
 30
0.0
 11
113.19282032300811
 21
130.8680227402244
 31
0.0
  0
LINE
  5
588E
  8
2
 10
116.0
 20
132.75133337872339
 30
0.0
 11
113.1928203230157
 21
132.75133337872339
 31
0.0
  0
LINE
  5
588F
  8
2
 10
116.0
 20
133.1319772597756
 30
0.0
 11
113.1928203230275
 21
133.1319772597756
 31
0.0
  0
LINE
  5
5890
  8
2
 10
116.0
 20
136.19267647232519
 30
0.0
 11
112.7020725942163
 21
136.19267647232519
 31
0.0
  0
LINE
  5
5891
  8
2
 10
116.0
 20
127.8073235276747
 30
0.0
 11
112.7020725941836
 21
127.8073235276747
 31
0.0
  0
LINE
  5
5892
  8
2
 10
116.0
 20
128.2887821713486
 30
0.0
 11
112.7020725942163
 21
128.2887821713486
 31
0.0
  0
LINE
  5
5893
  8
2
 10
116.0
 20
135.71121782865129
 30
0.0
 11
112.7020725942351
 21
135.71121782865129
 31
0.0
  0
LINE
  5
5894
  8
2
 10
116.0
 20
134.24222241675079
 30
0.0
 11
112.7020725942163
 21
134.24222241675079
 31
0.0
  0
LINE
  5
5895
  8
2
 10
116.0
 20
129.75777758324921
 30
0.0
 11
112.702072594184
 21
129.75777758324921
 31
0.0
  0
LINE
  5
5896
  8
2
 10
116.0
 20
133.74687944373261
 30
0.0
 11
112.7020725941845
 21
133.74687944373261
 31
0.0
  0
LINE
  5
5897
  8
2
 10
116.0
 20
130.25312055626731
 30
0.0
 11
112.7020725942163
 21
130.25312055626731
 31
0.0
  0
LINE
  5
5898
  8
2
 10
116.0
 20
132.25
 30
0.0
 11
112.7020725942163
 21
132.25
 31
0.0
  0
LINE
  5
5899
  8
2
 10
116.0
 20
131.74999999999989
 30
0.0
 11
112.7020725942143
 21
131.74999999999989
 31
0.0
  0
LINE
  5
589A
  8
2
 10
116.0
 20
140.1611717460562
 30
0.0
 11
116.0
 21
123.8388285697911
 31
0.0
  0
LINE
  5
589B
  8
2
 10
116.0
 20
119.4635739255593
 30
0.0
 11
116.0
 21
117.05
 31
0.0
  0
LINE
  5
589C
  8
2
 10
116.0
 20
119.4635739255593
 30
0.0
 11
112.5288675134595
 21
119.4635739255593
 31
0.0
  0
LINE
  5
589D
  8
2
 10
116.0
 20
123.8388285697911
 30
0.0
 11
112.5288675134595
 21
123.8388285697911
 31
0.0
  0
LINE
  5
589E
  8
2
 10
116.0
 20
140.1611717460562
 30
0.0
 11
112.5288675134595
 21
140.1611717460562
 31
0.0
  0
LINE
  5
589F
  8
2
 10
116.0
 20
144.5364259153539
 30
0.0
 11
112.5288675134595
 21
144.5364259153539
 31
0.0
  0
LINE
  5
58A0
  8
2
 10
116.0
 20
117.05
 30
0.0
 11
117.5
 21
117.05
 31
0.0
  0
LINE
  5
58A1
  8
2
 10
117.5
 20
146.94999999999999
 30
0.0
 11
116.0
 21
146.94999999999999
 31
0.0
  0
LINE
  5
58A2
  8
2
 10
116.0
 20
146.94999999999999
 30
0.0
 11
116.0
 21
144.5364259153539
 31
0.0
  0
LINE
  5
58A3
  8
2
 10
117.5
 20
146.94999999999999
 30
0.0
 11
117.5
 21
117.05
 31
0.0
  0
LINE
  5
58A4
  8
2
 10
113.192820322999
 20
118.764479377086
 30
0.0
 11
112.7020725942163
 21
118.1141676765061
 31
0.0
  0
POLYLINE
  5
58A5
  8
2
 66
     1
 10
0.0
 20
0.0
 30
0.0
  0
VERTEX
  5
5BDC
  8
2
 10
112.8423475377831
 20
118.8204857354778
 30
0.0
  0
VERTEX
  5
5BDD
  8
2
 10
112.8290743552887
 20
118.8188922293416
 30
0.0
  0
VERTEX
  5
5BDE
  8
2
 10
112.80647894969781
 20
118.81780164800669
 30
0.0
  0
SEQEND
  5
5BDF
  8
2
  0
LINE
  5
58A6
  8
2
 10
112.5288675134595
 20
123.83882797144121
 30
0.0
 11
112.5331031741415
 21
124.0812909940895
 31
0.0
  0
LINE
  5
58A7
  8
2
 10
112.7829016319029
 20
125.9163921596073
 30
0.0
 11
112.7020725942164
 21
125.9349711019311
 31
0.0
  0
LINE
  5
58A8
  8
2
 10
112.7020725941897
 20
126.3935767526839
 30
0.0
 11
113.1928203230275
 21
127.1993509574006
 31
0.0
  0
LINE
  5
58A9
  8
2
 10
113.1928203230038
 20
129.3793519020457
 30
0.0
 11
112.7020725942163
 21
129.75777758324921
 31
0.0
  0
LINE
  5
58AA
  8
2
 10
113.1928203229925
 20
131.2486666212765
 30
0.0
 11
112.7020725942163
 21
131.74999999999989
 31
0.0
  0
LINE
  5
58AB
  8
2
 10
113.19282032299439
 20
133.1319772597756
 30
0.0
 11
112.7020725942163
 21
133.74687944373261
 31
0.0
  0
LINE
  5
58AC
  8
2
 10
112.7020725941434
 20
134.24222241675079
 30
0.0
 11
113.1928203230275
 21
134.6206480979543
 31
0.0
  0
LINE
  5
58AD
  8
2
 10
112.702072594204
 20
138.0650288980689
 30
0.0
 11
112.7826531077561
 21
138.08355061543139
 31
0.0
  0
POLYLINE
  5
58AE
  8
2
 66
     1
 10
0.0
 20
0.0
 30
0.0
  0
VERTEX
  5
5BE0
  8
2
 10
112.5288675134595
 20
144.53642607444061
 30
0.0
  0
VERTEX
  5
5BE1
  8
2
 10
112.53402242122741
 20
144.69603570229111
 30
0.0
  0
VERTEX
  5
5BE2
  8
2
 10
112.5369371174523
 20
144.73299738861661
 30
0.0
  0
SEQEND
  5
5BE3
  8
2
  0
LINE
  5
58AF
  8
2
 10
113.002294734195
 20
145.11790554597809
 30
0.0
 11
112.7020725942164
 21
145.71839251740829
 31
0.0
  0
LINE
  5
58B0
  8
2
 10
112.7020725942416
 20
146.39235724579211
 30
0.0
 11
113.1928203230275
 21
145.6441836690434
 31
0.0
  0
LINE
  5
58B1
  8
2
 10
113.19282032301351
 20
145.69613578319439
 30
0.0
 11
112.7020725942163
 21
146.59665857730471
 31
0.0
  0
LINE
  5
58B2
  8
2
 10
113.19282032301371
 20
145.7986813892054
 30
0.0
 11
112.7020725942164
 21
146.63077978398701
 31
0.0
  0
LINE
  5
58B3
  8
2
 10
112.7020725942164
 20
146.63077978398701
 30
0.0
 11
112.70207259421279
 21
146.59665857730471
 31
0.0
  0
LINE
  5
58B4
  8
2
 10
113.1928203230275
 20
145.69613578319439
 30
0.0
 11
113.19282032296999
 21
145.6441836690434
 31
0.0
  0
LINE
  5
58B5
  8
2
 10
112.7020725942163
 20
146.39235724579211
 30
0.0
 11
112.7020725942436
 21
146.2906292392658
 31
0.0
  0
LINE
  5
58B6
  8
2
 10
112.7020725942436
 20
146.2906292392658
 30
0.0
 11
113.1928203230275
 21
145.3384570816265
 31
0.0
  0
LINE
  5
58B7
  8
2
 10
113.1928203230275
 20
145.3384570816265
 30
0.0
 11
113.1928203230829
 21
145.23552062291401
 31
0.0
  0
LINE
  5
58B8
  8
2
 10
113.1928203230829
 20
145.23552062291401
 30
0.0
 11
112.7020725942163
 21
145.88583232349379
 31
0.0
  0
LINE
  5
58B9
  8
2
 10
112.7020725942163
 20
145.88583232349379
 30
0.0
 11
112.7020725941789
 21
145.71839251740829
 31
0.0
  0
POLYLINE
  5
58BA
  8
2
 66
     1
 10
0.0
 20
0.0
 30
0.0
  0
VERTEX
  5
5BE4
  8
2
 10
113.0022947341949
 20
145.11790554597809
 30
0.0
  0
VERTEX
  5
5BE5
  8
2
 10
112.9113644644098
 20
145.1614928992804
 30
0.0
  0
VERTEX
  5
5BE6
  8
2
 10
112.8290743552887
 20
145.18110777065829
 30
0.0
  0
VERTEX
  5
5BE7
  8
2
 10
112.80647894969781
 20
145.18219835199329
 30
0.0
  0
SEQEND
  5
5BE8
  8
2
  0
LINE
  5
58BB
  8
2
 10
112.5288675134595
 20
144.5364259153539
 30
0.0
 11
112.5288675134595
 21
140.1611717460562
 31
0.0
  0
POLYLINE
  5
58BC
  8
2
 66
     1
 10
0.0
 20
0.0
 30
0.0
  0
VERTEX
  5
5BE9
  8
2
 10
112.5288675134595
 20
140.1611717460562
 30
0.0
  0
VERTEX
  5
5BEA
  8
2
 10
112.53404172321071
 20
139.89282692566729
 30
0.0
  0
VERTEX
  5
5BEB
  8
2
 10
112.5494926628826
 20
139.6131209720908
 30
0.0
  0
VERTEX
  5
5BEC
  8
2
 10
112.5760776493254
 20
139.31526778311931
 30
0.0
  0
VERTEX
  5
5BED
  8
2
 10
112.6132653713439
 20
139.0098392288908
 30
0.0
  0
VERTEX
  5
5BEE
  8
2
 10
112.6866082546963
 20
138.55234067742759
 30
0.0
  0
VERTEX
  5
5BEF
  8
2
 10
112.7829016319029
 20
138.08360784039269
 30
0.0
  0
SEQEND
  5
5BF0
  8
2
  0
LINE
  5
58BD
  8
2
 10
112.7020725942163
 20
138.0650288980689
 30
0.0
 11
112.7020725941945
 21
137.60642324731609
 31
0.0
  0
LINE
  5
58BE
  8
2
 10
112.7020725941945
 20
137.60642324731609
 30
0.0
 11
113.1928203230275
 21
136.8006490425993
 31
0.0
  0
LINE
  5
58BF
  8
2
 10
113.1928203230275
 20
136.8006490425993
 30
0.0
 11
113.19282032306749
 21
136.44114510157681
 31
0.0
  0
LINE
  5
58C0
  8
2
 10
113.19282032306749
 20
136.44114510157681
 30
0.0
 11
112.7020725942163
 21
136.19267647232519
 31
0.0
  0
LINE
  5
58C1
  8
2
 10
112.7020725942163
 20
136.19267647232519
 30
0.0
 11
112.7020725942351
 21
135.71121782865129
 31
0.0
  0
LINE
  5
58C2
  8
2
 10
112.7020725942351
 20
135.71121782865129
 30
0.0
 11
113.1928203230275
 21
134.99420130370831
 31
0.0
  0
LINE
  5
58C3
  8
2
 10
113.1928203230275
 20
134.99420130370831
 30
0.0
 11
113.19282032299481
 21
134.6206480979543
 31
0.0
  0
LINE
  5
58C4
  8
2
 10
112.7020725942163
 20
134.24222241675079
 30
0.0
 11
112.7020725941845
 21
133.74687944373261
 31
0.0
  0
LINE
  5
58C5
  8
2
 10
113.1928203230275
 20
133.1319772597756
 30
0.0
 11
113.1928203230157
 21
132.75133337872339
 31
0.0
  0
LINE
  5
58C6
  8
2
 10
113.1928203230157
 20
132.75133337872339
 30
0.0
 11
112.7020725942163
 21
132.25
 31
0.0
  0
LINE
  5
58C7
  8
2
 10
112.7020725942163
 20
132.25
 30
0.0
 11
112.7020725942143
 21
131.74999999999989
 31
0.0
  0
LINE
  5
58C8
  8
2
 10
113.1928203230275
 20
131.2486666212765
 30
0.0
 11
113.19282032300811
 21
130.8680227402244
 31
0.0
  0
LINE
  5
58C9
  8
2
 10
113.19282032300811
 20
130.8680227402244
 30
0.0
 11
112.7020725942163
 21
130.25312055626731
 31
0.0
  0
LINE
  5
58CA
  8
2
 10
112.7020725942163
 20
130.25312055626731
 30
0.0
 11
112.702072594184
 21
129.75777758324921
 31
0.0
  0
LINE
  5
58CB
  8
2
 10
113.1928203230275
 20
129.3793519020457
 30
0.0
 11
113.19282032303541
 21
129.00579869629161
 31
0.0
  0
LINE
  5
58CC
  8
2
 10
113.19282032303541
 20
129.00579869629161
 30
0.0
 11
112.7020725942163
 21
128.2887821713486
 31
0.0
  0
LINE
  5
58CD
  8
2
 10
112.7020725942163
 20
128.2887821713486
 30
0.0
 11
112.7020725941836
 21
127.8073235276747
 31
0.0
  0
LINE
  5
58CE
  8
2
 10
112.7020725941836
 20
127.8073235276747
 30
0.0
 11
113.1928203230275
 21
127.55885489842311
 31
0.0
  0
LINE
  5
58CF
  8
2
 10
113.1928203230275
 20
127.55885489842311
 30
0.0
 11
113.1928203230169
 21
127.1993509574006
 31
0.0
  0
LINE
  5
58D0
  8
2
 10
112.7020725942163
 20
126.3935767526839
 30
0.0
 11
112.7020725942355
 21
125.9349711019311
 31
0.0
  0
POLYLINE
  5
58D1
  8
2
 66
     1
 10
0.0
 20
0.0
 30
0.0
  0
VERTEX
  5
5BF1
  8
2
 10
112.7829016319029
 20
125.9163921596073
 30
0.0
  0
VERTEX
  5
5BF2
  8
2
 10
112.71772142098921
 20
125.6108212990014
 30
0.0
  0
VERTEX
  5
5BF3
  8
2
 10
112.6616788817509
 20
125.3058927058392
 30
0.0
  0
VERTEX
  5
5BF4
  8
2
 10
112.6139754826193
 20
124.9952519364455
 30
0.0
  0
VERTEX
  5
5BF5
  8
2
 10
112.5766069086342
 20
124.68981008134629
 30
0.0
  0
VERTEX
  5
5BF6
  8
2
 10
112.5410496335648
 20
124.2559007951035
 30
0.0
  0
VERTEX
  5
5BF7
  8
2
 10
112.5319193102783
 20
124.0438726744605
 30
0.0
  0
VERTEX
  5
5BF8
  8
2
 10
112.5288675134595
 20
123.8388285697911
 30
0.0
  0
SEQEND
  5
5BF9
  8
2
  0
LINE
  5
58D2
  8
2
 10
112.5288675134595
 20
123.8388285697911
 30
0.0
 11
112.5288675134595
 21
119.4635739255593
 31
0.0
  0
POLYLINE
  5
58D3
  8
2
 66
     1
 10
0.0
 20
0.0
 30
0.0
  0
VERTEX
  5
5BFA
  8
2
 10
112.5288675134594
 20
119.4635739255593
 30
0.0
  0
VERTEX
  5
5BFB
  8
2
 10
112.53402242122731
 20
119.3039642977088
 30
0.0
  0
VERTEX
  5
5BFC
  8
2
 10
112.549415986
 20
119.16582101173429
 30
0.0
  0
VERTEX
  5
5BFD
  8
2
 10
112.57589901420501
 20
119.0470080070305
 30
0.0
  0
VERTEX
  5
5BFE
  8
2
 10
112.6129442205724
 20
118.9525814794617
 30
0.0
  0
VERTEX
  5
5BFF
  8
2
 10
112.6588084955476
 20
118.884733901282
 30
0.0
  0
VERTEX
  5
5C00
  8
2
 10
112.7141026069653
 20
118.84041480408671
 30
0.0
  0
VERTEX
  5
5C01
  8
2
 10
112.7804187798191
 20
118.819386446175
 30
0.0
  0
VERTEX
  5
5C02
  8
2
 10
112.8064629567985
 20
118.81780164376799
 30
0.0
  0
SEQEND
  5
5C03
  8
2
  0
LINE
  5
58D4
  8
2
 10
113.002294734195
 20
118.8820944540219
 30
0.0
 11
112.7020725942163
 21
118.2816074825916
 31
0.0
  0
LINE
  5
58D5
  8
2
 10
112.7020725942163
 20
118.2816074825916
 30
0.0
 11
112.7020725942033
 21
118.1141676765061
 31
0.0
  0
LINE
  5
58D6
  8
2
 10
113.1928203230275
 20
118.764479377086
 30
0.0
 11
113.19282032298619
 21
118.6615429183734
 31
0.0
  0
LINE
  5
58D7
  8
2
 10
113.19282032298619
 20
118.6615429183734
 30
0.0
 11
112.7020725942163
 21
117.7093707607341
 31
0.0
  0
LINE
  5
58D8
  8
2
 10
112.7020725942163
 20
117.7093707607341
 30
0.0
 11
112.70207259422909
 21
117.6076427542078
 31
0.0
  0
LINE
  5
58D9
  8
2
 10
112.70207259422909
 20
117.6076427542078
 30
0.0
 11
113.1928203230275
 21
118.3558163309565
 31
0.0
  0
LINE
  5
58DA
  8
2
 10
113.1928203230275
 20
118.3558163309565
 30
0.0
 11
113.19282032299679
 21
118.30386421680559
 31
0.0
  0
LINE
  5
58DB
  8
2
 10
113.19282032299679
 20
118.30386421680559
 30
0.0
 11
112.7020725942163
 21
117.40334142269521
 31
0.0
  0
LINE
  5
58DC
  8
2
 10
112.7020725942163
 20
117.40334142269521
 30
0.0
 11
112.7020725942276
 21
117.36922021601291
 31
0.0
  0
LINE
  5
58DD
  8
2
 10
112.7020725942276
 20
117.36922021601291
 30
0.0
 11
113.1928203230275
 21
118.2013186107945
 31
0.0
  0
LINE
  5
58DE
  8
2
 10
113.1928203230275
 20
118.2013186107945
 30
0.0
 11
113.1928203230115
 21
118.19999999997231
 31
0.0
  0
LINE
  5
58DF
  8
2
 10
113.1928203230073
 20
145.80000000003511
 30
0.0
 11
112.5
 21
147.0
 31
0.0
  0
LINE
  5
58E0
  8
2
 10
112.5
 20
117.0
 30
0.0
 11
113.1928203230115
 21
118.19999999997231
 31
0.0
  0
LINE
  5
58E1
  8
2
 10
113.1928203230073
 20
145.80000000003511
 30
0.0
 11
113.19282032301371
 21
145.7986813892054
 31
0.0
  0
LINE
  5
58E2
  8
0
 10
112.5
 20
115.5
 30
0.0
 11
132.0
 21
115.5
 31
0.0
  0
LINE
  5
58E3
  8
0
 10
132.0
 20
148.5
 30
0.0
 11
112.5
 21
148.5
 31
0.0
  0
LINE
  5
58E4
  8
0
 10
132.0
 20
148.5
 30
0.0
 11
132.0
 21
115.5
 31
0.0
  0
LINE
  5
58E5
  8
0
 10
112.5
 20
148.5
 30
0.0
 11
112.5
 21
115.5
 31
0.0
  0
LINE
  5
58E6
  8
2
 10
132.0
 20
135.0
 30
0.0
 11
125.5
 21
135.0
 31
0.0
  0
LINE
  5
58E7
  8
2
 10
132.0
 20
129.0
 30
0.0
 11
125.5
 21
129.0
 31
0.0
  0
LINE
  5
58EB
  8
2
 10
64.647866738880452
 20
66.0
 30
0.0
 11
64.647866738880452
 21
69.297927405766444
 31
0.0
  0
LINE
  5
58EC
  8
2
 10
64.650000000000006
 20
66.0
 30
0.0
 11
64.650000000000006
 21
69.297927405783625
 31
0.0
  0
LINE
  5
58ED
  8
2
 10
35.352133261119569
 20
66.0
 30
0.0
 11
35.352133261119569
 21
69.297927405783625
 31
0.0
  0
LINE
  5
58EE
  8
2
 10
35.350000000000001
 20
69.297927405783625
 30
0.0
 11
35.350000000000001
 21
66.0
 31
0.0
  0
LINE
  5
58EF
  8
2
 10
63.779531855401189
 20
66.0
 30
0.0
 11
63.779531855401189
 21
68.807179676972453
 31
0.0
  0
LINE
  5
58F0
  8
2
 10
36.220468144598819
 20
66.0
 30
0.0
 11
36.220468144598819
 21
68.807179676984248
 31
0.0
  0
LINE
  5
58F1
  8
2
 10
64.545477379895942
 20
66.0
 30
0.0
 11
64.545477379895942
 21
69.297927405783625
 31
0.0
  0
LINE
  5
58F2
  8
2
 10
63.753495100640833
 20
66.0
 30
0.0
 11
63.753495100640833
 21
68.807179677005536
 31
0.0
  0
LINE
  5
58F3
  8
2
 10
35.454522620104079
 20
66.0
 30
0.0
 11
35.454522620104079
 21
69.2979274058155
 31
0.0
  0
LINE
  5
58F4
  8
2
 10
36.246504899359188
 20
66.0
 30
0.0
 11
36.246504899359188
 21
68.807179676972453
 31
0.0
  0
LINE
  5
58F5
  8
2
 10
64.477394055347816
 20
66.0
 30
0.0
 11
64.477394055347816
 21
69.297927405856598
 31
0.0
  0
LINE
  5
58F6
  8
2
 10
35.522605944652213
 20
66.0
 30
0.0
 11
35.522605944652213
 21
69.297927405783625
 31
0.0
  0
LINE
  5
58FB
  8
2
 10
38.500000000000007
 20
56.5
 30
0.0
 11
38.500000000000007
 21
50.0
 31
0.0
  0
LINE
  5
58FC
  8
2
 10
43.5
 20
50.0
 30
0.0
 11
43.5
 21
56.5
 31
0.0
  0
LINE
  5
58FD
  8
2
 10
63.548882003570952
 20
66.0
 30
0.0
 11
63.548882003570952
 21
68.807179676972453
 31
0.0
  0
LINE
  5
58FE
  8
2
 10
36.451117996429069
 20
66.0
 30
0.0
 11
36.451117996429069
 21
68.807179677005195
 31
0.0
  0
LINE
  5
5911
  8
2
 10
35.827866701575942
 20
66.0
 30
0.0
 11
35.827866701575942
 21
69.297927405764881
 31
0.0
  0
LINE
  5
5912
  8
2
 10
36.528743245232427
 20
66.0
 30
0.0
 11
36.528743245232427
 21
68.807179676972453
 31
0.0
  0
LINE
  5
5913
  8
2
 10
64.172133298424058
 20
66.0
 30
0.0
 11
64.172133298424058
 21
69.297927405783625
 31
0.0
  0
LINE
  5
5914
  8
2
 10
63.47125675476758
 20
66.0
 30
0.0
 11
63.47125675476758
 21
68.807179676996014
 31
0.0
  0
LINE
  5
5915
  8
2
 10
64.037234912845548
 20
66.0
 30
0.0
 11
64.037234912845548
 21
69.29792740581226
 31
0.0
  0
LINE
  5
5916
  8
2
 10
35.962765087154459
 20
66.0
 30
0.0
 11
35.962765087154459
 21
69.297927405783625
 31
0.0
  0
LINE
  5
5917
  8
2
 10
63.065842115483399
 20
66.0
 30
0.0
 11
63.065842115483399
 21
68.807179676972453
 31
0.0
  0
LINE
  5
5918
  8
2
 10
36.934157884516623
 20
66.0
 30
0.0
 11
36.934157884516623
 21
68.807179676932435
 31
0.0
  0
LINE
  5
5919
  8
2
 10
63.534789188308537
 20
66.0
 30
0.0
 11
63.534789188308537
 21
69.297927405783625
 31
0.0
  0
LINE
  5
591A
  8
2
 10
62.938074384149672
 20
66.0
 30
0.0
 11
62.938074384149672
 21
68.807179676962903
 31
0.0
  0
LINE
  5
591B
  8
2
 10
36.465210811691492
 20
66.0
 30
0.0
 11
36.465210811691492
 21
69.297927405805467
 31
0.0
  0
LINE
  5
591C
  8
2
 10
37.061925615850342
 20
66.0
 30
0.0
 11
37.061925615850342
 21
68.807179676972453
 31
0.0
  0
LINE
  5
591D
  8
2
 10
63.335588643385393
 20
66.0
 30
0.0
 11
63.335588643385393
 21
69.297927405795974
 31
0.0
  0
LINE
  5
591E
  8
2
 10
36.664411356614607
 20
66.0
 30
0.0
 11
36.664411356614607
 21
69.297927405783625
 31
0.0
  0
LINE
  5
591F
  8
2
 10
63.173071610080648
 20
66.0
 30
0.0
 11
63.173071610080648
 21
69.217098368097083
 31
0.0
  0
LINE
  5
5920
  8
2
 10
36.826928389919352
 20
66.0
 30
0.0
 11
36.826928389919352
 21
69.217098368097083
 31
0.0
  0
LINE
  5
5921
  8
2
 10
47.5
 20
56.5
 30
0.0
 11
47.5
 21
50.0
 31
0.0
  0
LINE
  5
5922
  8
2
 10
52.5
 20
50.0
 30
0.0
 11
52.5
 21
56.5
 31
0.0
  0
LINE
  5
5923
  8
2
 10
55.25142400561954
 20
66.0
 30
0.0
 11
55.25142400561954
 21
68.997705265805024
 31
0.0
  0
LINE
  5
5924
  8
2
 10
44.74857599438046
 20
66.0
 30
0.0
 11
44.74857599438046
 21
68.997705265805024
 31
0.0
  0
LINE
  5
5925
  8
2
 10
46.460852831315549
 20
66.0
 30
0.0
 11
46.460852831315549
 21
68.807179676972453
 31
0.0
  0
LINE
  5
5926
  8
2
 10
46.093467798620161
 20
66.0
 30
0.0
 11
46.093467798620161
 21
68.807179676917045
 31
0.0
  0
LINE
  5
5927
  8
2
 10
53.539147168684451
 20
66.0
 30
0.0
 11
53.539147168684451
 21
68.807179676955869
 31
0.0
  0
LINE
  5
5928
  8
2
 10
53.906532201379846
 20
66.0
 30
0.0
 11
53.906532201379846
 21
68.807179676972453
 31
0.0
  0
LINE
  5
5929
  8
2
 10
63.599999999999987
 20
56.5
 30
0.0
 11
36.400000000000013
 21
56.5
 31
0.0
  0
LINE
  5
592A
  8
2
 10
36.400000000000013
 20
64.5
 30
0.0
 11
36.400000000000013
 21
56.5
 31
0.0
  0
LINE
  5
592B
  8
2
 10
63.599999999999987
 20
56.5
 30
0.0
 11
63.599999999999987
 21
64.5
 31
0.0
  0
LINE
  5
592C
  8
2
 10
51.68993035605078
 20
66.0
 30
0.0
 11
51.68993035605078
 21
68.807179676986465
 31
0.0
  0
LINE
  5
592D
  8
2
 10
52.067910057378917
 20
66.0
 30
0.0
 11
52.067910057378917
 21
68.807179676972453
 31
0.0
  0
LINE
  5
592E
  8
2
 10
48.310069643949227
 20
66.0
 30
0.0
 11
48.310069643949227
 21
68.807179676972453
 31
0.0
  0
LINE
  5
592F
  8
2
 10
47.93208994262109
 20
66.0
 30
0.0
 11
47.93208994262109
 21
68.80717967702995
 31
0.0
  0
LINE
  5
5930
  8
2
 10
44.859162836821753
 20
66.0
 30
0.0
 11
44.859162836821753
 21
69.297927405821071
 31
0.0
  0
LINE
  5
5931
  8
2
 10
55.140837163178269
 20
66.0
 30
0.0
 11
55.140837163178269
 21
69.297927405783625
 31
0.0
  0
LINE
  5
5932
  8
2
 10
50.190766661645121
 20
66.0
 30
0.0
 11
50.190766661645121
 21
68.807179676972453
 31
0.0
  0
LINE
  5
5933
  8
2
 10
49.809233338354908
 20
66.0
 30
0.0
 11
49.809233338354908
 21
68.80717967698628
 31
0.0
  0
LINE
  5
5934
  8
2
 10
45.330293297881163
 20
66.0
 30
0.0
 11
45.330293297881163
 21
69.297927405783625
 31
0.0
  0
LINE
  5
5935
  8
2
 10
54.669706702118852
 20
66.0
 30
0.0
 11
54.669706702118852
 21
69.297927405841648
 31
0.0
  0
LINE
  5
5936
  8
2
 10
46.775032411660533
 20
66.0
 30
0.0
 11
46.775032411660533
 21
69.297927405756326
 31
0.0
  0
LINE
  5
5937
  8
2
 10
53.224967588339481
 20
66.0
 30
0.0
 11
53.224967588339481
 21
69.297927405783625
 31
0.0
  0
LINE
  5
5938
  8
2
 10
52.735425544498298
 20
66.0
 30
0.0
 11
52.735425544498298
 21
69.297927405758372
 31
0.0
  0
LINE
  5
5939
  8
2
 10
47.264574455501723
 20
66.0
 30
0.0
 11
47.264574455501723
 21
69.297927405783625
 31
0.0
  0
LINE
  5
593A
  8
2
 10
51.249022969202933
 20
66.0
 30
0.0
 11
51.249022969202933
 21
69.297927405783625
 31
0.0
  0
LINE
  5
593B
  8
2
 10
48.750977030797102
 20
66.0
 30
0.0
 11
48.750977030797102
 21
69.297927405787192
 31
0.0
  0
LINE
  5
593C
  8
2
 10
49.249811415392372
 20
66.0
 30
0.0
 11
49.249811415392372
 21
69.297927405783625
 31
0.0
  0
LINE
  5
593D
  8
2
 10
50.750188584607649
 20
66.0
 30
0.0
 11
50.750188584607649
 21
69.297927405787561
 31
0.0
  0
LINE
  5
593E
  8
2
 10
58.144969077908478
 20
66.0
 30
0.0
 11
41.855030677231291
 21
66.0
 31
0.0
  0
LINE
  5
593F
  8
2
 10
58.144969077908478
 20
66.0
 30
0.0
 11
58.144969077908478
 21
69.471132486540455
 31
0.0
  0
LINE
  5
5940
  8
2
 10
62.525884229521409
 20
66.0
 30
0.0
 11
62.525884229521409
 21
69.471132486540512
 31
0.0
  0
LINE
  5
5941
  8
2
 10
37.474115770478583
 20
66.0
 30
0.0
 11
35.050000000000011
 21
66.0
 31
0.0
  0
LINE
  5
5942
  8
2
 10
37.474115770478583
 20
66.0
 30
0.0
 11
37.474115770478583
 21
69.471132486540426
 31
0.0
  0
LINE
  5
5943
  8
2
 10
41.855030677231291
 20
66.0
 30
0.0
 11
41.855030677231291
 21
69.471132486540512
 31
0.0
  0
LINE
  5
5944
  8
2
 10
64.950000000000017
 20
64.5
 30
0.0
 11
35.050000000000011
 21
64.5
 31
0.0
  0
LINE
  5
5945
  8
2
 10
35.050000000000011
 20
66.0
 30
0.0
 11
35.050000000000011
 21
64.5
 31
0.0
  0
LINE
  5
5946
  8
2
 10
64.950000000000017
 20
64.5
 30
0.0
 11
64.950000000000017
 21
66.0
 31
0.0
  0
LINE
  5
5947
  8
2
 10
64.950000000000017
 20
66.0
 30
0.0
 11
62.525884229521409
 21
66.0
 31
0.0
  0
LINE
  5
5948
  8
2
 10
50.190766661645092
 20
68.807179676984248
 30
0.0
 11
50.750188584607628
 21
69.297927405783625
 31
0.0
  0
LINE
  5
5949
  8
2
 10
52.06791005737891
 20
68.807179676979558
 30
0.0
 11
52.735425544498298
 21
69.297927405783625
 31
0.0
  0
LINE
  5
594A
  8
2
 10
62.52588404545844
 20
69.471132486540512
 30
0.0
 11
62.671914279127428
 21
69.46689641779443
 31
0.0
  0
LINE
  5
594B
  8
2
 10
64.647866738880452
 20
69.297927405766444
 30
0.0
 11
63.779531855401189
 21
68.807179676972453
 31
0.0
  0
LINE
  5
594C
  8
2
 10
63.779531855401189
 20
68.807179676972453
 30
0.0
 11
63.753495100640833
 21
68.807179677005536
 31
0.0
  0
LINE
  5
594D
  8
2
 10
63.753495100640833
 20
68.807179677005536
 30
0.0
 11
64.545477379895942
 21
69.297927405783625
 31
0.0
  0
LINE
  5
594E
  8
2
 10
64.545477379895942
 20
69.297927405783625
 30
0.0
 11
64.477394055347816
 21
69.297927405856598
 31
0.0
  0
LINE
  5
594F
  8
2
 10
64.477394055347816
 20
69.297927405856598
 30
0.0
 11
63.548882003570952
 21
68.807179676972453
 31
0.0
  0
LINE
  5
5950
  8
2
 10
63.548882003570952
 20
68.807179676972453
 30
0.0
 11
63.47125675476758
 21
68.807179676996014
 31
0.0
  0
LINE
  5
5951
  8
2
 10
63.47125675476758
 20
68.807179676996014
 30
0.0
 11
64.172133298424058
 21
69.297927405783625
 31
0.0
  0
LINE
  5
5952
  8
2
 10
64.172133298424058
 20
69.297927405783625
 30
0.0
 11
64.037234912845548
 21
69.29792740581226
 31
0.0
  0
LINE
  5
5953
  8
2
 10
64.037234912845548
 20
69.29792740581226
 30
0.0
 11
63.065842115483399
 21
68.807179676972453
 31
0.0
  0
LINE
  5
5954
  8
2
 10
63.065842115483399
 20
68.807179676972453
 30
0.0
 11
62.938074384149672
 21
68.807179676962903
 31
0.0
  0
LINE
  5
5955
  8
2
 10
62.938074384149672
 20
68.807179676962903
 30
0.0
 11
63.534789188308537
 21
69.297927405783625
 31
0.0
  0
LINE
  5
5956
  8
2
 10
63.534789188308537
 20
69.297927405783625
 30
0.0
 11
63.335588643385393
 21
69.297927405795974
 31
0.0
  0
LINE
  5
5957
  8
2
 10
63.335588643385393
 20
69.297927405795974
 30
0.0
 11
63.173071610080648
 21
69.217098368097083
 31
0.0
  0
POLYLINE
  5
5958
  8
2
 66
     1
 10
0.0
 20
0.0
 30
0.0
  0
VERTEX
  5
5C04
  8
2
 10
63.173071610080648
 20
69.217098368097083
 30
0.0
  0
VERTEX
  5
5C05
  8
2
 10
63.153222706072143
 20
69.282278578802192
 30
0.0
  0
VERTEX
  5
5C06
  8
2
 10
63.109777518918968
 20
69.338321117895873
 30
0.0
  0
VERTEX
  5
5C07
  8
2
 10
63.04031692299111
 20
69.386024516940751
 30
0.0
  0
VERTEX
  5
5C08
  8
2
 10
62.945969160639493
 20
69.423393090917301
 30
0.0
  0
VERTEX
  5
5C09
  8
2
 10
62.763266789895972
 20
69.458950375625449
 30
0.0
  0
VERTEX
  5
5C0A
  8
2
 10
62.65086626367443
 20
69.468080696801735
 30
0.0
  0
VERTEX
  5
5C0B
  8
2
 10
62.525884229521409
 20
69.471132486540512
 30
0.0
  0
SEQEND
  5
5C0C
  8
2
  0
LINE
  5
5959
  8
2
 10
62.525884229521409
 20
69.471132486540512
 30
0.0
 11
58.144969077908478
 21
69.471132486540455
 31
0.0
  0
POLYLINE
  5
595A
  8
2
 66
     1
 10
0.0
 20
0.0
 30
0.0
  0
VERTEX
  5
5C0D
  8
2
 10
58.144969077908478
 20
69.471132486540455
 30
0.0
  0
VERTEX
  5
5C0E
  8
2
 10
57.876929342455263
 20
69.465977578772623
 30
0.0
  0
VERTEX
  5
5C0F
  8
2
 10
57.597594722175728
 20
69.450584013999986
 30
0.0
  0
VERTEX
  5
5C10
  8
2
 10
57.300216664082619
 20
69.424100985794979
 30
0.0
  0
VERTEX
  5
5C11
  8
2
 10
56.99531166476617
 20
69.387055779427541
 30
0.0
  0
VERTEX
  5
5C12
  8
2
 10
56.69427401358044
 20
69.341191504452382
 30
0.0
  0
VERTEX
  5
5C13
  8
2
 10
56.390441256401999
 20
69.28589739303473
 30
0.0
  0
VERTEX
  5
5C14
  8
2
 10
56.077511789250671
 20
69.219581220180814
 30
0.0
  0
VERTEX
  5
5C15
  8
2
 10
55.765969742365677
 20
69.144066516859354
 30
0.0
  0
VERTEX
  5
5C16
  8
2
 10
55.507477133926272
 20
69.074005002325492
 30
0.0
  0
VERTEX
  5
5C17
  8
2
 10
55.25142400561954
 20
68.997705265805024
 30
0.0
  0
SEQEND
  5
5C18
  8
2
  0
LINE
  5
595B
  8
2
 10
55.25142400561954
 20
68.997705265805024
 30
0.0
 11
55.140837163178269
 21
69.297927405783625
 31
0.0
  0
LINE
  5
595C
  8
2
 10
55.140837163178269
 20
69.297927405783625
 30
0.0
 11
54.669706702118852
 21
69.297927405841648
 31
0.0
  0
LINE
  5
595D
  8
2
 10
54.669706702118852
 20
69.297927405841648
 30
0.0
 11
53.906532201379846
 21
68.807179676972453
 31
0.0
  0
LINE
  5
595E
  8
2
 10
53.906532201379846
 20
68.807179676972453
 30
0.0
 11
53.539147168684451
 21
68.807179676955869
 31
0.0
  0
LINE
  5
595F
  8
2
 10
53.539147168684451
 20
68.807179676955869
 30
0.0
 11
53.224967588339481
 21
69.297927405783625
 31
0.0
  0
LINE
  5
5960
  8
2
 10
53.224967588339481
 20
69.297927405783625
 30
0.0
 11
52.735425544498298
 21
69.297927405758372
 31
0.0
  0
LINE
  5
5961
  8
2
 10
52.067910057378917
 20
68.807179676972453
 30
0.0
 11
51.68993035605078
 21
68.807179676986465
 31
0.0
  0
LINE
  5
5962
  8
2
 10
51.68993035605078
 20
68.807179676986465
 30
0.0
 11
51.249022969202933
 21
69.297927405783625
 31
0.0
  0
LINE
  5
5963
  8
2
 10
51.249022969202933
 20
69.297927405783625
 30
0.0
 11
50.750188584607649
 21
69.297927405787561
 31
0.0
  0
LINE
  5
5964
  8
2
 10
50.190766661645121
 20
68.807179676972453
 30
0.0
 11
49.809233338354908
 21
68.80717967698628
 31
0.0
  0
LINE
  5
5965
  8
2
 10
49.809233338354908
 20
68.80717967698628
 30
0.0
 11
49.249811415392372
 21
69.297927405783625
 31
0.0
  0
LINE
  5
5966
  8
2
 10
49.249811415392372
 20
69.297927405783625
 30
0.0
 11
48.750977030797102
 21
69.297927405787192
 31
0.0
  0
LINE
  5
5967
  8
2
 10
48.750977030797102
 20
69.297927405787192
 30
0.0
 11
48.310069643949227
 21
68.807179676972453
 31
0.0
  0
LINE
  5
5968
  8
2
 10
48.310069643949227
 20
68.807179676972453
 30
0.0
 11
47.93208994262109
 21
68.80717967702995
 31
0.0
  0
LINE
  5
5969
  8
2
 10
47.264574455501723
 20
69.297927405783625
 30
0.0
 11
46.775032411660533
 21
69.297927405756326
 31
0.0
  0
LINE
  5
596A
  8
2
 10
46.775032411660533
 20
69.297927405756326
 30
0.0
 11
46.460852831315549
 21
68.807179676972453
 31
0.0
  0
LINE
  5
596B
  8
2
 10
46.460852831315549
 20
68.807179676972453
 30
0.0
 11
46.093467798620161
 21
68.807179676917045
 31
0.0
  0
LINE
  5
596C
  8
2
 10
45.330293297881163
 20
69.297927405783625
 30
0.0
 11
44.859162836821753
 21
69.297927405821071
 31
0.0
  0
POLYLINE
  5
596D
  8
2
 66
     1
 10
0.0
 20
0.0
 30
0.0
  0
VERTEX
  5
5C19
  8
2
 10
44.74857599438046
 20
68.997705265805024
 30
0.0
  0
VERTEX
  5
5C1A
  8
2
 10
44.440549779831187
 20
69.088635535590143
 30
0.0
  0
VERTEX
  5
5C1B
  8
2
 10
44.127686772031609
 20
69.170925644711232
 30
0.0
  0
VERTEX
  5
5C1C
  8
2
 10
43.803209856723228
 20
69.245974389490101
 30
0.0
  0
VERTEX
  5
5C1D
  8
2
 10
43.478112403483621
 20
69.310922453079456
 30
0.0
  0
VERTEX
  5
5C1E
  8
2
 10
43.163285015265963
 20
69.364011066974584
 30
0.0
  0
VERTEX
  5
5C1F
  8
2
 10
42.852551259107088
 20
69.406755654710167
 30
0.0
  0
VERTEX
  5
5C20
  8
2
 10
42.538876614007847
 20
69.439656295293645
 30
0.0
  0
VERTEX
  5
5C21
  8
2
 10
42.234701595105292
 20
69.46099256485499
 30
0.0
  0
VERTEX
  5
5C22
  8
2
 10
41.855030677231291
 20
69.471132486540512
 30
0.0
  0
SEQEND
  5
5C23
  8
2
  0
LINE
  5
596E
  8
2
 10
41.855030677231291
 20
69.471132486540512
 30
0.0
 11
37.474115770478583
 21
69.471132486540426
 31
0.0
  0
POLYLINE
  5
596F
  8
2
 66
     1
 10
0.0
 20
0.0
 30
0.0
  0
VERTEX
  5
5C24
  8
2
 10
37.474115770478583
 20
69.471132486540426
 30
0.0
  0
VERTEX
  5
5C25
  8
2
 10
37.313880796032763
 20
69.465958276789308
 30
0.0
  0
VERTEX
  5
5C26
  8
2
 10
37.175179399542841
 20
69.450507337117386
 30
0.0
  0
VERTEX
  5
5C27
  8
2
 10
37.055857723615297
 20
69.42392235067463
 30
0.0
  0
VERTEX
  5
5C28
  8
2
 10
36.961012317631209
 20
69.386734628656086
 30
0.0
  0
VERTEX
  5
5C29
  8
2
 10
36.867031934032788
 20
69.313391745303633
 30
0.0
  0
VERTEX
  5
5C2A
  8
2
 10
36.826928389919352
 20
69.217098368097083
 30
0.0
  0
SEQEND
  5
5C2B
  8
2
  0
LINE
  5
5970
  8
2
 10
36.664411356614607
 20
69.297927405783625
 30
0.0
 11
36.465210811691492
 21
69.297927405805467
 31
0.0
  0
LINE
  5
5971
  8
2
 10
37.061925615850342
 20
68.807179676972453
 30
0.0
 11
36.934157884516623
 21
68.807179676932435
 31
0.0
  0
LINE
  5
5972
  8
2
 10
36.934157884516623
 20
68.807179676932435
 30
0.0
 11
35.962765087154459
 21
69.297927405783625
 31
0.0
  0
LINE
  5
5973
  8
2
 10
35.962765087154459
 20
69.297927405783625
 30
0.0
 11
35.827866701575942
 21
69.297927405764881
 31
0.0
  0
LINE
  5
5974
  8
2
 10
35.827866701575942
 20
69.297927405764881
 30
0.0
 11
36.528743245232427
 21
68.807179676972453
 31
0.0
  0
LINE
  5
5975
  8
2
 10
36.528743245232427
 20
68.807179676972453
 30
0.0
 11
36.451117996429069
 21
68.807179677005195
 31
0.0
  0
LINE
  5
5976
  8
2
 10
35.522605944652213
 20
69.297927405783625
 30
0.0
 11
35.454522620104079
 21
69.2979274058155
 31
0.0
  0
LINE
  5
5977
  8
2
 10
36.246504899359188
 20
68.807179676972453
 30
0.0
 11
36.220468144598819
 21
68.807179676984248
 31
0.0
  0
LINE
  5
5978
  8
2
 10
36.220468144598819
 20
68.807179676984248
 30
0.0
 11
35.352133261119569
 21
69.297927405783625
 31
0.0
  0
LINE
  5
5979
  8
2
 10
35.352133261119569
 20
69.297927405783625
 30
0.0
 11
35.350000000040858
 21
69.297927405760035
 31
0.0
  0
LINE
  5
597A
  8
2
 10
36.246504899359188
 20
68.807179676991794
 30
0.0
 11
35.454522620104072
 21
69.297927405783625
 31
0.0
  0
LINE
  5
597B
  8
2
 10
35.522605944652192
 20
69.297927405816012
 30
0.0
 11
36.451117996429069
 21
68.807179676972453
 31
0.0
  0
LINE
  5
597C
  8
2
 10
37.061925615850342
 20
68.807179676983083
 30
0.0
 11
36.46521081169147
 21
69.297927405783625
 31
0.0
  0
LINE
  5
597D
  8
2
 10
36.664411356614607
 20
69.297927405764483
 30
0.0
 11
36.826928389919338
 21
69.217098368097083
 31
0.0
  0
LINE
  5
597E
  8
2
 10
44.748575994380452
 20
68.997705265805024
 30
0.0
 11
44.859162836821753
 21
69.297927405783625
 31
0.0
  0
LINE
  5
597F
  8
2
 10
45.330293297881148
 20
69.297927405796713
 30
0.0
 11
46.093467798620139
 21
68.807179676972453
 31
0.0
  0
LINE
  5
5980
  8
2
 10
47.264574455501702
 20
69.29792740577092
 30
0.0
 11
47.93208994262109
 21
68.807179676972453
 31
0.0
  0
LINE
  5
5981
  8
2
 10
64.649999999957686
 20
69.297927405759197
 30
0.0
 11
65.0
 21
69.5
 31
0.0
  0
LINE
  5
5982
  8
2
 10
35.000000000000007
 20
69.5
 30
0.0
 11
35.350000000040858
 21
69.297927405760035
 31
0.0
  0
LINE
  5
5983
  8
2
 10
64.649999999957686
 20
69.297927405759197
 30
0.0
 11
64.647866738880452
 21
69.297927405766444
 31
0.0
  0
LINE
  5
5984
  8
0
 10
66.5
 20
50.0
 30
0.0
 11
33.500000000000007
 21
50.0
 31
0.0
  0
LINE
  5
5985
  8
0
 10
66.5
 20
69.5
 30
0.0
 11
33.500000000000007
 21
69.5
 31
0.0
  0
LINE
  5
5986
  8
0
 10
33.500000000000007
 20
69.5
 30
0.0
 11
33.500000000000007
 21
50.0
 31
0.0
  0
LINE
  5
5987
  8
0
 10
66.5
 20
50.0
 30
0.0
 11
66.5
 21
69.5
 31
0.0
  0
LINE
  5
5988
  8
2
 10
47.000000000000007
 20
50.0
 30
0.0
 11
47.000000000000007
 21
56.5
 31
0.0
  0
LINE
  5
5989
  8
2
 10
53.0
 20
50.0
 30
0.0
 11
53.0
 21
56.5
 31
0.0
  0
LINE
  5
598E
  8
1
 10
50.0
 20
72.5
 30
0.0
 11
50.0
 21
47.0
 31
0.0
  0
LINE
  5
598F
  8
1
 10
41.0
 20
58.0
 30
0.0
 11
41.0
 21
48.500000000000007
 31
0.0
  0
LINE
  5
5990
  8
1
 10
59.0
 20
58.0
 30
0.0
 11
59.000000000000028
 21
48.5
 31
0.0
  0
CIRCLE
  5
5991
  8
3
 10
41.0
 20
132.0
 30
0.0
 40
2.5
  0
CIRCLE
  5
5992
  8
0
 10
50.0
 20
132.0
 30
0.0
 40
2.5
  0
CIRCLE
  5
5993
  8
3
 10
59.0
 20
132.0
 30
0.0
 40
2.5
  0
CIRCLE
  5
5994
  8
0
 10
50.0
 20
141.0
 30
0.0
 40
2.4999999999999978
  0
CIRCLE
  5
5996
  8
0
 10
59.0
 20
132.0
 30
0.0
 40
2.1000000000000001
  0
CIRCLE
  5
5997
  8
3
 10
50.0
 20
132.0
 30
0.0
 40
3.0
  0
CIRCLE
  5
5998
  8
0
 10
50.0
 20
123.0
 30
0.0
 40
2.5
  0
CIRCLE
  5
5999
  8
0
 10
50.0
 20
132.0
 30
0.0
 40
13.6
  0
LINE
  5
599A
  8
0
 10
49.809233338354908
 20
118.2013186107945
 30
0.0
 11
49.249811415392358
 21
117.36922021601291
 31
0.0
  0
ARC
  5
599B
  8
0
 10
50.000000004712952
 20
132.00000006122301
 30
0.0
 40
14.65000006138407
 50
265.10916538524702
 51
267.06474765413373
  0
LINE
  5
599C
  8
0
 10
48.750977030798609
 20
117.4033414227131
 30
0.0
 11
48.31006964394922
 21
118.30386421680559
 31
0.0
  0
ARC
  5
599D
  8
0
 10
49.999999983059347
 20
131.99999987674761
 30
0.0
 40
13.79999987560077
 50
261.38184979522708
 51
262.9659762917297
  0
LINE
  5
599E
  8
0
 10
47.93208994262109
 20
118.3558163309565
 30
0.0
 11
47.264574455501702
 21
117.6076427542078
 31
0.0
  0
ARC
  5
599F
  8
0
 10
50.000000124028958
 20
132.00000059685979
 30
0.0
 40
14.65000060952163
 50
257.28307846736129
 51
259.23866066307312
  0
LINE
  5
59A0
  8
0
 10
46.775032411660533
 20
117.7093707607341
 30
0.0
 11
46.46085283131557
 21
118.6615429183734
 31
0.0
  0
ARC
  5
59A1
  8
0
 10
49.999999990259937
 20
131.99999996523701
 30
0.0
 40
13.799999963901801
 50
253.55576284377369
 51
255.1398893301392
  0
LINE
  5
59A2
  8
0
 10
46.093467798620139
 20
118.764479377086
 30
0.0
 11
45.330293297881148
 21
118.1141676765061
 31
0.0
  0
ARC
  5
59A3
  8
0
 10
49.999999952991871
 20
131.99999986773159
 30
0.0
 40
14.64999985964711
 50
249.4569914607861
 51
251.4125737566055
  0
LINE
  5
59A4
  8
0
 10
44.859162836821739
 20
118.2816074825916
 30
0.0
 11
44.748575994380452
 21
118.8820944540219
 31
0.0
  0
POLYLINE
  5
59A5
  8
0
 66
     1
 10
0.0
 20
0.0
 30
0.0
  0
VERTEX
  5
5C2C
  8
0
 10
44.748575994380452
 20
118.8820944540219
 30
0.0
  0
VERTEX
  5
5C2D
  8
0
 10
44.440549779831173
 20
118.8385071007196
 30
0.0
  0
VERTEX
  5
5C2E
  8
0
 10
44.127686772031602
 20
118.8188922293416
 30
0.0
  0
VERTEX
  5
5C2F
  8
0
 10
43.803209856723221
 20
118.8245082279996
 30
0.0
  0
VERTEX
  5
5C30
  8
0
 10
43.478112403483621
 20
118.856656604975
 30
0.0
  0
VERTEX
  5
5C31
  8
0
 10
43.163285015265949
 20
118.9138108199239
 30
0.0
  0
VERTEX
  5
5C32
  8
0
 10
42.852551259107081
 20
118.9963489083535
 30
0.0
  0
VERTEX
  5
5C33
  8
0
 10
42.53887661400784
 20
119.1078837230104
 30
0.0
  0
VERTEX
  5
5C34
  8
0
 10
42.234701595105278
 20
119.2454784630466
 30
0.0
  0
VERTEX
  5
5C35
  8
0
 10
41.855030922091501
 20
119.4635739255593
 30
0.0
  0
SEQEND
  5
5C36
  8
0
  0
ARC
  5
59A6
  8
0
 10
50.00000000000027
 20
132.00000000000031
 30
0.0
 40
14.950000000000371
 50
213.08603714187191
 51
236.98804705500569
  0
POLYLINE
  5
59A7
  8
0
 66
     1
 10
0.0
 20
0.0
 30
0.0
  0
VERTEX
  5
5C37
  8
0
 10
37.474115954541553
 20
123.83882797144121
 30
0.0
  0
VERTEX
  5
5C38
  8
0
 10
37.313880957941642
 20
124.1071727774693
 30
0.0
  0
VERTEX
  5
5C39
  8
0
 10
37.175179538054962
 20
124.3868787187655
 30
0.0
  0
VERTEX
  5
5C3A
  8
0
 10
37.055857836977367
 20
124.68473189742249
 30
0.0
  0
VERTEX
  5
5C3B
  8
0
 10
36.961012405074527
 20
124.9901604437437
 30
0.0
  0
VERTEX
  5
5C3C
  8
0
 10
36.867031958773197
 20
125.4476591521799
 30
0.0
  0
VERTEX
  5
5C3D
  8
0
 10
36.826928389919331
 20
125.9163921596073
 30
0.0
  0
SEQEND
  5
5C3E
  8
0
  0
LINE
  5
59A8
  8
0
 10
36.826928389919331
 20
125.9163921596073
 30
0.0
 11
36.664411356614607
 21
125.9349711019311
 31
0.0
  0
ARC
  5
59A9
  8
0
 10
50.000000129673829
 20
132.00000005632529
 30
0.0
 40
14.6500001413578
 50
202.50046974045969
 51
204.45605199867001
  0
LINE
  5
59AA
  8
0
 10
36.465210811691463
 20
126.3935767526839
 30
0.0
 11
37.061925615850328
 21
127.1993509574006
 31
0.0
  0
ARC
  5
59AB
  8
0
 10
50.000000315568847
 20
132.0000001121532
 30
0.0
 40
13.80000033487404
 50
198.7731541694161
 51
200.3572806131946
  0
LINE
  5
59AC
  8
0
 10
36.934157884516587
 20
127.55885489842311
 30
0.0
 11
35.962765087154452
 21
127.8073235276747
 31
0.0
  0
ARC
  5
59AD
  8
0
 10
49.999999780456349
 20
131.9999999384865
 30
0.0
 40
14.6499997720347
 50
194.6743827592847
 51
196.62996506680039
  0
LINE
  5
59AE
  8
0
 10
35.827866701575942
 20
128.2887821713486
 30
0.0
 11
36.528743245232413
 21
129.00579869629161
 31
0.0
  0
ARC
  5
59AF
  8
0
 10
49.99999967095043
 20
131.9999999316226
 30
0.0
 40
13.79999966395313
 50
190.94706717438231
 51
192.53119369518259
  0
LINE
  5
59B0
  8
0
 10
36.451117996429062
 20
129.3793519020457
 30
0.0
 11
35.522605944652192
 21
129.75777758324921
 31
0.0
  0
ARC
  5
59B1
  8
0
 10
49.99999949064172
 20
131.99999992999031
 30
0.0
 40
14.6499994859278
 50
186.84829578366549
 51
188.80387812937769
  0
LINE
  5
59B2
  8
0
 10
35.454522620104058
 20
130.25312055626731
 30
0.0
 11
36.246504899359181
 21
130.86802274022429
 31
0.0
  0
ARC
  5
59B3
  8
0
 10
49.999998893326627
 20
131.99999992430159
 30
0.0
 40
13.799998890846689
 50
183.12098017348529
 51
184.7051067830368
  0
LINE
  5
59B4
  8
0
 10
36.220468144598811
 20
131.2486666212765
 30
0.0
 11
35.352133261119562
 21
131.74999999999989
 31
0.0
  0
ARC
  5
59B5
  8
0
 10
50.000000290665
 20
132.0
 30
0.0
 40
14.650000290622669
 50
179.0222088808577
 51
180.97779111914221
  0
LINE
  5
59B6
  8
0
 10
35.352133261119562
 20
132.25
 30
0.0
 11
36.220468144598811
 21
132.75133337872339
 31
0.0
  0
ARC
  5
59B7
  8
0
 10
49.999999865063067
 20
132.00000000923001
 30
0.0
 40
13.7999998647607
 50
175.29489327286549
 51
176.8790197706119
  0
LINE
  5
59B8
  8
0
 10
36.246504899359181
 20
133.1319772597756
 30
0.0
 11
35.454522620104058
 21
133.74687944373261
 31
0.0
  0
ARC
  5
59B9
  8
0
 10
49.999999599574863
 20
132.00000005503711
 30
0.0
 40
14.64999959586908
 50
171.1961218779619
 51
173.15170420899469
  0
LINE
  5
59BA
  8
0
 10
35.522605944652192
 20
134.24222241675079
 30
0.0
 11
36.451117996429062
 21
134.6206480979543
 31
0.0
  0
ARC
  5
59BB
  8
0
 10
49.99999943215041
 20
132.00000011800049
 30
0.0
 40
13.799999420075009
 50
167.4688062908196
 51
169.05293283961481
  0
LINE
  5
59BC
  8
0
 10
36.528743245232413
 20
134.99420130370831
 30
0.0
 11
35.827866701575928
 21
135.71121782865129
 31
0.0
  0
ARC
  5
59BD
  8
0
 10
49.999999956939391
 20
132.00000001206499
 30
0.0
 40
14.64999995528761
 50
163.37003494543131
 51
165.32561722848229
  0
LINE
  5
59BE
  8
0
 10
35.962765087154452
 20
136.19267647232519
 30
0.0
 11
36.934157884516587
 21
136.44114510157681
 31
0.0
  0
ARC
  5
59BF
  8
0
 10
50.000001478871198
 20
131.99999947440909
 30
0.0
 40
13.800001569342241
 50
159.64271945766501
 51
161.2268457597273
  0
LINE
  5
59C0
  8
0
 10
37.061925615850328
 20
136.80064904259939
 30
0.0
 11
36.465210811691477
 21
137.60642324731609
 31
0.0
  0
ARC
  5
59C1
  8
0
 10
49.999999696620343
 20
132.0000001317764
 30
0.0
 40
14.64999966928505
 50
155.54394796981779
 51
157.4995302910506
  0
LINE
  5
59C2
  8
0
 10
36.664411356614607
 20
138.0650288980689
 30
0.0
 11
36.826928389919352
 21
138.08360784039269
 31
0.0
  0
POLYLINE
  5
59C3
  8
0
 66
     1
 10
0.0
 20
0.0
 30
0.0
  0
VERTEX
  5
5C3F
  8
0
 10
36.826928389919352
 20
138.08360784039269
 30
0.0
  0
VERTEX
  5
5C40
  8
0
 10
36.890222481081018
 20
138.6941072920699
 30
0.0
  0
VERTEX
  5
5C41
  8
0
 10
36.959683077008883
 20
139.00474806036729
 30
0.0
  0
VERTEX
  5
5C42
  8
0
 10
37.054030839360522
 20
139.31018991443219
 30
0.0
  0
VERTEX
  5
5C43
  8
0
 10
37.236733210104042
 20
139.74409936748441
 30
0.0
  0
VERTEX
  5
5C44
  8
0
 10
37.474115770478591
 20
140.1611717460562
 30
0.0
  0
SEQEND
  5
5C45
  8
0
  0
ARC
  5
59C4
  8
0
 10
50.000000000004128
 20
131.99999999999579
 30
0.0
 40
14.950000000005719
 50
123.0119529449979
 51
146.91396415034259
  0
POLYLINE
  5
59C5
  8
0
 66
     1
 10
0.0
 20
0.0
 30
0.0
  0
VERTEX
  5
5C46
  8
0
 10
41.855030922091522
 20
144.53642607444061
 30
0.0
  0
VERTEX
  5
5C47
  8
0
 10
42.123070657544737
 20
144.69603570229111
 30
0.0
  0
VERTEX
  5
5C48
  8
0
 10
42.402405277824272
 20
144.83417898826571
 30
0.0
  0
VERTEX
  5
5C49
  8
0
 10
42.699783335917367
 20
144.95299199296949
 30
0.0
  0
VERTEX
  5
5C4A
  8
0
 10
43.004688335233823
 20
145.0474185205382
 30
0.0
  0
VERTEX
  5
5C4B
  8
0
 10
43.609558743598022
 20
145.15958519591319
 30
0.0
  0
VERTEX
  5
5C4C
  8
0
 10
43.922488210749329
 20
145.180613553825
 30
0.0
  0
VERTEX
  5
5C4D
  8
0
 10
44.23403025763433
 20
145.17720807136129
 30
0.0
  0
VERTEX
  5
5C4E
  8
0
 10
44.49252286607372
 20
145.15586414649891
 30
0.0
  0
VERTEX
  5
5C4F
  8
0
 10
44.748575994380452
 20
145.11790554597809
 30
0.0
  0
SEQEND
  5
5C50
  8
0
  0
LINE
  5
59C6
  8
0
 10
44.748575994380452
 20
145.11790554597809
 30
0.0
 11
44.859162836821739
 21
145.71839251740829
 31
0.0
  0
ARC
  5
59C7
  8
0
 10
49.999999923924122
 20
132.00000021405739
 30
0.0
 40
14.649999772858861
 50
108.5874262376021
 51
110.5430085450074
  0
LINE
  5
59C8
  8
0
 10
45.330293297881148
 20
145.88583232349379
 30
0.0
 11
46.093467798620154
 21
145.23552062291401
 31
0.0
  0
ARC
  5
59C9
  8
0
 10
49.999999801191692
 20
132.00000070955619
 30
0.0
 40
13.79999926318863
 50
104.86011062963971
 51
106.44423719644691
  0
LINE
  5
59CA
  8
0
 10
46.460852831315542
 20
145.3384570816265
 30
0.0
 11
46.775032411660533
 21
146.2906292392658
 31
0.0
  0
ARC
  5
59CB
  8
0
 10
49.999999976197522
 20
132.0000001145437
 30
0.0
 40
14.649999883026309
 50
100.76133928843321
 51
102.7169215811312
  0
LINE
  5
59CC
  8
0
 10
47.264574455501702
 20
146.39235724579211
 30
0.0
 11
47.932089942621083
 21
145.6441836690434
 31
0.0
  0
ARC
  5
59CD
  8
0
 10
49.999999865576058
 20
132.000000978006
 30
0.0
 40
13.79999901289345
 50
97.034023658751224
 51
98.618150254291209
  0
LINE
  5
59CE
  8
0
 10
48.310069643949227
 20
145.69613578319439
 30
0.0
 11
48.750977030797067
 21
146.59665857730471
 31
0.0
  0
ARC
  5
59CF
  8
0
 10
49.999999986740427
 20
132.00000019384811
 30
0.0
 40
14.649999805727161
 50
92.935252326751737
 51
94.890834629769785
  0
LINE
  5
59D0
  8
0
 10
49.249811415392358
 20
146.63077978398701
 30
0.0
 11
49.809233338354879
 21
145.7986813892054
 31
0.0
  0
ARC
  5
59D1
  8
0
 10
50.0
 20
132.0000003671249
 30
0.0
 40
13.79999963291012
 50
89.207936737818144
 51
90.792063262181841
  0
LINE
  5
59D2
  8
0
 10
50.1907666616451
 20
145.7986813892054
 30
0.0
 11
50.750188584607642
 21
146.63077978398701
 31
0.0
  0
ARC
  5
59D3
  8
0
 10
49.999999997166881
 20
131.999999958579
 30
0.0
 40
14.650000041511699
 50
85.109165385969419
 51
87.064747657509869
  0
LINE
  5
59D4
  8
0
 10
51.249022969202912
 20
146.59665857730471
 30
0.0
 11
51.68993035605078
 21
145.69613578319439
 31
0.0
  0
ARC
  5
59D5
  8
0
 10
49.999999986352861
 20
131.99999990070989
 30
0.0
 40
13.800000100213969
 50
81.381849808119284
 51
82.965976278837076
  0
LINE
  5
59D6
  8
0
 10
52.067910057378903
 20
145.6441836690434
 30
0.0
 11
52.735425544498291
 21
146.39235724579211
 31
0.0
  0
ARC
  5
59D7
  8
0
 10
49.999999912034802
 20
131.99999957668811
 30
0.0
 40
14.650000432292019
 50
77.283078455531978
 51
79.238660674903343
  0
LINE
  5
59D8
  8
0
 10
53.22496758833946
 20
146.2906292392658
 30
0.0
 11
53.539147168684451
 21
145.3384570816265
 31
0.0
  0
ARC
  5
59D9
  8
0
 10
49.9999999373373
 20
131.99999977635389
 30
0.0
 40
13.800000232236689
 50
73.555762859176085
 51
75.139889314736848
  0
LINE
  5
59DA
  8
0
 10
53.906532201379839
 20
145.23552062291401
 30
0.0
 11
54.669706702118837
 21
145.88583232349379
 31
0.0
  0
ARC
  5
59DB
  8
0
 10
50.000000093778702
 20
132.000000263868
 30
0.0
 40
14.64999972000361
 50
69.456991451464859
 51
71.412573765926751
  0
LINE
  5
59DC
  8
0
 10
55.140837163178261
 20
145.71839251740829
 30
0.0
 11
55.25142400561954
 21
145.11790554597809
 31
0.0
  0
POLYLINE
  5
59DD
  8
0
 66
     1
 10
0.0
 20
0.0
 30
0.0
  0
VERTEX
  5
5C51
  8
0
 10
55.25142400561954
 20
145.11790554597809
 30
0.0
  0
VERTEX
  5
5C52
  8
0
 10
55.55945022016882
 20
145.1614928992804
 30
0.0
  0
VERTEX
  5
5C53
  8
0
 10
55.872313227968391
 20
145.18110777065829
 30
0.0
  0
VERTEX
  5
5C54
  8
0
 10
56.196790143276772
 20
145.1754917720003
 30
0.0
  0
VERTEX
  5
5C55
  8
0
 10
56.521887596516379
 20
145.143343395025
 30
0.0
  0
VERTEX
  5
5C56
  8
0
 10
56.836714984734051
 20
145.08618918007599
 30
0.0
  0
VERTEX
  5
5C57
  8
0
 10
57.147448740892912
 20
145.0036510916465
 30
0.0
  0
VERTEX
  5
5C58
  8
0
 10
57.461123385992153
 20
144.8921162769895
 30
0.0
  0
VERTEX
  5
5C59
  8
0
 10
57.765298404894722
 20
144.75452153695329
 30
0.0
  0
VERTEX
  5
5C5A
  8
0
 10
58.144969322768709
 20
144.5364259153539
 30
0.0
  0
SEQEND
  5
5C5B
  8
0
  0
ARC
  5
59DE
  8
0
 10
49.999999999995303
 20
131.9999999999952
 30
0.0
 40
14.95000000000652
 50
33.086035849657378
 51
56.988045935905731
  0
POLYLINE
  5
59DF
  8
0
 66
     1
 10
0.0
 20
0.0
 30
0.0
  0
VERTEX
  5
5C5C
  8
0
 10
62.525884229521417
 20
140.1611717460562
 30
0.0
  0
VERTEX
  5
5C5D
  8
0
 10
62.686119203967252
 20
139.89282692566729
 30
0.0
  0
VERTEX
  5
5C5E
  8
0
 10
62.824820600457151
 20
139.6131209720908
 30
0.0
  0
VERTEX
  5
5C5F
  8
0
 10
62.94414227638471
 20
139.31526778311931
 30
0.0
  0
VERTEX
  5
5C60
  8
0
 10
63.038987682368798
 20
139.0098392288908
 30
0.0
  0
VERTEX
  5
5C61
  8
0
 10
63.132968065967219
 20
138.55234067742759
 30
0.0
  0
VERTEX
  5
5C62
  8
0
 10
63.173071610080648
 20
138.08360784039269
 30
0.0
  0
SEQEND
  5
5C63
  8
0
  0
LINE
  5
59E0
  8
0
 10
63.173071610080648
 20
138.08360784039269
 30
0.0
 11
63.335588643385393
 21
138.0650288980689
 31
0.0
  0
ARC
  5
59E1
  8
0
 10
49.999999777936843
 20
131.99999990354431
 30
0.0
 40
14.6500002420716
 50
22.500469747182478
 51
24.45605199194755
  0
LINE
  5
59E2
  8
0
 10
63.534789188308523
 20
137.60642324731609
 30
0.0
 11
62.938074384149672
 21
136.8006490425993
 31
0.0
  0
ARC
  5
59E3
  8
0
 10
49.999999472412412
 20
131.99999981249519
 30
0.0
 40
13.80000055986317
 50
18.77315418232951
 51
20.357280600278941
  0
LINE
  5
59E4
  8
0
 10
63.065842115483392
 20
136.44114510157681
 30
0.0
 11
64.037234912845548
 21
136.19267647232519
 31
0.0
  0
ARC
  5
59E5
  8
0
 10
49.999999713034647
 20
131.99999991959609
 30
0.0
 40
14.650000297973209
 50
14.674382794391139
 51
16.629965031694748
  0
LINE
  5
59E6
  8
0
 10
64.172133298424058
 20
135.71121782865129
 30
0.0
 11
63.47125675476758
 21
134.99420130370831
 31
0.0
  0
ARC
  5
59E7
  8
0
 10
49.999999398139963
 20
131.99999987493189
 30
0.0
 40
13.800000614658691
 50
10.947067228952751
 51
12.53119364061315
  0
LINE
  5
59E8
  8
0
 10
63.548882003570938
 20
134.6206480979543
 30
0.0
 11
64.477394055347801
 21
134.24222241675079
 31
0.0
  0
ARC
  5
59E9
  8
0
 10
50.000000360001529
 20
132.000000049481
 30
0.0
 40
14.64999963666677
 50
6.848295793727889
 51
8.8038781193157725
  0
LINE
  5
59EA
  8
0
 10
64.545477379895914
 20
133.74687944373261
 30
0.0
 11
63.753495100640819
 21
133.1319772597756
 31
0.0
  0
ARC
  5
59EB
  8
0
 10
49.999999718698419
 20
131.99999998075839
 30
0.0
 40
13.80000028193195
 50
3.1209802533323621
 51
4.7051067031888927
  0
LINE
  5
59EC
  8
0
 10
63.779531855401189
 20
132.75133337872339
 30
0.0
 11
64.647866738880438
 21
132.25
 31
0.0
  0
ARC
  5
59ED
  8
0
 10
49.999999719411051
 20
132.0
 30
0.0
 40
14.65000028054809
 50
359.02220888018508
 51
0.9777911198148864
  0
LINE
  5
59EE
  8
0
 10
64.647866738880438
 20
131.75
 30
0.0
 11
63.779531855401181
 21
131.2486666212765
 31
0.0
  0
ARC
  5
59EF
  8
0
 10
50.000000275461957
 20
131.99999998115791
 30
0.0
 40
13.799999723920759
 50
355.2948932647808
 51
356.87901977869609
  0
LINE
  5
59F0
  8
0
 10
63.753495100640819
 20
130.8680227402244
 30
0.0
 11
64.545477379895914
 21
130.25312055626731
 31
0.0
  0
ARC
  5
59F1
  8
0
 10
50.000000063378359
 20
131.9999999912888
 30
0.0
 40
14.649999936035091
 50
351.19612190066772
 51
353.15170418628861
  0
LINE
  5
59F2
  8
0
 10
64.477394055347816
 20
129.75777758324921
 30
0.0
 11
63.548882003570938
 21
129.3793519020457
 31
0.0
  0
ARC
  5
59F3
  8
0
 10
49.999999456341072
 20
132.00000011297351
 30
0.0
 40
13.800000555219899
 50
347.46880635597711
 51
349.05293277445901
  0
LINE
  5
59F4
  8
0
 10
63.471256754767587
 20
129.00579869629161
 30
0.0
 11
64.172133298424058
 21
128.2887821713486
 31
0.0
  0
ARC
  5
59F5
  8
0
 10
50.00000048416414
 20
131.99999986434361
 30
0.0
 40
14.64999949726352
 50
343.37003491485842
 51
345.32561725905538
  0
LINE
  5
59F6
  8
0
 10
64.037234912845548
 20
127.8073235276747
 30
0.0
 11
63.065842115483399
 21
127.55885489842311
 31
0.0
  0
ARC
  5
59F7
  8
0
 10
49.999999767343972
 20
132.000000082686
 30
0.0
 40
13.80000024688896
 50
339.64271938175619
 51
341.22684583563529
  0
LINE
  5
59F8
  8
0
 10
62.938074384149672
 20
127.1993509574006
 30
0.0
 11
63.534789188308537
 21
126.3935767526839
 31
0.0
  0
ARC
  5
59F9
  8
0
 10
50.000000723442888
 20
131.99999968576429
 30
0.0
 40
14.64999921137303
 50
335.54394793925343
 51
337.49953032161608
  0
LINE
  5
59FA
  8
0
 10
63.335588643385393
 20
125.9349711019311
 30
0.0
 11
63.173071610080662
 21
125.9163921596073
 31
0.0
  0
POLYLINE
  5
59FB
  8
0
 66
     1
 10
0.0
 20
0.0
 30
0.0
  0
VERTEX
  5
5C64
  8
0
 10
63.173071610080662
 20
125.9163921596073
 30
0.0
  0
VERTEX
  5
5C65
  8
0
 10
63.10977751853828
 20
125.3058927058392
 30
0.0
  0
VERTEX
  5
5C66
  8
0
 10
63.040316922143901
 20
124.9952519364455
 30
0.0
  0
VERTEX
  5
5C67
  8
0
 10
62.945969159147921
 20
124.68981008134629
 30
0.0
  0
VERTEX
  5
5C68
  8
0
 10
62.763266869927051
 20
124.2559007951035
 30
0.0
  0
VERTEX
  5
5C69
  8
0
 10
62.525884435310061
 20
123.8388285697911
 30
0.0
  0
SEQEND
  5
5C6A
  8
0
  0
ARC
  5
59FC
  8
0
 10
49.99999999999811
 20
132.00000000000179
 30
0.0
 40
14.950000000002619
 50
303.01195294499632
 51
326.91396559509212
  0
POLYLINE
  5
59FD
  8
0
 66
     1
 10
0.0
 20
0.0
 30
0.0
  0
VERTEX
  5
5C6B
  8
0
 10
58.144969077908499
 20
119.4635739255593
 30
0.0
  0
VERTEX
  5
5C6C
  8
0
 10
57.876929342455263
 20
119.3039642977088
 30
0.0
  0
VERTEX
  5
5C6D
  8
0
 10
57.597594722175728
 20
119.16582101173429
 30
0.0
  0
VERTEX
  5
5C6E
  8
0
 10
57.300216664082619
 20
119.0470080070305
 30
0.0
  0
VERTEX
  5
5C6F
  8
0
 10
56.99531166476617
 20
118.9525814794617
 30
0.0
  0
VERTEX
  5
5C70
  8
0
 10
56.390441256401978
 20
118.84041480408671
 30
0.0
  0
VERTEX
  5
5C71
  8
0
 10
56.077511789250671
 20
118.819386446175
 30
0.0
  0
VERTEX
  5
5C72
  8
0
 10
55.76596974236567
 20
118.82279192863859
 30
0.0
  0
VERTEX
  5
5C73
  8
0
 10
55.507477133926272
 20
118.844135853501
 30
0.0
  0
VERTEX
  5
5C74
  8
0
 10
55.25142400561954
 20
118.8820944540219
 30
0.0
  0
SEQEND
  5
5C75
  8
0
  0
LINE
  5
59FE
  8
0
 10
55.25142400561954
 20
118.8820944540219
 30
0.0
 11
55.140837163178261
 21
118.2816074825916
 31
0.0
  0
ARC
  5
59FF
  8
0
 10
50.000000016906242
 20
131.9999999524305
 30
0.0
 40
14.64999994952289
 50
288.5874262493939
 51
290.54300853321428
  0
LINE
  5
5A00
  8
0
 10
54.669706702118852
 20
118.1141676765061
 30
0.0
 11
53.906532201379861
 21
118.76447937708591
 31
0.0
  0
ARC
  5
5A01
  8
0
 10
50.000000307417892
 20
131.99999890281131
 30
0.0
 40
13.799998860666539
 50
284.86011060653539
 51
286.4442372195511
  0
LINE
  5
5A02
  8
0
 10
53.539147168684437
 20
118.6615429183734
 30
0.0
 11
53.22496758833946
 21
117.7093707607341
 31
0.0
  0
ARC
  5
5A03
  8
0
 10
49.999999955058868
 20
132.00000021626849
 30
0.0
 40
14.65000022085643
 50
280.76133931098377
 51
282.71692155858187
  0
LINE
  5
5A04
  8
0
 10
52.735425544498291
 20
117.6076427542078
 30
0.0
 11
52.067910057378903
 21
118.3558163309565
 31
0.0
  0
ARC
  5
5A05
  8
0
 10
49.999999967176919
 20
132.00000023880531
 30
0.0
 40
13.800000241027471
 50
277.03402372924631
 51
278.61815018379792
  0
LINE
  5
5A06
  8
0
 10
51.689930356050759
 20
118.30386421680559
 30
0.0
 11
51.249022969202912
 21
117.40334142269521
 31
0.0
  0
ARC
  5
5A07
  8
0
 10
49.999999994866577
 20
132.00000007504809
 30
0.0
 40
14.650000075212549
 50
272.93525234474032
 51
274.89083461178171
  0
LINE
  5
5A08
  8
0
 10
50.750188584607642
 20
117.36922021601291
 30
0.0
 11
50.190766661645078
 21
118.2013186107945
 31
0.0
  0
ARC
  5
5A09
  8
0
 10
49.999999999999922
 20
131.99999971023729
 30
0.0
 40
13.79999971026499
 50
269.20793674225848
 51
270.7920632577414
  0
CIRCLE
  5
5A0A
  8
0
 10
50.0
 20
132.0
 30
0.0
 40
16.5
  0
CIRCLE
  5
5A0B
  8
0
 10
50.0
 20
132.0
 30
0.0
 40
15.0
  0
LINE
  5
5A0F
  8
1
 10
54.0
 20
141.0
 30
0.0
 11
46.0
 21
141.0
 31
0.0
  0
LINE
  5
5A12
  8
1
 10
54.0
 20
123.0
 30
0.0
 11
46.0
 21
123.0
 31
0.0
  0
LINE
  5
5A14
  8
1
 10
69.5
 20
132.0
 30
0.0
 11
30.500000000000011
 21
132.0
 31
0.0
  0
CIRCLE
  5
5A1F
  8
0
 10
41.0
 20
132.0
 30
0.0
 40
2.1000000000000001
  0
LINE
  5
5A25
  8
2
 10
38.899999999999999
 20
56.5
 30
0.0
 11
38.899999999999999
 21
50.0
 31
0.0
  0
LINE
  5
5A26
  8
2
 10
43.100000000000009
 20
56.5
 30
0.0
 11
43.100000000000001
 21
50.0
 31
0.0
  0
LINE
  5
5A27
  8
2
 10
61.5
 20
56.5
 30
0.0
 11
61.5
 21
50.0
 31
0.0
  0
LINE
  5
5A28
  8
2
 10
56.500000000000007
 20
50.0
 30
0.0
 11
56.5
 21
56.5
 31
0.0
  0
LINE
  5
5A29
  8
2
 10
61.099999999999987
 20
56.5
 30
0.0
 11
61.099999999999987
 21
50.0
 31
0.0
  0
LINE
  5
5A2A
  8
2
 10
56.900000000000013
 20
56.5
 30
0.0
 11
56.899999999999999
 21
50.0
 31
0.0
  0
LINE
  5
5A2C
  8
2
 10
132.0
 20
129.5
 30
0.0
 11
125.5
 21
129.5
 31
0.0
  0
LINE
  5
5A2D
  8
2
 10
125.5
 20
134.09999999999991
 30
0.0
 11
132.0
 21
134.09999999999991
 31
0.0
  0
LINE
  5
5A2E
  8
2
 10
125.5
 20
129.89999999999989
 30
0.0
 11
132.0
 21
129.89999999999989
 31
0.0
  0
LINE
  5
5A41
  8
1
 10
50.0
 20
151.5
 30
0.0
 11
50.0
 21
112.5
 31
0.0
  0
LINE
  5
5A46
  8
1
 10
45.0
 20
132.0
 30
0.0
 11
37.0
 21
132.0
 31
0.0
  0
LINE
  5
5A47
  8
1
 10
41.0
 20
136.0
 30
0.0
 11
41.0
 21
128.0
 31
0.0
  0
LINE
  5
5A48
  8
1
 10
59.0
 20
136.0
 30
0.0
 11
59.0
 21
128.0
 31
0.0
  0
LINE
  5
5A49
  8
1
 10
109.5
 20
132.0
 30
0.0
 11
135.0
 21
132.0
 31
0.0
  0
LINE
  5
5A4A
  8
1
 10
124.0
 20
123.0
 30
0.0
 11
133.5
 21
123.0
 31
0.0
  0
LINE
  5
5A4B
  8
1
 10
124.0
 20
141.0
 30
0.0
 11
133.5
 21
141.0
 31
0.0
  0
ENDSEC
  0
EOF
