  0
SECTION
  2
HEADER
  9
$ACADVER
  1
AC1009
  9
$INSBASE
 10
0.0
 20
0.0
 30
0.0
  9
$EXTMIN
 10
0.0
 20
-2.960436562073669
 30
0.0
  9
$EXTMAX
 10
310.40000000000009
 20
214.7000000000009
 30
0.0
  9
$LIMMIN
 10
0.0
 20
0.0
  9
$LIMMAX
 10
187.5
 20
135.0
  9
$ORTHOMODE
 70
     1
  9
$REGENMODE
 70
     1
  9
$FILLMODE
 70
     1
  9
$QTEXTMODE
 70
     0
  9
$MIRRTEXT
 70
     0
  9
$DRAGMODE
 70
     2
  9
$LTSCALE
 40
5.0
  9
$OSMODE
 70
    37
  9
$ATTMODE
 70
     1
  9
$TEXTSIZE
 40
2.5
  9
$TRACEWID
 40
0.05
  9
$TEXTSTYLE
  7
STANDARD
  9
$CLAYER
  8
0
  9
$CELTYPE
  6
BYLAYER
  9
$CECOLOR
 62
   256
  9
$DIMSCALE
 40
1.0
  9
$DIMASZ
 40
3.0
  9
$DIMEXO
 40
2.0
  9
$DIMDLI
 40
10.0
  9
$DIMRND
 40
0.0
  9
$DIMDLE
 40
0.0
  9
$DIMEXE
 40
2.0
  9
$DIMTP
 40
0.0
  9
$DIMTM
 40
0.0
  9
$DIMTXT
 40
3.0
  9
$DIMCEN
 40
0.09
  9
$DIMTSZ
 40
0.0
  9
$DIMTOL
 70
     0
  9
$DIMLIM
 70
     0
  9
$DIMTIH
 70
     0
  9
$DIMTOH
 70
     0
  9
$DIMSE1
 70
     0
  9
$DIMSE2
 70
     0
  9
$DIMTAD
 70
     1
  9
$DIMZIN
 70
     8
  9
$DIMBLK
  1

  9
$DIMASO
 70
     0
  9
$DIMSHO
 70
     0
  9
$DIMPOST
  1

  9
$DIMAPOST
  1

  9
$DIMALT
 70
     0
  9
$DIMALTD
 70
     2
  9
$DIMALTF
 40
25.399999999999999
  9
$DIMLFAC
 40
1.0
  9
$DIMTOFL
 70
     1
  9
$DIMTVP
 40
1.6000000000000001
  9
$DIMTIX
 70
     1
  9
$DIMSOXD
 70
     0
  9
$DIMSAH
 70
     0
  9
$DIMBLK1
  1

  9
$DIMBLK2
  1

  9
$DIMSTYLE
  2
STANDARD
  9
$DIMCLRD
 70
     0
  9
$DIMCLRE
 70
     0
  9
$DIMCLRT
 70
     0
  9
$DIMTFAC
 40
1.0
  9
$DIMGAP
 40
0.09
  9
$LUNITS
 70
     2
  9
$LUPREC
 70
     2
  9
$SKETCHINC
 40
0.1
  9
$FILLETRAD
 40
0.0
  9
$AUNITS
 70
     0
  9
$AUPREC
 70
     1
  9
$MENU
  1
E:\r13\win\SUPPORT\ACAD
  9
$ELEVATION
 40
0.0
  9
$PELEVATION
 40
0.0
  9
$THICKNESS
 40
0.0
  9
$LIMCHECK
 70
     0
  9
$BLIPMODE
 70
     0
  9
$CHAMFERA
 40
1.6000000000000001
  9
$CHAMFERB
 40
1.6000000000000001
  9
$SKPOLY
 70
     0
  9
$TDCREATE
 40
2449840.5944097228
  9
$TDUPDATE
 40
2457301.615930486
  9
$TDINDWG
 40
0.6051383449
  9
$TDUSRTIMER
 40
0.6051383449
  9
$USRTIMER
 70
     1
  9
$ANGBASE
 50
0.0
  9
$ANGDIR
 70
     0
  9
$PDMODE
 70
     0
  9
$PDSIZE
 40
0.0
  9
$PLINEWID
 40
0.0
  9
$COORDS
 70
     1
  9
$SPLFRAME
 70
     0
  9
$SPLINETYPE
 70
     6
  9
$SPLINESEGS
 70
     8
  9
$ATTDIA
 70
     0
  9
$ATTREQ
 70
     1
  9
$HANDLING
 70
     1
  9
$HANDSEED
  5
4A61
  9
$SURFTAB1
 70
     6
  9
$SURFTAB2
 70
     6
  9
$SURFTYPE
 70
     6
  9
$SURFU
 70
     6
  9
$SURFV
 70
     6
  9
$UCSNAME
  2

  9
$UCSORG
 10
0.0
 20
0.0
 30
0.0
  9
$UCSXDIR
 10
1.0
 20
0.0
 30
0.0
  9
$UCSYDIR
 10
0.0
 20
1.0
 30
0.0
  9
$PUCSNAME
  2

  9
$PUCSORG
 10
0.0
 20
0.0
 30
0.0
  9
$PUCSXDIR
 10
1.0
 20
0.0
 30
0.0
  9
$PUCSYDIR
 10
0.0
 20
1.0
 30
0.0
  9
$USERI1
 70
     0
  9
$USERI2
 70
     1
  9
$USERI3
 70
     1
  9
$USERI4
 70
     0
  9
$USERI5
 70
     0
  9
$USERR1
 40
0.0
  9
$USERR2
 40
0.0
  9
$USERR3
 40
0.0
  9
$USERR4
 40
0.0
  9
$USERR5
 40
0.0
  9
$WORLDVIEW
 70
     1
  9
$SHADEDGE
 70
     3
  9
$SHADEDIF
 70
    70
  9
$TILEMODE
 70
     1
  9
$MAXACTVP
 70
    16
  9
$PLIMCHECK
 70
     0
  9
$PEXTMIN
 10
1.0000000000000000E+020
 20
1.0000000000000000E+020
 30
1.0000000000000000E+020
  9
$PEXTMAX
 10
-1.0000000000000000E+020
 20
-1.0000000000000000E+020
 30
-1.0000000000000000E+020
  9
$PLIMMIN
 10
0.0
 20
0.0
  9
$PLIMMAX
 10
12.0
 20
9.0
  9
$UNITMODE
 70
     0
  9
$VISRETAIN
 70
     0
  9
$PLINEGEN
 70
     0
  9
$PSLTSCALE
 70
     0
  0
ENDSEC
  0
SECTION
  2
TABLES
  0
TABLE
  2
VPORT
 70
     1
  0
VPORT
  2
*ACTIVE
 70
     0
 10
0.0
 20
0.0
 11
1.0
 21
1.0
 12
207.1392920017025
 22
105.867942473992
 13
0.0
 23
0.0
 14
5.0
 24
5.0
 15
5.0
 25
5.0
 16
0.0
 26
0.0
 36
1.0
 17
0.0
 27
0.0
 37
0.0
 40
229.16313864749131
 41
1.816239316239316
 42
50.0
 43
0.0
 44
0.0
 50
0.0
 51
0.0
 71
     0
 72
   100
 73
     1
 74
     0
 75
     0
 76
     0
 77
     0
 78
     0
  0
ENDTAB
  0
TABLE
  2
LTYPE
 70
     3
  0
LTYPE
  2
CONTINUOUS
 70
     0
  3
Solid Line
 72
    65
 73
     0
 40
0.0
  0
LTYPE
  2
CENTER
 70
     0
  3
____ _ ____ _ ____ _ ____ _ ____ _ ____ _ ____
 72
    65
 73
     4
 40
2.0
 49
1.25
 49
-0.25
 49
0.25
 49
-0.25
  0
LTYPE
  2
PHANTOM2
 70
     0
  3
___ _ _ ___ _ _ ___ _ _ ___ _ _
 72
    65
 73
     6
 40
1.25
 49
0.625
 49
-0.125
 49
0.125
 49
-0.125
 49
0.125
 49
-0.125
  0
ENDTAB
  0
TABLE
  2
LAYER
 70
     3
  0
LAYER
  2
0
 70
     0
 62
     7
  6
CONTINUOUS
  0
LAYER
  2
1
 70
     0
 62
     1
  6
CENTER
  0
LAYER
  2
DEFPOINTS
 70
     0
 62
     7
  6
CONTINUOUS
  0
ENDTAB
  0
TABLE
  2
STYLE
 70
     2
  0
STYLE
  2
STANDARD
 70
     0
 40
0.0
 41
1.0
 50
0.0
 71
     0
 42
2.5
  3
TXT
  4
BIGFONT
  0
STYLE
  2
STANDARD1
 70
     0
 40
0.0
 41
1.0
 50
0.0
 71
     0
 42
3.0
  3
txt
  4

  0
ENDTAB
  0
TABLE
  2
VIEW
 70
     1
  0
VIEW
  2
ALL
 70
     0
 40
135.0
 10
110.49579799999999
 20
67.5
 41
0.0
 11
0.0
 21
0.0
 31
1.0
 12
0.0
 22
0.0
 32
0.0
 42
0.0
 43
0.0
 44
0.0
 50
0.0
 71
     0
  0
ENDTAB
  0
TABLE
  2
UCS
 70
     0
  0
ENDTAB
  0
TABLE
  2
APPID
 70
     9
  0
APPID
  2
ACAD
 70
     0
  0
APPID
  2
DCO15
 70
     0
  0
APPID
  2
ACAD_MLEADERVER
 70
     0
  0
APPID
  2
ACAD_EXEMPT_FROM_CAD_STANDARDS
 70
     0
  0
APPID
  2
ACAD_NAV_VCDISPLAY
 70
     0
  0
APPID
  2
ACAD_DSTYLE_DIMRADIAL_EXTENSION
 70
     0
  0
APPID
  2
ACAD_DSTYLE_DIMJAG
 70
     0
  0
APPID
  2
ACAD_DSTYLE_DIMTALN
 70
     0
  0
APPID
  2
ACAD_PSEXT
 70
     0
  0
ENDTAB
  0
TABLE
  2
DIMSTYLE
 70
     1
  0
DIMSTYLE
  2
STANDARD
 70
     0
  3

  4

  5

  6

  7

 40
1.0
 41
0.18
 42
0.0625
 43
0.38
 44
0.18
 45
0.0
 46
0.0
 47
0.0
 48
0.0
140
0.18
141
0.09
142
0.0
143
25.399999999999999
144
1.0
145
0.0
146
1.0
147
0.09
 71
     0
 72
     0
 73
     1
 74
     1
 75
     0
 76
     0
 77
     0
 78
     0
170
     0
171
     2
172
     0
173
     0
174
     0
175
     0
176
     0
177
     0
178
     0
  0
ENDTAB
  0
ENDSEC
  0
SECTION
  2
BLOCKS
  0
BLOCK
  8
0
  2
$MODEL_SPACE
 70
     0
 10
0.0
 20
0.0
 30
0.0
  3
$MODEL_SPACE
  1

  0
ENDBLK
  5
15D
  8
0
  0
BLOCK
 67
     1
  8
0
  2
$PAPER_SPACE
 70
     0
 10
0.0
 20
0.0
 30
0.0
  3
$PAPER_SPACE
  1

  0
ENDBLK
  5
15B
 67
     1
  8
0
  0
ENDSEC
  0
SECTION
  2
ENTITIES
  0
TEXT
  5
13CB
  8
0
 62
     3
 10
0.0
 20
0.0
 30
0.0
 40
10.0
  1
RLT-BRS
  7
STANDARD1
  0
ARC
  5
439A
  8
0
 10
264.19999999999999
 20
119.5
 30
0.0
 40
12.70000000000004
 50
0.0
 51
180.0
  0
LINE
  5
439B
  8
0
 10
249.90000000000009
 20
119.5
 30
0.0
 11
251.5
 21
119.5
 31
0.0
  0
ARC
  5
439C
  8
0
 10
237.19999999999999
 20
119.5
 30
0.0
 40
12.70000000000004
 50
0.0
 51
180.0
  0
LINE
  5
439D
  8
0
 10
222.90000000000009
 20
119.5
 30
0.0
 11
224.5
 21
119.5
 31
0.0
  0
ARC
  5
439E
  8
0
 10
210.19999999999999
 20
119.5
 30
0.0
 40
12.69999999999999
 50
0.0
 51
180.0
  0
LINE
  5
439F
  8
0
 10
195.90000000000009
 20
119.5
 30
0.0
 11
197.50000000000011
 21
119.5
 31
0.0
  0
ARC
  5
43A0
  8
0
 10
183.19999999999999
 20
119.5
 30
0.0
 40
12.70000000000004
 50
0.0
 51
180.0
  0
LINE
  5
43A1
  8
0
 10
168.90000000000009
 20
119.5
 30
0.0
 11
170.5
 21
119.5
 31
0.0
  0
ARC
  5
43A2
  8
0
 10
156.19999999999999
 20
119.5
 30
0.0
 40
12.69999999999999
 50
0.0
 51
180.0
  0
LINE
  5
43A3
  8
0
 10
141.90000000000009
 20
119.5
 30
0.0
 11
143.50000000000011
 21
119.5
 31
0.0
  0
ARC
  5
43A4
  8
0
 10
129.19999999999999
 20
119.5
 30
0.0
 40
12.700000000000021
 50
0.0
 51
200.75243064301739
  0
LINE
  5
43A5
  8
0
 10
115.7318895163428
 20
115.0
 30
0.0
 11
117.32397372855721
 21
115.0
 31
0.0
  0
ARC
  5
43A6
  8
0
 10
129.2000000000005
 20
119.5000000000001
 30
0.0
 40
14.20000000000044
 50
178.60372583698819
 51
198.47563831391309
  0
LINE
  5
43A7
  8
0
 10
123.2
 20
133.69999999999999
 30
0.0
 11
123.2
 21
149.69999999999999
 31
0.0
  0
LINE
  5
43A8
  8
0
 10
291.19999999999999
 20
133.69999999999999
 30
0.0
 11
123.2
 21
133.69999999999999
 31
0.0
  0
ARC
  5
43A9
  8
0
 10
291.19999999999999
 20
119.5
 30
0.0
 40
14.20000000000001
 50
341.52436168608921
 51
90.0
  0
LINE
  5
43AA
  8
0
 10
303.07602627144303
 20
115.0
 30
0.0
 11
304.6681104836573
 21
114.9999999999999
 31
0.0
  0
ARC
  5
43AB
  8
0
 10
291.19999999999999
 20
119.5
 30
0.0
 40
12.70000000000004
 50
339.24756935698332
 51
180.0
  0
LINE
  5
43AC
  8
0
 10
276.90000000000009
 20
119.5
 30
0.0
 11
278.5
 21
119.5
 31
0.0
  0
LINE
  5
43AD
  8
0
 10
115.7318895163428
 20
149.69999999999999
 30
0.0
 11
115.0042163144644
 21
119.84601380533481
 31
0.0
  0
LINE
  5
43AE
  8
0
 10
123.2
 20
149.69999999999999
 30
0.0
 11
115.7318895163428
 21
149.69999999999999
 31
0.0
  0
LINE
  5
43AF
  8
0
 10
301.69952379872552
 20
111.0
 30
0.0
 11
303.4242783557055
 21
111.0
 31
0.0
  0
ARC
  5
43B0
  8
0
 10
301.69952379872552
 20
111.5
 30
0.0
 40
0.5000000000000285
 50
142.6947990342201
 51
270.0
  0
ARC
  5
43B1
  8
0
 10
303.4242783557055
 20
111.3
 30
0.0
 40
0.3000000000000398
 50
270.0
 51
354.55457342670138
  0
ARC
  5
43B2
  8
0
 10
316.26606115316213
 20
110.075820853407
 30
0.0
 40
12.600000000000231
 50
156.99522330337959
 51
174.55457342670061
  0
ARC
  5
43B3
  8
0
 10
291.19999999999999
 20
119.5
 30
0.0
 40
12.69999999999999
 50
322.69479903421541
 51
339.24756935698332
  0
LINE
  5
43B9
  8
0
 10
305.40000000000009
 20
189.70000000000081
 30
0.0
 11
305.40000000000009
 21
214.7000000000009
 31
0.0
  0
LINE
  5
43BA
  8
0
 10
115.0
 20
214.7000000000009
 30
0.0
 11
115.0
 21
189.70000000000081
 31
0.0
  0
LINE
  5
43BB
  8
0
 10
119.2
 20
195.2000000000007
 30
0.0
 11
119.2
 21
209.2000000000007
 31
0.0
  0
LINE
  5
43BC
  8
0
 10
119.2
 20
209.2000000000007
 30
0.0
 11
115.150419330803
 21
209.2000000000007
 31
0.0
  0
LINE
  5
43BD
  8
0
 10
115.7318895163428
 20
214.7000000000007
 30
0.0
 11
115.7318895163428
 21
209.2000000000007
 31
0.0
  0
LINE
  5
43BF
  8
0
 10
123.2
 20
189.70000000000061
 30
0.0
 11
123.2
 21
214.7000000000007
 31
0.0
  0
LINE
  5
43C1
  8
0
 10
115.7318895163428
 20
195.2000000000007
 30
0.0
 11
115.7318895163428
 21
189.70000000000061
 31
0.0
  0
LINE
  5
43C2
  8
0
 10
115.150419330803
 20
195.2000000000007
 30
0.0
 11
119.2
 21
195.2000000000007
 31
0.0
  0
LINE
  5
43CA
  8
0
 10
305.40000000000009
 20
189.70000000000081
 30
0.0
 11
115.0
 21
189.69999999999999
 31
0.0
  0
LINE
  5
43CB
  8
0
 10
305.40000000000009
 20
214.7000000000009
 30
0.0
 11
115.0
 21
214.7000000000001
 31
0.0
  0
LINE
  5
43CF
  8
0
 10
301.19952379872552
 20
68.500000000000028
 30
0.0
 11
301.19952379872552
 21
56.5
 31
0.0
  0
LINE
  5
43D0
  8
0
 10
305.40000000000009
 20
50.0
 30
0.0
 11
305.40000000000009
 21
75.0
 31
0.0
  0
LINE
  5
43D1
  8
0
 10
115.0
 20
75.0
 30
0.0
 11
115.0
 21
50.0
 31
0.0
  0
LINE
  5
43DA
  8
0
 10
304.6681104836573
 20
68.500000000000028
 30
0.0
 11
301.19952379872552
 21
68.500000000000028
 31
0.0
  0
LINE
  5
43DB
  8
0
 10
301.19952379872552
 20
56.5
 30
0.0
 11
304.6681104836573
 21
56.500000000000192
 31
0.0
  0
LINE
  5
43E6
  8
0
 10
141.90000000000009
 20
75.0
 30
0.0
 11
141.90000000000009
 21
74.0
 31
0.0
  0
LINE
  5
43E9
  8
0
 10
141.90000000000009
 20
50.0
 30
0.0
 11
141.90000000000009
 21
51.0
 31
0.0
  0
LINE
  5
43EB
  8
0
 10
117.32397372855721
 20
50.0
 30
0.0
 11
117.32397372855721
 21
75.000000000007276
 31
0.0
  0
LINE
  5
43ED
  8
0
 10
278.5
 20
50.0
 30
0.0
 11
278.5
 21
51.0
 31
0.0
  0
LINE
  5
43EE
  8
0
 10
129.19999999999999
 20
51.000000000000668
 30
0.0
 11
291.19999999999999
 21
50.999999999999943
 31
0.0
  0
LINE
  5
43EF
  8
0
 10
291.19999999999999
 20
73.999999999999943
 30
0.0
 11
129.19999999999999
 21
74.000000000000682
 31
0.0
  0
LINE
  5
43F0
  8
0
 10
278.5
 20
74.0
 30
0.0
 11
278.5
 21
75.0
 31
0.0
  0
LINE
  5
43F2
  8
0
 10
303.07602627144303
 20
75.000000000000028
 30
0.0
 11
303.07602627144303
 21
68.500000000000028
 31
0.0
  0
LINE
  5
43F3
  8
0
 10
303.07602627144303
 20
56.5
 30
0.0
 11
303.07602627144303
 21
50.0
 31
0.0
  0
LINE
  5
43F4
  8
0
 10
304.6681104836573
 20
75.000000000000028
 30
0.0
 11
304.6681104836573
 21
50.000000000000007
 31
0.0
  0
LINE
  5
43F5
  8
0
 10
114.9999999999999
 20
75.000000000007375
 30
0.0
 11
305.40000000000009
 21
75.0
 31
0.0
  0
LINE
  5
43FA
  8
0
 10
115.7318895163428
 20
50.0
 30
0.0
 11
115.7318895163427
 21
75.000000000007361
 31
0.0
  0
LINE
  5
43FC
  8
0
 10
115.0
 20
50.0
 30
0.0
 11
305.40000000000009
 21
50.0
 31
0.0
  0
LINE
  5
4401
  8
0
 10
276.90000000000009
 20
50.0
 30
0.0
 11
276.90000000000009
 21
51.0
 31
0.0
  0
LINE
  5
4404
  8
0
 10
251.5
 20
50.0
 30
0.0
 11
251.5
 21
51.0
 31
0.0
  0
LINE
  5
4408
  8
0
 10
249.90000000000009
 20
50.0
 30
0.0
 11
249.90000000000009
 21
51.0
 31
0.0
  0
LINE
  5
4409
  8
0
 10
224.5
 20
50.0
 30
0.0
 11
224.5
 21
51.0
 31
0.0
  0
LINE
  5
440F
  8
0
 10
168.90000000000009
 20
50.0
 30
0.0
 11
168.90000000000009
 21
51.0
 31
0.0
  0
LINE
  5
4410
  8
0
 10
143.50000000000011
 20
50.0
 30
0.0
 11
143.50000000000011
 21
51.0
 31
0.0
  0
LINE
  5
4416
  8
0
 10
195.90000000000009
 20
50.0
 30
0.0
 11
195.90000000000009
 21
51.0
 31
0.0
  0
LINE
  5
4417
  8
0
 10
170.5
 20
50.0
 30
0.0
 11
170.5
 21
51.0
 31
0.0
  0
LINE
  5
441D
  8
0
 10
197.50000000000011
 20
50.0
 30
0.0
 11
197.50000000000011
 21
51.0
 31
0.0
  0
LINE
  5
4420
  8
0
 10
222.90000000000009
 20
50.0
 30
0.0
 11
222.90000000000009
 21
51.0
 31
0.0
  0
LINE
  5
4425
  8
0
 10
143.50000000000011
 20
74.0
 30
0.0
 11
143.50000000000011
 21
75.0
 31
0.0
  0
LINE
  5
4428
  8
0
 10
276.90000000000009
 20
74.0
 30
0.0
 11
276.90000000000009
 21
75.0
 31
0.0
  0
LINE
  5
442C
  8
0
 10
251.5
 20
74.0
 30
0.0
 11
251.5
 21
75.0
 31
0.0
  0
LINE
  5
442F
  8
0
 10
249.90000000000009
 20
74.0
 30
0.0
 11
249.90000000000009
 21
75.0
 31
0.0
  0
LINE
  5
4433
  8
0
 10
224.5
 20
74.0
 30
0.0
 11
224.5
 21
75.0
 31
0.0
  0
LINE
  5
4437
  8
0
 10
168.90000000000009
 20
74.0
 30
0.0
 11
168.90000000000009
 21
75.0
 31
0.0
  0
LINE
  5
443B
  8
0
 10
170.5
 20
74.0
 30
0.0
 11
170.5
 21
75.0
 31
0.0
  0
LINE
  5
443C
  8
0
 10
195.90000000000009
 20
74.0
 30
0.0
 11
195.90000000000009
 21
75.0
 31
0.0
  0
LINE
  5
4441
  8
0
 10
197.50000000000011
 20
74.0
 30
0.0
 11
197.50000000000011
 21
75.0
 31
0.0
  0
LINE
  5
4445
  8
0
 10
222.90000000000009
 20
74.0
 30
0.0
 11
222.90000000000009
 21
75.0
 31
0.0
  0
LINE
  5
444A
  8
0
 10
143.19999999999999
 20
50.999999999999972
 30
0.0
 11
143.19999999999999
 21
54.499999999999943
 31
0.0
  0
LINE
  5
444B
  8
0
 10
142.19999999999999
 20
50.999999999999972
 30
0.0
 11
142.19999999999999
 21
54.499999999999943
 31
0.0
  0
LINE
  5
444C
  8
0
 10
143.19999999999999
 20
54.499999999999943
 30
0.0
 11
142.19999999999999
 21
54.499999999999943
 31
0.0
  0
LINE
  5
444D
  8
0
 10
224.19999999999999
 20
50.999999999999972
 30
0.0
 11
224.19999999999999
 21
54.499999999999943
 31
0.0
  0
LINE
  5
444E
  8
0
 10
223.2000000000001
 20
50.999999999999972
 30
0.0
 11
223.2000000000001
 21
54.499999999999943
 31
0.0
  0
LINE
  5
444F
  8
0
 10
224.19999999999999
 20
54.499999999999943
 30
0.0
 11
223.2000000000001
 21
54.499999999999943
 31
0.0
  0
LINE
  5
4450
  8
0
 10
197.19999999999999
 20
50.999999999999972
 30
0.0
 11
197.19999999999999
 21
54.499999999999943
 31
0.0
  0
LINE
  5
4451
  8
0
 10
196.19999999999999
 20
50.999999999999972
 30
0.0
 11
196.19999999999999
 21
54.499999999999943
 31
0.0
  0
LINE
  5
4452
  8
0
 10
197.19999999999999
 20
54.499999999999943
 30
0.0
 11
196.19999999999999
 21
54.499999999999943
 31
0.0
  0
LINE
  5
4453
  8
0
 10
278.19999999999999
 20
50.999999999999972
 30
0.0
 11
278.19999999999999
 21
54.499999999999943
 31
0.0
  0
LINE
  5
4454
  8
0
 10
277.2000000000001
 20
50.999999999999972
 30
0.0
 11
277.2000000000001
 21
54.499999999999943
 31
0.0
  0
LINE
  5
4455
  8
0
 10
278.19999999999999
 20
54.499999999999943
 30
0.0
 11
277.2000000000001
 21
54.499999999999943
 31
0.0
  0
LINE
  5
4456
  8
0
 10
170.19999999999999
 20
50.999999999999972
 30
0.0
 11
170.19999999999999
 21
54.499999999999943
 31
0.0
  0
LINE
  5
4457
  8
0
 10
169.19999999999999
 20
50.999999999999972
 30
0.0
 11
169.19999999999999
 21
54.499999999999943
 31
0.0
  0
LINE
  5
4458
  8
0
 10
170.19999999999999
 20
54.499999999999943
 30
0.0
 11
169.19999999999999
 21
54.499999999999943
 31
0.0
  0
LINE
  5
4459
  8
0
 10
251.19999999999999
 20
50.999999999999972
 30
0.0
 11
251.19999999999999
 21
54.499999999999943
 31
0.0
  0
LINE
  5
445A
  8
0
 10
250.2000000000001
 20
50.999999999999972
 30
0.0
 11
250.2000000000001
 21
54.499999999999943
 31
0.0
  0
LINE
  5
445B
  8
0
 10
251.19999999999999
 20
54.499999999999943
 30
0.0
 11
250.2000000000001
 21
54.499999999999943
 31
0.0
  0
LINE
  5
445C
  8
0
 10
143.19999999999999
 20
73.999999999999972
 30
0.0
 11
143.19999999999999
 21
70.499999999999972
 31
0.0
  0
LINE
  5
445D
  8
0
 10
142.19999999999999
 20
70.499999999999972
 30
0.0
 11
143.19999999999999
 21
70.499999999999972
 31
0.0
  0
LINE
  5
445E
  8
0
 10
142.19999999999999
 20
73.999999999999972
 30
0.0
 11
142.19999999999999
 21
70.499999999999972
 31
0.0
  0
LINE
  5
445F
  8
0
 10
197.19999999999999
 20
73.999999999999972
 30
0.0
 11
197.19999999999999
 21
70.499999999999972
 31
0.0
  0
LINE
  5
4460
  8
0
 10
196.19999999999999
 20
70.499999999999972
 30
0.0
 11
197.19999999999999
 21
70.499999999999972
 31
0.0
  0
LINE
  5
4461
  8
0
 10
196.19999999999999
 20
73.999999999999972
 30
0.0
 11
196.19999999999999
 21
70.499999999999972
 31
0.0
  0
LINE
  5
4462
  8
0
 10
170.19999999999999
 20
73.999999999999972
 30
0.0
 11
170.19999999999999
 21
70.499999999999972
 31
0.0
  0
LINE
  5
4463
  8
0
 10
169.19999999999999
 20
70.499999999999972
 30
0.0
 11
170.19999999999999
 21
70.499999999999972
 31
0.0
  0
LINE
  5
4464
  8
0
 10
169.19999999999999
 20
73.999999999999972
 30
0.0
 11
169.19999999999999
 21
70.499999999999972
 31
0.0
  0
LINE
  5
4465
  8
0
 10
278.19999999999999
 20
73.999999999999972
 30
0.0
 11
278.19999999999999
 21
70.499999999999972
 31
0.0
  0
LINE
  5
4466
  8
0
 10
277.2000000000001
 20
70.499999999999972
 30
0.0
 11
278.19999999999999
 21
70.499999999999972
 31
0.0
  0
LINE
  5
4467
  8
0
 10
277.2000000000001
 20
73.999999999999972
 30
0.0
 11
277.2000000000001
 21
70.499999999999972
 31
0.0
  0
LINE
  5
4468
  8
0
 10
224.19999999999999
 20
73.999999999999972
 30
0.0
 11
224.19999999999999
 21
70.499999999999972
 31
0.0
  0
LINE
  5
4469
  8
0
 10
223.2000000000001
 20
70.499999999999972
 30
0.0
 11
224.19999999999999
 21
70.499999999999972
 31
0.0
  0
LINE
  5
446A
  8
0
 10
223.2000000000001
 20
73.999999999999972
 30
0.0
 11
223.2000000000001
 21
70.499999999999972
 31
0.0
  0
LINE
  5
446B
  8
0
 10
251.19999999999999
 20
73.999999999999972
 30
0.0
 11
251.19999999999999
 21
70.499999999999972
 31
0.0
  0
LINE
  5
446C
  8
0
 10
250.2000000000001
 20
70.499999999999972
 30
0.0
 11
251.19999999999999
 21
70.499999999999972
 31
0.0
  0
LINE
  5
446D
  8
0
 10
250.2000000000001
 20
73.999999999999972
 30
0.0
 11
250.2000000000001
 21
70.499999999999972
 31
0.0
  0
LINE
  5
4470
  8
0
 10
50.0
 20
115.0
 30
0.0
 11
75.0
 21
115.0
 31
0.0
  0
LINE
  5
4474
  8
0
 10
50.0
 20
149.69999999999999
 30
0.0
 11
75.0
 21
149.69999999999999
 31
0.0
  0
LINE
  5
4475
  8
0
 10
55.5
 20
149.69999999999999
 30
0.0
 11
55.5
 21
125.84423226401169
 31
0.0
  0
LINE
  5
4476
  8
0
 10
55.5
 20
125.84423226401169
 30
0.0
 11
69.5
 21
125.84423226401169
 31
0.0
  0
LINE
  5
4477
  8
0
 10
69.5
 20
125.84423226401169
 30
0.0
 11
69.5
 21
149.69999999999999
 31
0.0
  0
LINE
  5
4478
  8
0
 10
75.0
 20
149.69999999999999
 30
0.0
 11
75.0
 21
115.0
 31
0.0
  0
LINE
  5
4479
  8
0
 10
50.0
 20
149.69999999999999
 30
0.0
 11
50.0
 21
115.0
 31
0.0
  0
LINE
  5
447D
  8
0
 10
56.5
 20
111.0
 30
0.0
 11
68.5
 21
111.0
 31
0.0
  0
LINE
  5
447E
  8
0
 10
68.5
 20
115.0
 30
0.0
 11
68.5
 21
111.0
 31
0.0
  0
LINE
  5
447F
  8
0
 10
56.5
 20
115.0
 30
0.0
 11
56.5
 21
111.0
 31
0.0
  0
LINE
  5
4844
  8
1
 10
110.0
 20
202.20000000000081
 30
0.0
 11
310.40000000000009
 21
202.20000000000081
 31
0.0
  0
LINE
  5
4845
  8
1
 10
310.40000000000009
 20
62.5
 30
0.0
 11
110.0
 21
62.5
 31
0.0
  0
LINE
  5
4846
  8
1
 10
110.0
 20
119.5
 30
0.0
 11
310.40000000000009
 21
119.5
 31
0.0
  0
LINE
  5
4847
  8
1
 10
62.5
 20
154.69999999999999
 30
0.0
 11
62.5
 21
106.0
 31
0.0
  0
LINE
  5
48F0
  8
1
 10
129.19999999999999
 20
136.69999999999999
 30
0.0
 11
129.19999999999999
 21
112.0
 31
0.0
  0
LINE
  5
48F1
  8
1
 10
156.19999999999999
 20
136.69999999999999
 30
0.0
 11
156.19999999999999
 21
112.0
 31
0.0
  0
LINE
  5
48F2
  8
1
 10
183.19999999999999
 20
136.69999999999999
 30
0.0
 11
183.19999999999999
 21
112.0
 31
0.0
  0
LINE
  5
48F3
  8
1
 10
210.19999999999999
 20
136.69999999999999
 30
0.0
 11
210.19999999999999
 21
112.0
 31
0.0
  0
LINE
  5
48F4
  8
1
 10
237.19999999999999
 20
136.69999999999999
 30
0.0
 11
237.19999999999999
 21
112.0
 31
0.0
  0
LINE
  5
48F5
  8
1
 10
264.19999999999999
 20
136.69999999999999
 30
0.0
 11
264.19999999999999
 21
112.0
 31
0.0
  0
LINE
  5
48F6
  8
1
 10
291.19999999999999
 20
136.69999999999999
 30
0.0
 11
291.19999999999999
 21
112.0
 31
0.0
  0
LINE
  5
49D2
  8
0
 10
129.19999999999999
 20
74.000000000000682
 30
0.0
 11
129.2000000000001
 21
75.000000000006835
 31
0.0
  0
LINE
  5
49D3
  8
0
 10
129.19999999999999
 20
51.000000000000668
 30
0.0
 11
129.19999999999999
 21
50.0
 31
0.0
  0
LINE
  5
49D4
  8
0
 10
291.19999999999999
 20
74.000000000000682
 30
0.0
 11
291.19999999999999
 21
75.000000000006835
 31
0.0
  0
LINE
  5
49D5
  8
0
 10
291.19999999999999
 20
51.000000000000668
 30
0.0
 11
291.19999999999999
 21
50.0
 31
0.0
  0
ENDSEC
  0
EOF
