  0
SECTION
  2
HEADER
  9
$ACADVER
  1
AC1009
  9
$INSBASE
 10
0.0
 20
0.0
 30
0.0
  9
$EXTMIN
 10
0.0
 20
-2.960436562073669
 30
0.0
  9
$EXTMAX
 10
140.65000000000001
 20
131.5
 30
0.0
  9
$LIMMIN
 10
0.0
 20
0.0
  9
$LIMMAX
 10
187.5
 20
135.0
  9
$ORTHOMODE
 70
     1
  9
$REGENMODE
 70
     1
  9
$FILLMODE
 70
     1
  9
$QTEXTMODE
 70
     0
  9
$MIRRTEXT
 70
     0
  9
$DRAGMODE
 70
     2
  9
$LTSCALE
 40
2.0
  9
$OSMODE
 70
    37
  9
$ATTMODE
 70
     1
  9
$TEXTSIZE
 40
2.5
  9
$TRACEWID
 40
0.05
  9
$TEXTSTYLE
  7
STANDARD
  9
$CLAYER
  8
0
  9
$CELTYPE
  6
BYLAYER
  9
$CECOLOR
 62
   256
  9
$DIMSCALE
 40
1.0
  9
$DIMASZ
 40
3.0
  9
$DIMEXO
 40
2.0
  9
$DIMDLI
 40
10.0
  9
$DIMRND
 40
0.0
  9
$DIMDLE
 40
0.0
  9
$DIMEXE
 40
2.0
  9
$DIMTP
 40
0.0
  9
$DIMTM
 40
0.0
  9
$DIMTXT
 40
3.0
  9
$DIMCEN
 40
0.09
  9
$DIMTSZ
 40
0.0
  9
$DIMTOL
 70
     0
  9
$DIMLIM
 70
     0
  9
$DIMTIH
 70
     0
  9
$DIMTOH
 70
     0
  9
$DIMSE1
 70
     0
  9
$DIMSE2
 70
     0
  9
$DIMTAD
 70
     1
  9
$DIMZIN
 70
     0
  9
$DIMBLK
  1

  9
$DIMASO
 70
     0
  9
$DIMSHO
 70
     0
  9
$DIMPOST
  1

  9
$DIMAPOST
  1

  9
$DIMALT
 70
     0
  9
$DIMALTD
 70
     2
  9
$DIMALTF
 40
25.399999999999999
  9
$DIMLFAC
 40
1.0
  9
$DIMTOFL
 70
     1
  9
$DIMTVP
 40
1.6000000000000001
  9
$DIMTIX
 70
     1
  9
$DIMSOXD
 70
     0
  9
$DIMSAH
 70
     0
  9
$DIMBLK1
  1

  9
$DIMBLK2
  1

  9
$DIMSTYLE
  2
STANDARD
  9
$DIMCLRD
 70
     0
  9
$DIMCLRE
 70
     0
  9
$DIMCLRT
 70
     0
  9
$DIMTFAC
 40
1.0
  9
$DIMGAP
 40
0.09
  9
$LUNITS
 70
     2
  9
$LUPREC
 70
     1
  9
$SKETCHINC
 40
0.1
  9
$FILLETRAD
 40
0.0
  9
$AUNITS
 70
     0
  9
$AUPREC
 70
     0
  9
$MENU
  1
E:\r13\win\SUPPORT\ACAD
  9
$ELEVATION
 40
0.0
  9
$PELEVATION
 40
0.0
  9
$THICKNESS
 40
0.0
  9
$LIMCHECK
 70
     0
  9
$BLIPMODE
 70
     0
  9
$CHAMFERA
 40
1.6000000000000001
  9
$CHAMFERB
 40
1.6000000000000001
  9
$SKPOLY
 70
     0
  9
$TDCREATE
 40
2449840.5944097228
  9
$TDUPDATE
 40
2457427.4352915739
  9
$TDINDWG
 40
0.2835568981
  9
$TDUSRTIMER
 40
0.2835568981
  9
$USRTIMER
 70
     1
  9
$ANGBASE
 50
0.0
  9
$ANGDIR
 70
     0
  9
$PDMODE
 70
     0
  9
$PDSIZE
 40
0.0
  9
$PLINEWID
 40
0.0
  9
$COORDS
 70
     1
  9
$SPLFRAME
 70
     0
  9
$SPLINETYPE
 70
     6
  9
$SPLINESEGS
 70
     8
  9
$ATTDIA
 70
     0
  9
$ATTREQ
 70
     1
  9
$HANDLING
 70
     1
  9
$HANDSEED
  5
2934
  9
$SURFTAB1
 70
     6
  9
$SURFTAB2
 70
     6
  9
$SURFTYPE
 70
     6
  9
$SURFU
 70
     6
  9
$SURFV
 70
     6
  9
$UCSNAME
  2

  9
$UCSORG
 10
0.0
 20
0.0
 30
0.0
  9
$UCSXDIR
 10
1.0
 20
0.0
 30
0.0
  9
$UCSYDIR
 10
0.0
 20
1.0
 30
0.0
  9
$PUCSNAME
  2

  9
$PUCSORG
 10
0.0
 20
0.0
 30
0.0
  9
$PUCSXDIR
 10
1.0
 20
0.0
 30
0.0
  9
$PUCSYDIR
 10
0.0
 20
1.0
 30
0.0
  9
$USERI1
 70
     0
  9
$USERI2
 70
     1
  9
$USERI3
 70
     1
  9
$USERI4
 70
     0
  9
$USERI5
 70
     0
  9
$USERR1
 40
0.0
  9
$USERR2
 40
0.0
  9
$USERR3
 40
0.0
  9
$USERR4
 40
0.0
  9
$USERR5
 40
0.0
  9
$WORLDVIEW
 70
     1
  9
$SHADEDGE
 70
     3
  9
$SHADEDIF
 70
    70
  9
$TILEMODE
 70
     1
  9
$MAXACTVP
 70
    16
  9
$PLIMCHECK
 70
     0
  9
$PEXTMIN
 10
1.0000000000000000E+020
 20
1.0000000000000000E+020
 30
1.0000000000000000E+020
  9
$PEXTMAX
 10
-1.0000000000000000E+020
 20
-1.0000000000000000E+020
 30
-1.0000000000000000E+020
  9
$PLIMMIN
 10
0.0
 20
0.0
  9
$PLIMMAX
 10
12.0
 20
9.0
  9
$UNITMODE
 70
     0
  9
$VISRETAIN
 70
     0
  9
$PLINEGEN
 70
     0
  9
$PSLTSCALE
 70
     0
  0
ENDSEC
  0
SECTION
  2
TABLES
  0
TABLE
  2
VPORT
 70
     1
  0
VPORT
  2
*ACTIVE
 70
     0
 10
0.0
 20
0.0
 11
1.0
 21
1.0
 12
172.54273504273499
 22
95.0
 13
0.0
 23
0.0
 14
5.0
 24
5.0
 15
5.0
 25
5.0
 16
0.0
 26
0.0
 36
1.0
 17
0.0
 27
0.0
 37
0.0
 40
190.0
 41
1.816239316239316
 42
50.0
 43
0.0
 44
0.0
 50
0.0
 51
0.0
 71
     0
 72
   100
 73
     1
 74
     0
 75
     0
 76
     0
 77
     0
 78
     0
  0
ENDTAB
  0
TABLE
  2
LTYPE
 70
     4
  0
LTYPE
  2
CONTINUOUS
 70
     0
  3
Solid Line
 72
    65
 73
     0
 40
0.0
  0
LTYPE
  2
CENTER
 70
     0
  3
____ _ ____ _ ____ _ ____ _ ____ _ ____ _ ____
 72
    65
 73
     4
 40
2.0
 49
1.25
 49
-0.25
 49
0.25
 49
-0.25
  0
LTYPE
  2
PHANTOM2
 70
     0
  3
___ _ _ ___ _ _ ___ _ _ ___ _ _
 72
    65
 73
     6
 40
1.25
 49
0.625
 49
-0.125
 49
0.125
 49
-0.125
 49
0.125
 49
-0.125
  0
LTYPE
  2
HIDDEN
 70
     0
  3
Hidden __ __ __ __ __ __ __ __ __ __ __ __ __ __
 72
    65
 73
     2
 40
1.905
 49
1.27
 49
-0.635
  0
ENDTAB
  0
TABLE
  2
LAYER
 70
     4
  0
LAYER
  2
0
 70
     0
 62
     7
  6
CONTINUOUS
  0
LAYER
  2
1
 70
     0
 62
     1
  6
CENTER
  0
LAYER
  2
DEFPOINTS
 70
     0
 62
     7
  6
CONTINUOUS
  0
LAYER
  2
2
 70
     0
 62
     2
  6
HIDDEN
  0
ENDTAB
  0
TABLE
  2
STYLE
 70
     2
  0
STYLE
  2
STANDARD
 70
     0
 40
0.0
 41
1.0
 50
0.0
 71
     0
 42
2.5
  3
TXT
  4
BIGFONT
  0
STYLE
  2
STANDARD1
 70
     0
 40
0.0
 41
1.0
 50
0.0
 71
     0
 42
3.0
  3
txt
  4

  0
ENDTAB
  0
TABLE
  2
VIEW
 70
     1
  0
VIEW
  2
ALL
 70
     0
 40
135.0
 10
110.49579799999999
 20
67.5
 41
0.0
 11
0.0
 21
0.0
 31
1.0
 12
0.0
 22
0.0
 32
0.0
 42
0.0
 43
0.0
 44
0.0
 50
0.0
 71
     0
  0
ENDTAB
  0
TABLE
  2
UCS
 70
     0
  0
ENDTAB
  0
TABLE
  2
APPID
 70
     8
  0
APPID
  2
ACAD
 70
     0
  0
APPID
  2
DCO15
 70
     0
  0
APPID
  2
ACAD_MLEADERVER
 70
     0
  0
APPID
  2
ACAD_EXEMPT_FROM_CAD_STANDARDS
 70
     0
  0
APPID
  2
ACAD_NAV_VCDISPLAY
 70
     0
  0
APPID
  2
ACAD_DSTYLE_DIMRADIAL_EXTENSION
 70
     0
  0
APPID
  2
ACAD_DSTYLE_DIMJAG
 70
     0
  0
APPID
  2
ACAD_DSTYLE_DIMTALN
 70
     0
  0
ENDTAB
  0
TABLE
  2
DIMSTYLE
 70
     1
  0
DIMSTYLE
  2
STANDARD
 70
     0
  3

  4

  5

  6

  7

 40
1.0
 41
0.18
 42
0.0625
 43
0.38
 44
0.18
 45
0.0
 46
0.0
 47
0.0
 48
0.0
140
0.18
141
0.09
142
0.0
143
25.399999999999999
144
1.0
145
0.0
146
1.0
147
0.09
 71
     0
 72
     0
 73
     1
 74
     1
 75
     0
 76
     0
 77
     0
 78
     0
170
     0
171
     2
172
     0
173
     0
174
     0
175
     0
176
     0
177
     0
178
     0
  0
ENDTAB
  0
ENDSEC
  0
SECTION
  2
BLOCKS
  0
BLOCK
  8
0
  2
$MODEL_SPACE
 70
     0
 10
0.0
 20
0.0
 30
0.0
  3
$MODEL_SPACE
  1

  0
ENDBLK
  5
15D
  8
0
  0
BLOCK
 67
     1
  8
0
  2
$PAPER_SPACE
 70
     0
 10
0.0
 20
0.0
 30
0.0
  3
$PAPER_SPACE
  1

  0
ENDBLK
  5
15B
 67
     1
  8
0
  0
ENDSEC
  0
SECTION
  2
ENTITIES
  0
TEXT
  5
13CB
  8
0
 62
     3
 10
0.0
 20
0.0
 30
0.0
 40
10.0
  1
RLT-CAP-J
  7
STANDARD1
  0
LINE
  5
22B8
  8
0
 10
139.99999999999989
 20
65.5
 30
0.0
 11
139.99999999999989
 21
76.000000000000057
 31
0.0
  0
ARC
  5
22B9
  8
0
 10
139.5
 20
65.5
 30
0.0
 40
0.5
 50
270.0
 51
0.0
  0
ARC
  5
22BA
  8
0
 10
138.5
 20
64.5
 30
0.0
 40
0.5
 50
90.0
 51
180.0
  0
LINE
  5
22BB
  8
0
 10
137.99999999999989
 20
50.499999999999943
 30
0.0
 11
137.99999999999989
 21
64.5
 31
0.0
  0
LINE
  5
22BC
  8
0
 10
106.0
 20
64.5
 30
0.0
 11
106.0
 21
50.499999999999488
 31
0.0
  0
ARC
  5
22BD
  8
0
 10
105.5
 20
64.5
 30
0.0
 40
0.5
 50
0.0
 51
90.0
  0
LINE
  5
22BE
  8
0
 10
104.0
 20
75.999999999991473
 30
0.0
 11
104.0
 21
65.5
 31
0.0
  0
ARC
  5
22BF
  8
0
 10
104.5
 20
65.5
 30
0.0
 40
0.5
 50
180.0
 51
270.0
  0
LINE
  5
22C2
  8
0
 10
104.5
 20
65.0
 30
0.0
 11
105.5
 21
65.0
 31
0.0
  0
LINE
  5
22C3
  8
0
 10
138.5
 20
65.0
 30
0.0
 11
139.5
 21
65.0
 31
0.0
  0
LINE
  5
22C4
  8
0
 10
106.5
 20
50.0
 30
0.0
 11
137.5
 21
50.0
 31
0.0
  0
ARC
  5
22C5
  8
0
 10
106.4999999999995
 20
50.499999999999488
 30
0.0
 40
0.4999999999995311
 50
179.99999999994461
 51
270.00000000005531
  0
ARC
  5
22C8
  8
0
 10
137.5
 20
50.499999999999943
 30
0.0
 40
0.4999999999999574
 50
269.99999999999682
 51
0.0000000000065138
  0
LINE
  5
22C9
  8
0
 10
139.5
 20
76.5
 30
0.0
 11
104.5
 21
76.5
 31
0.0
  0
ARC
  5
22CA
  8
0
 10
139.5
 20
76.000000000000057
 30
0.0
 40
0.4999999999999716
 50
359.99999999999682
 51
90.000000000003254
  0
ARC
  5
22CB
  8
0
 10
104.50000000000431
 20
75.999999999991473
 30
0.0
 40
0.5000000000085408
 50
90.000000000491795
 51
179.9999999986712
  0
CIRCLE
  5
22CE
  8
0
 10
134.75
 20
58.25
 30
0.0
 40
1.5
  0
CIRCLE
  5
22CF
  8
0
 10
109.25
 20
58.25
 30
0.0
 40
1.5
  0
LINE
  5
22DF
  8
0
 10
104.0
 20
122.5
 30
0.0
 11
103.99999999999559
 21
116.5
 31
0.0
  0
LINE
  5
22E2
  8
0
 10
139.99999999999989
 20
116.5
 30
0.0
 11
139.99999999999989
 21
122.5
 31
0.0
  0
LINE
  5
22E4
  8
0
 10
104.0
 20
122.5
 30
0.0
 11
140.0
 21
122.4999999999999
 31
0.0
  0
LINE
  5
22E6
  8
0
 10
104.0
 20
116.5
 30
0.0
 11
139.99999999999989
 21
116.5
 31
0.0
  0
LINE
  5
22EC
  8
0
 10
135.99999999999989
 20
130.5
 30
0.0
 11
133.99999999999989
 21
130.5
 31
0.0
  0
LINE
  5
22ED
  8
0
 10
135.99999999999989
 20
122.4999999999999
 30
0.0
 11
135.99999999999989
 21
130.5
 31
0.0
  0
LINE
  5
22EE
  8
0
 10
133.99999999999989
 20
122.4999999999999
 30
0.0
 11
133.99999999999989
 21
130.5
 31
0.0
  0
LINE
  5
22EF
  8
0
 10
108.0
 20
130.5
 30
0.0
 11
109.9999999999999
 21
130.5
 31
0.0
  0
LINE
  5
22F0
  8
0
 10
109.9999999999999
 20
122.4999999999999
 30
0.0
 11
109.9999999999999
 21
130.5
 31
0.0
  0
LINE
  5
22F1
  8
0
 10
108.0
 20
130.5
 30
0.0
 11
108.0
 21
122.4999999999999
 31
0.0
  0
LINE
  5
22F4
  8
0
 10
126.0
 20
126.5
 30
0.0
 11
117.9999999999999
 21
126.5
 31
0.0
  0
LINE
  5
22F5
  8
0
 10
117.9999999999999
 20
122.4999999999999
 30
0.0
 11
117.9999999999999
 21
126.5
 31
0.0
  0
LINE
  5
22F6
  8
0
 10
126.0
 20
122.4999999999999
 30
0.0
 11
126.0
 21
126.5
 31
0.0
  0
LINE
  5
22F9
  8
2
 10
112.15000000000001
 20
121.0
 30
0.0
 11
106.34999999999999
 21
120.9999999999999
 31
0.0
  0
LINE
  5
22FA
  8
2
 10
137.65000000000001
 20
121.0
 30
0.0
 11
131.84999999999999
 21
121.0
 31
0.0
  0
LINE
  5
22FD
  8
2
 10
112.15000000000001
 20
116.5
 30
0.0
 11
112.15000000000001
 21
121.0
 31
0.0
  0
LINE
  5
22FE
  8
2
 10
106.34999999999999
 20
120.9999999999999
 30
0.0
 11
106.34999999999999
 21
116.5
 31
0.0
  0
LINE
  5
22FF
  8
2
 10
137.65000000000001
 20
116.5
 30
0.0
 11
137.65000000000001
 21
121.0
 31
0.0
  0
LINE
  5
2300
  8
2
 10
131.84999999999999
 20
121.0
 30
0.0
 11
131.84999999999999
 21
116.5
 31
0.0
  0
LINE
  5
2301
  8
2
 10
110.75
 20
121.0
 30
0.0
 11
110.75
 21
122.5
 31
0.0
  0
LINE
  5
2302
  8
2
 10
107.75
 20
122.5
 30
0.0
 11
107.75
 21
121.0
 31
0.0
  0
LINE
  5
2303
  8
2
 10
136.25
 20
121.0
 30
0.0
 11
136.25
 21
122.5
 31
0.0
  0
LINE
  5
2304
  8
2
 10
133.25
 20
122.5
 30
0.0
 11
133.25
 21
121.0
 31
0.0
  0
ARC
  5
2338
  8
0
 10
62.999999999994969
 20
75.499999999985064
 30
0.0
 40
1.0000000000149489
 50
30.000000000699409
 51
89.999999999710155
  0
LINE
  5
233A
  8
0
 10
63.0
 20
76.500000000000014
 30
0.0
 11
58.0
 21
76.500000000000014
 31
0.0
  0
LINE
  5
233B
  8
0
 10
64.0
 20
75.500000000000014
 30
0.0
 11
64.0
 21
51.000000000000007
 31
0.0
  0
LINE
  5
233C
  8
0
 10
58.0
 20
50.000000000000007
 30
0.0
 11
58.0
 21
76.500000000000071
 31
0.0
  0
ARC
  5
233D
  8
0
 10
63.0
 20
75.500000000000014
 30
0.0
 40
1.0000000000031
 50
0.0
 51
30.00000000010154
  0
LINE
  5
233F
  8
0
 10
58.0
 20
65.000000000000014
 30
0.0
 11
64.0
 21
65.000000000000014
 31
0.0
  0
ARC
  5
2343
  8
0
 10
63.000000000000433
 20
50.999999999999332
 30
0.0
 40
0.9999999999993036
 50
269.99999999997721
 51
330.0000000000224
  0
LINE
  5
2344
  8
0
 10
58.0
 20
50.000000000000007
 30
0.0
 11
63.0
 21
50.000000000000007
 31
0.0
  0
ARC
  5
2346
  8
0
 10
63.0
 20
51.000000000000007
 30
0.0
 40
1.0
 50
329.99999999999989
 51
0.0
  0
ARC
  5
2349
  8
0
 10
51.0
 20
64.250000000000014
 30
0.0
 40
1.0
 50
90.0
 51
180.0
  0
LINE
  5
234A
  8
0
 10
58.0
 20
65.250000000000014
 30
0.0
 11
51.0
 21
65.250000000000014
 31
0.0
  0
LINE
  5
234B
  8
0
 10
51.0
 20
60.250000000000021
 30
0.0
 11
58.0
 21
60.250000000000021
 31
0.0
  0
ARC
  5
234C
  8
0
 10
51.0
 20
61.250000000000007
 30
0.0
 40
1.0
 50
180.0
 51
270.0
  0
LINE
  5
234D
  8
0
 10
50.0
 20
64.250000000000014
 30
0.0
 11
50.0
 21
61.250000000000007
 31
0.0
  0
ARC
  5
234E
  8
0
 10
54.999999999999972
 20
54.250000000000007
 30
0.0
 40
1.0000000000000071
 50
90.0
 51
180.0
  0
LINE
  5
234F
  8
0
 10
57.999999999999972
 20
55.250000000000021
 30
0.0
 11
54.999999999999972
 21
55.250000000000021
 31
0.0
  0
LINE
  5
2350
  8
0
 10
54.999999999999972
 20
52.250000000000007
 30
0.0
 11
57.999999999999972
 21
52.250000000000007
 31
0.0
  0
ARC
  5
2351
  8
0
 10
54.999999999999972
 20
53.250000000000007
 30
0.0
 40
1.0
 50
180.0
 51
270.0
  0
LINE
  5
2352
  8
0
 10
53.99999999999995
 20
54.250000000000007
 30
0.0
 11
53.999999999999972
 21
53.250000000000007
 31
0.0
  0
LINE
  5
2353
  8
2
 10
59.5
 20
61.149999999999999
 30
0.0
 11
59.5
 21
55.350000000000001
 31
0.0
  0
LINE
  5
2354
  8
2
 10
63.999999999999972
 20
61.149999999999999
 30
0.0
 11
59.5
 21
61.149999999999999
 31
0.0
  0
LINE
  5
2355
  8
2
 10
59.5
 20
55.350000000000001
 30
0.0
 11
63.999999999999972
 21
55.350000000000001
 31
0.0
  0
LINE
  5
2356
  8
2
 10
59.5
 20
59.750000000000007
 30
0.0
 11
57.999999999999972
 21
59.750000000000007
 31
0.0
  0
LINE
  5
2357
  8
2
 10
57.999999999999972
 20
56.750000000000007
 30
0.0
 11
59.5
 21
56.750000000000007
 31
0.0
  0
LINE
  5
238F
  8
1
 10
115.15000000000001
 20
58.25
 30
0.0
 11
103.34999999999999
 21
58.25
 31
0.0
  0
LINE
  5
2390
  8
1
 10
109.25
 20
64.150000000000006
 30
0.0
 11
109.25
 21
52.350000000000001
 31
0.0
  0
LINE
  5
2397
  8
1
 10
140.65000000000001
 20
58.25
 30
0.0
 11
128.84999999999999
 21
58.25
 31
0.0
  0
LINE
  5
2398
  8
1
 10
134.75
 20
64.150000000000006
 30
0.0
 11
134.75
 21
52.350000000000001
 31
0.0
  0
LINE
  5
257B
  8
1
 10
121.9999999999999
 20
45.0
 30
0.0
 11
121.9999999999999
 21
81.5
 31
0.0
  0
LINE
  5
2580
  8
1
 10
121.9999999999999
 20
111.5
 30
0.0
 11
121.9999999999999
 21
131.5
 31
0.0
  0
LINE
  5
25CA
  8
1
 10
134.75
 20
125.4999999999999
 30
0.0
 11
134.75
 21
113.5
 31
0.0
  0
LINE
  5
25CB
  8
1
 10
109.25
 20
125.4999999999999
 30
0.0
 11
109.25
 21
113.5
 31
0.0
  0
LINE
  5
25CE
  8
1
 10
67.0
 20
58.25
 30
0.0
 11
55.0
 21
58.249999999999993
 31
0.0
  0
CIRCLE
  5
2725
  8
0
 10
109.25
 20
58.25
 30
0.0
 40
2.8999999999999999
  0
CIRCLE
  5
2726
  8
0
 10
134.75
 20
58.25
 30
0.0
 40
2.8999999999999999
  0
ENDSEC
  0
EOF
