  0
SECTION
  2
HEADER
  9
$ACADVER
  1
AC1009
  9
$INSBASE
 10
0.0
 20
0.0
 30
0.0
  9
$EXTMIN
 10
0.0
 20
-2.960436562073669
 30
0.0
  9
$EXTMAX
 10
396.72521092472698
 20
174.3509481432921007
 30
0.0
  9
$LIMMIN
 10
0.0
 20
0.0
  9
$LIMMAX
 10
187.5
 20
135.0
  9
$ORTHOMODE
 70
     1
  9
$REGENMODE
 70
     1
  9
$FILLMODE
 70
     1
  9
$QTEXTMODE
 70
     0
  9
$MIRRTEXT
 70
     0
  9
$DRAGMODE
 70
     2
  9
$LTSCALE
 40
10.0
  9
$OSMODE
 70
    37
  9
$ATTMODE
 70
     1
  9
$TEXTSIZE
 40
2.5
  9
$TRACEWID
 40
0.05
  9
$TEXTSTYLE
  7
STANDARD
  9
$CLAYER
  8
0
  9
$CELTYPE
  6
BYLAYER
  9
$CECOLOR
 62
   256
  9
$DIMSCALE
 40
0.5
  9
$DIMASZ
 40
3.0
  9
$DIMEXO
 40
2.0
  9
$DIMDLI
 40
10.0
  9
$DIMRND
 40
0.0
  9
$DIMDLE
 40
0.0
  9
$DIMEXE
 40
2.0
  9
$DIMTP
 40
0.0
  9
$DIMTM
 40
0.0
  9
$DIMTXT
 40
3.0
  9
$DIMCEN
 40
0.09
  9
$DIMTSZ
 40
0.0
  9
$DIMTOL
 70
     0
  9
$DIMLIM
 70
     0
  9
$DIMTIH
 70
     0
  9
$DIMTOH
 70
     0
  9
$DIMSE1
 70
     0
  9
$DIMSE2
 70
     0
  9
$DIMTAD
 70
     1
  9
$DIMZIN
 70
     0
  9
$DIMBLK
  1

  9
$DIMASO
 70
     0
  9
$DIMSHO
 70
     0
  9
$DIMPOST
  1

  9
$DIMAPOST
  1

  9
$DIMALT
 70
     0
  9
$DIMALTD
 70
     2
  9
$DIMALTF
 40
25.3999999999999986
  9
$DIMLFAC
 40
1.0
  9
$DIMTOFL
 70
     1
  9
$DIMTVP
 40
1.6000000000000001
  9
$DIMTIX
 70
     1
  9
$DIMSOXD
 70
     0
  9
$DIMSAH
 70
     0
  9
$DIMBLK1
  1

  9
$DIMBLK2
  1

  9
$DIMSTYLE
  2
STANDARD
  9
$DIMCLRD
 70
     0
  9
$DIMCLRE
 70
     0
  9
$DIMCLRT
 70
     0
  9
$DIMTFAC
 40
1.0
  9
$DIMGAP
 40
0.09
  9
$LUNITS
 70
     2
  9
$LUPREC
 70
     1
  9
$SKETCHINC
 40
0.1
  9
$FILLETRAD
 40
0.0
  9
$AUNITS
 70
     0
  9
$AUPREC
 70
     1
  9
$MENU
  1
E:\r13\win\SUPPORT\ACAD
  9
$ELEVATION
 40
0.0
  9
$PELEVATION
 40
0.0
  9
$THICKNESS
 40
0.0
  9
$LIMCHECK
 70
     0
  9
$BLIPMODE
 70
     0
  9
$CHAMFERA
 40
1.6000000000000001
  9
$CHAMFERB
 40
1.6000000000000001
  9
$SKPOLY
 70
     0
  9
$TDCREATE
 40
2449840.5944097228348255
  9
$TDUPDATE
 40
2460095.4364930549636483
  9
$TDINDWG
 40
0.2581570139
  9
$TDUSRTIMER
 40
0.2581570139
  9
$USRTIMER
 70
     1
  9
$ANGBASE
 50
0.0
  9
$ANGDIR
 70
     0
  9
$PDMODE
 70
     0
  9
$PDSIZE
 40
0.0
  9
$PLINEWID
 40
0.0
  9
$COORDS
 70
     1
  9
$SPLFRAME
 70
     0
  9
$SPLINETYPE
 70
     6
  9
$SPLINESEGS
 70
     8
  9
$ATTDIA
 70
     1
  9
$ATTREQ
 70
     1
  9
$HANDLING
 70
     1
  9
$HANDSEED
  5
6BB5
  9
$SURFTAB1
 70
     6
  9
$SURFTAB2
 70
     6
  9
$SURFTYPE
 70
     6
  9
$SURFU
 70
     6
  9
$SURFV
 70
     6
  9
$UCSNAME
  2

  9
$UCSORG
 10
0.0
 20
0.0
 30
0.0
  9
$UCSXDIR
 10
1.0
 20
0.0
 30
0.0
  9
$UCSYDIR
 10
0.0
 20
1.0
 30
0.0
  9
$PUCSNAME
  2

  9
$PUCSORG
 10
0.0
 20
0.0
 30
0.0
  9
$PUCSXDIR
 10
1.0
 20
0.0
 30
0.0
  9
$PUCSYDIR
 10
0.0
 20
1.0
 30
0.0
  9
$USERI1
 70
     0
  9
$USERI2
 70
     1
  9
$USERI3
 70
     1
  9
$USERI4
 70
     0
  9
$USERI5
 70
     0
  9
$USERR1
 40
0.0
  9
$USERR2
 40
0.0
  9
$USERR3
 40
0.0
  9
$USERR4
 40
0.0
  9
$USERR5
 40
0.0
  9
$WORLDVIEW
 70
     1
  9
$SHADEDGE
 70
     3
  9
$SHADEDIF
 70
    70
  9
$TILEMODE
 70
     1
  9
$MAXACTVP
 70
    16
  9
$PLIMCHECK
 70
     0
  9
$PEXTMIN
 10
1.0000000000000000E+20
 20
1.0000000000000000E+20
 30
1.0000000000000000E+20
  9
$PEXTMAX
 10
-1.0000000000000000E+20
 20
-1.0000000000000000E+20
 30
-1.0000000000000000E+20
  9
$PLIMMIN
 10
0.0
 20
0.0
  9
$PLIMMAX
 10
12.0
 20
9.0
  9
$UNITMODE
 70
     0
  9
$VISRETAIN
 70
     0
  9
$PLINEGEN
 70
     0
  9
$PSLTSCALE
 70
     0
  0
ENDSEC
  0
SECTION
  2
TABLES
  0
TABLE
  2
VPORT
 70
     1
  0
VPORT
  2
*ACTIVE
 70
     0
 10
0.0
 20
0.0
 11
1.0
 21
1.0
 12
410.9913793103448256
 22
175.0
 13
0.0
 23
0.0
 14
5.0
 24
5.0
 15
5.0
 25
5.0
 16
0.0
 26
0.0
 36
1.0
 17
0.0
 27
0.0
 37
0.0
 40
350.0
 41
2.3485221674876842
 42
50.0
 43
0.0
 44
0.0
 50
0.0
 51
0.0
 71
     0
 72
   100
 73
     1
 74
     0
 75
     0
 76
     0
 77
     0
 78
     0
  0
ENDTAB
  0
TABLE
  2
LTYPE
 70
     3
  0
LTYPE
  2
CONTINUOUS
 70
     0
  3
Solid Line
 72
    65
 73
     0
 40
0.0
  0
LTYPE
  2
CENTER
 70
     0
  3
____ _ ____ _ ____ _ ____ _ ____ _ ____ _ ____
 72
    65
 73
     4
 40
2.0
 49
1.25
 49
-0.25
 49
0.25
 49
-0.25
  0
LTYPE
  2
PHANTOM2
 70
     0
  3
___ _ _ ___ _ _ ___ _ _ ___ _ _
 72
    65
 73
     6
 40
1.25
 49
0.625
 49
-0.125
 49
0.125
 49
-0.125
 49
0.125
 49
-0.125
  0
ENDTAB
  0
TABLE
  2
LAYER
 70
     3
  0
LAYER
  2
0
 70
     0
 62
     7
  6
CONTINUOUS
  0
LAYER
  2
1
 70
     0
 62
     1
  6
CENTER
  0
LAYER
  2
DEFPOINTS
 70
     0
 62
     7
  6
CONTINUOUS
  0
ENDTAB
  0
TABLE
  2
STYLE
 70
     2
  0
STYLE
  2
STANDARD
 70
     0
 40
0.0
 41
1.0
 50
0.0
 71
     0
 42
2.5
  3
TXT
  4
BIGFONT
  0
STYLE
  2
STANDARD1
 70
     0
 40
0.0
 41
1.0
 50
0.0
 71
     0
 42
3.0
  3
txt
  4

  0
ENDTAB
  0
TABLE
  2
VIEW
 70
     1
  0
VIEW
  2
ALL
 70
     0
 40
135.0
 10
110.4957979999999935
 20
67.5
 41
0.0
 11
0.0
 21
0.0
 31
1.0
 12
0.0
 22
0.0
 32
0.0
 42
0.0
 43
0.0
 44
0.0
 50
0.0
 71
     0
  0
ENDTAB
  0
TABLE
  2
UCS
 70
     0
  0
ENDTAB
  0
TABLE
  2
APPID
 70
    12
  0
APPID
  2
ACAD
 70
     0
  0
APPID
  2
DCO15
 70
     0
  0
APPID
  2
ACAD_MLEADERVER
 70
     0
  0
APPID
  2
ACAD_EXEMPT_FROM_CAD_STANDARDS
 70
     0
  0
APPID
  2
ACAD_NAV_VCDISPLAY
 70
     0
  0
APPID
  2
ACAD_DSTYLE_DIMRADIAL_EXTENSION
 70
     0
  0
APPID
  2
ACAD_PSEXT
 70
     0
  0
APPID
  2
ACAD_DSTYLE_DIMJAG
 70
     0
  0
APPID
  2
ACAD_DSTYLE_DIMTALN
 70
     0
  0
APPID
  2
ACAD_DSTYLE_DIMBREAK
 70
     0
  0
APPID
  2
ACAECLAYERSTANDARD
 70
     0
  0
APPID
  2
ACCMTRANSPARENCY
 70
     0
  0
ENDTAB
  0
TABLE
  2
DIMSTYLE
 70
     1
  0
DIMSTYLE
  2
STANDARD
 70
     0
  3

  4

  5

  6

  7

 40
1.0
 41
0.18
 42
0.0625
 43
0.38
 44
0.18
 45
0.0
 46
0.0
 47
0.0
 48
0.0
140
0.18
141
0.09
142
0.0
143
25.3999999999999986
144
1.0
145
0.0
146
1.0
147
0.09
 71
     0
 72
     0
 73
     1
 74
     1
 75
     0
 76
     0
 77
     0
 78
     0
170
     0
171
     2
172
     0
173
     0
174
     0
175
     0
176
     0
177
     0
178
     0
  0
ENDTAB
  0
ENDSEC
  0
SECTION
  2
BLOCKS
  0
BLOCK
  8
0
  2
$MODEL_SPACE
 70
     0
 10
0.0
 20
0.0
 30
0.0
  3
$MODEL_SPACE
  1

  0
ENDBLK
  5
15D
  8
0
  0
BLOCK
 67
     1
  8
0
  2
$PAPER_SPACE
 70
     0
 10
0.0
 20
0.0
 30
0.0
  3
$PAPER_SPACE
  1

  0
ENDBLK
  5
15B
 67
     1
  8
0
  0
ENDSEC
  0
SECTION
  2
ENTITIES
  0
TEXT
  5
13CB
  8
0
 62
     3
 10
0.0
 20
0.0
 30
0.0
 40
10.0
  1
RLT-E-PA15
  7
STANDARD1
  0
LINE
  5
65C1
  8
0
 10
42.300210924726791
 20
77.0009481432921348
 30
0.0
 11
41.7752109247268208
 21
77.0009481432921348
 31
0.0
  0
LINE
  5
65C2
  8
0
 10
41.7752109247268208
 20
72.0009481432921348
 30
0.0
 11
42.300210924726791
 21
72.0009481432921348
 31
0.0
  0
LINE
  5
65C3
  8
0
 10
67.3252109247267754
 20
77.0009481432921348
 30
0.0
 11
66.8002109247267981
 21
77.0009481432921348
 31
0.0
  0
LINE
  5
65C4
  8
0
 10
66.8002109247267981
 20
72.0009481432921348
 30
0.0
 11
67.3252109247267754
 21
72.0009481432921348
 31
0.0
  0
LINE
  5
65C5
  8
0
 10
37.3752109247268507
 20
76.0009481432921348
 30
0.0
 11
37.3752109247268507
 21
73.0009481432921348
 31
0.0
  0
LINE
  5
65C6
  8
0
 10
37.3752109247268507
 20
73.0009481432921348
 30
0.0
 11
37.8252109247267683
 21
72.0009481432921348
 31
0.0
  0
LINE
  5
65C7
  8
0
 10
37.8252109247267683
 20
77.0009481432921348
 30
0.0
 11
37.3752109247268507
 21
76.0009481432921348
 31
0.0
  0
LINE
  5
65C8
  8
0
 10
42.6002109247268592
 20
67.2509481432921348
 30
0.0
 11
66.5002109247268436
 21
67.2509481432921348
 31
0.0
  0
LINE
  5
65C9
  8
0
 10
66.5002109247268436
 20
81.7509481432921348
 30
0.0
 11
42.6002109247268592
 21
81.7509481432921348
 31
0.0
  0
LINE
  5
65CA
  8
0
 10
42.300210924726791
 20
81.4509481432921234
 30
0.0
 11
42.300210924726791
 21
67.5509481432921461
 31
0.0
  0
LINE
  5
65CB
  8
0
 10
42.6002109247268592
 20
81.7509481432921348
 30
0.0
 11
42.6002109247268592
 21
67.2509481432921348
 31
0.0
  0
ARC
  5
65CC
  8
0
 10
42.6002109247268592
 20
67.5509481432921461
 30
0.0
 40
0.3000000000000007
 50
180.0
 51
270.0
  0
ARC
  5
65CD
  8
0
 10
42.6002109247268592
 20
81.4509481432921234
 30
0.0
 40
0.2999999999999998
 50
90.0
 51
180.0
  0
LINE
  5
65CE
  8
0
 10
66.5002109247268436
 20
81.7509481432921348
 30
0.0
 11
66.5002109247268436
 21
67.2509481432921348
 31
0.0
  0
LINE
  5
65CF
  8
0
 10
66.8002109247267981
 20
81.4509481432921234
 30
0.0
 11
66.8002109247267981
 21
67.5509481432921461
 31
0.0
  0
ARC
  5
65D0
  8
0
 10
66.5002109247268436
 20
67.5509481432921461
 30
0.0
 40
0.2999999999999998
 50
270.0
 51
0.0
  0
ARC
  5
65D1
  8
0
 10
66.5002109247268436
 20
81.4509481432921234
 30
0.0
 40
0.3000000000000007
 50
0.0
 51
90.0
  0
LINE
  5
65D2
  8
0
 10
41.7752109247268208
 20
79.5009481432921348
 30
0.0
 11
41.7752109247268208
 21
69.5009481432921348
 31
0.0
  0
LINE
  5
65D3
  8
0
 10
67.3252109247267754
 20
79.5009481432921348
 30
0.0
 11
71.2752109247268208
 21
79.5009481432921348
 31
0.0
  0
LINE
  5
65D4
  8
0
 10
37.8252109247267683
 20
79.5009481432921348
 30
0.0
 11
37.8252109247267683
 21
69.5009481432921348
 31
0.0
  0
LINE
  5
65D5
  8
0
 10
71.2752109247268208
 20
79.5009481432921348
 30
0.0
 11
71.2752109247268208
 21
69.5009481432921348
 31
0.0
  0
LINE
  5
65D6
  8
0
 10
41.7752109247268208
 20
69.5009481432921348
 30
0.0
 11
37.8252109247267683
 21
69.5009481432921348
 31
0.0
  0
LINE
  5
65D7
  8
0
 10
67.3252109247267754
 20
79.5009481432921348
 30
0.0
 11
67.3252109247267754
 21
69.5009481432921348
 31
0.0
  0
LINE
  5
65D8
  8
0
 10
41.7752109247268208
 20
79.5009481432921348
 30
0.0
 11
37.8252109247267683
 21
79.5009481432921348
 31
0.0
  0
LINE
  5
65D9
  8
0
 10
41.7752109247268208
 20
70.0009481432921916
 30
0.0
 11
37.8252109247267683
 21
70.0009481432920779
 31
0.0
  0
LINE
  5
65DA
  8
0
 10
41.7752109247268208
 20
79.0009481432921348
 30
0.0
 11
37.8252109247267683
 21
79.0009481432921348
 31
0.0
  0
LINE
  5
65DB
  8
0
 10
67.3252109247267754
 20
69.5009481432921348
 30
0.0
 11
71.2752109247268208
 21
69.5009481432921348
 31
0.0
  0
LINE
  5
65DC
  8
0
 10
67.3252109247267754
 20
79.0009481432921348
 30
0.0
 11
71.2752109247268208
 21
79.0009481432921348
 31
0.0
  0
LINE
  5
65DD
  8
0
 10
67.3252109247267754
 20
70.0009481432920779
 30
0.0
 11
71.2752109247268208
 21
70.0009481432921348
 31
0.0
  0
LINE
  5
65DE
  8
0
 10
71.7252109247268663
 20
73.0009481432921348
 30
0.0
 11
71.7252109247268663
 21
76.0009481432921348
 31
0.0
  0
LINE
  5
65DF
  8
0
 10
71.7252109247268663
 20
76.0009481432921348
 30
0.0
 11
71.2752109247268208
 21
77.0009481432921348
 31
0.0
  0
LINE
  5
65E0
  8
0
 10
71.2752109247268208
 20
72.0009481432921348
 30
0.0
 11
71.7252109247268663
 21
73.0009481432921348
 31
0.0
  0
LINE
  5
65E1
  8
1
 10
54.5502109247267981
 20
64.2509481432921348
 30
0.0
 11
54.5502109247267981
 21
84.7509481432921348
 31
0.0
  0
LINE
  5
65E2
  8
1
 10
32.3752109247268507
 20
74.5009481432921348
 30
0.0
 11
76.7252109247267526
 21
74.5009481432921348
 31
0.0
  0
LINE
  5
65E3
  8
1
 10
384.2252109247264116
 20
64.2509481432921348
 30
0.0
 11
384.2252109247269232
 21
84.7509481432921348
 31
0.0
  0
ARC
  5
65E4
  8
0
 10
384.2252109247266958
 20
74.5009481432920779
 30
0.0
 40
7.2499999999999956
 50
223.6028189727009874
 51
316.3971810272990979
  0
ARC
  5
65E5
  8
0
 10
384.2252109247266958
 20
74.5009481432920779
 30
0.0
 40
7.2500000000000071
 50
43.602818972700959
 51
136.3971810272990126
  0
LINE
  5
65E6
  8
0
 10
376.7252109247268095
 20
70.0009481432920779
 30
0.0
 11
377.591236328511286
 21
69.5009481432920779
 31
0.0
  0
LINE
  5
65E7
  8
0
 10
377.591236328511286
 20
79.5009481432920779
 30
0.0
 11
376.7252109247268095
 21
79.0009481432920637
 31
0.0
  0
LINE
  5
65E8
  8
0
 10
376.7252109247268095
 20
70.0009481432920779
 30
0.0
 11
376.7252109247268095
 21
79.0009481432920637
 31
0.0
  0
ARC
  5
65E9
  8
0
 10
387.1234862739644882
 20
77.4009481432920552
 30
0.0
 40
0.5999999999999877
 50
90.0000000000065086
 51
225.0170421721844036
  0
ARC
  5
65EA
  8
0
 10
384.2252109247266958
 20
74.5009481432920779
 30
0.0
 40
3.4999999999999969
 50
314.9829576165593039
 51
45.0170421721844534
  0
ARC
  5
65EB
  8
0
 10
387.1234862739644882
 20
71.6009481432921007
 30
0.0
 40
0.6000000000000064
 50
134.9829590601356983
 51
269.9999999999935199
  0
LINE
  5
65EC
  8
0
 10
389.5252109247269914
 20
71.0009481432920637
 30
0.0
 11
387.1234862739644882
 21
71.0009481432920637
 31
0.0
  0
ARC
  5
65ED
  8
0
 10
389.5252109247264798
 20
71.2009481432920666
 30
0.0
 40
0.2000000000000277
 50
270.0000000000130171
 51
359.9999999999902229
  0
LINE
  5
65EE
  8
0
 10
389.7252109247268095
 20
77.8009481432920325
 30
0.0
 11
389.7252109247268095
 21
71.2009481432920097
 31
0.0
  0
LINE
  5
65EF
  8
0
 10
390.8591855209422192
 20
69.5009481432920779
 30
0.0
 11
377.591236328511286
 21
69.5009481432920779
 31
0.0
  0
ARC
  5
65F0
  8
0
 10
378.9252109247266276
 20
71.2009481432920097
 30
0.0
 40
0.1999999999999318
 50
179.9999999999870113
 51
270.0000000000259774
  0
LINE
  5
65F1
  8
0
 10
378.7252109247268095
 20
71.2009481432920097
 30
0.0
 11
378.7252109247268095
 21
77.8009481432920325
 31
0.0
  0
ARC
  5
65F2
  8
0
 10
378.9252109247266276
 20
77.8009481432920893
 30
0.0
 40
0.199999999999954
 50
89.9999999999739515
 51
180.0000000000129887
  0
LINE
  5
65F3
  8
0
 10
378.9252109247266276
 20
78.0009481432920779
 30
0.0
 11
381.3269355754890171
 21
78.0009481432920779
 31
0.0
  0
ARC
  5
65F4
  8
0
 10
381.3269355754890171
 20
77.4009481432920552
 30
0.0
 40
0.6000000000000024
 50
314.9829590601265181
 51
90.0
  0
ARC
  5
65F5
  8
0
 10
384.2252109247266958
 20
74.5009481432920779
 30
0.0
 40
3.5000000000000231
 50
134.9829576165593039
 51
225.0170421721844036
  0
ARC
  5
65F6
  8
0
 10
381.3269355754890171
 20
71.6009481432920438
 30
0.0
 40
0.5999999999999828
 50
270.0
 51
45.0170421721913527
  0
LINE
  5
65F7
  8
0
 10
381.3269355754890171
 20
71.0009481432920637
 30
0.0
 11
378.9252109247266276
 21
71.0009481432920637
 31
0.0
  0
LINE
  5
65F8
  8
0
 10
387.1234862739644882
 20
78.0009481432920779
 30
0.0
 11
389.5252109247269914
 21
78.0009481432920779
 31
0.0
  0
ARC
  5
65F9
  8
0
 10
389.5252109247264798
 20
77.8009481432920325
 30
0.0
 40
0.2000000000000455
 50
0.0000000000065138
 51
89.9999999999804601
  0
LINE
  5
65FA
  8
0
 10
377.591236328511286
 20
69.5009481432920779
 30
0.0
 11
377.591236328511286
 21
79.5009481432920779
 31
0.0
  0
LINE
  5
65FB
  8
0
 10
377.591236328511286
 20
79.5009481432920779
 30
0.0
 11
390.8591855209422192
 21
79.5009481432920779
 31
0.0
  0
LINE
  5
65FC
  8
0
 10
391.7252109247268095
 20
79.0009481432920637
 30
0.0
 11
390.8591855209422192
 21
79.5009481432920779
 31
0.0
  0
LINE
  5
65FD
  8
0
 10
390.8591855209422192
 20
79.5009481432920779
 30
0.0
 11
390.8591855209422192
 21
69.5009481432920779
 31
0.0
  0
LINE
  5
65FE
  8
0
 10
390.8591855209422192
 20
69.5009481432920779
 30
0.0
 11
391.7252109247268095
 21
70.0009481432920779
 31
0.0
  0
LINE
  5
65FF
  8
0
 10
391.7252109247268095
 20
70.0009481432920779
 30
0.0
 11
391.7252109247268095
 21
79.0009481432920637
 31
0.0
  0
CIRCLE
  5
6600
  8
0
 10
384.2252109247266958
 20
74.5009481432920779
 30
0.0
 40
2.5
  0
CIRCLE
  5
6601
  8
0
 10
384.2252109247266958
 20
74.5009481432920779
 30
0.0
 40
1.5
  0
LINE
  5
6602
  8
1
 10
354.2252109247268095
 20
64.2509481432921348
 30
0.0
 11
354.2252109247262979
 21
84.7509481432921348
 31
0.0
  0
ARC
  5
6603
  8
0
 10
354.2252109247268095
 20
74.5009481432920779
 30
0.0
 40
7.2499999999999991
 50
223.6028189727009874
 51
316.3971810272990979
  0
ARC
  5
6604
  8
0
 10
354.2252109247268095
 20
74.5009481432920779
 30
0.0
 40
7.2499999999999991
 50
43.602818972700959
 51
136.3971810272990126
  0
LINE
  5
6605
  8
0
 10
360.8591855209422192
 20
69.5009481432920779
 30
0.0
 11
347.591236328511286
 21
69.5009481432920779
 31
0.0
  0
LINE
  5
6606
  8
0
 10
347.591236328511286
 20
79.5009481432920779
 30
0.0
 11
360.8591855209422192
 21
79.5009481432920779
 31
0.0
  0
LINE
  5
6607
  8
0
 10
346.7252109247266958
 20
70.0009481432920779
 30
0.0
 11
347.591236328511286
 21
69.5009481432920779
 31
0.0
  0
LINE
  5
6608
  8
0
 10
347.591236328511286
 20
69.5009481432920779
 30
0.0
 11
347.591236328511286
 21
79.5009481432920779
 31
0.0
  0
LINE
  5
6609
  8
0
 10
347.591236328511286
 20
79.5009481432920779
 30
0.0
 11
346.7252109247266958
 21
79.0009481432920637
 31
0.0
  0
LINE
  5
660A
  8
0
 10
346.7252109247266958
 20
70.0009481432920779
 30
0.0
 11
346.7252109247266958
 21
79.0009481432920637
 31
0.0
  0
LINE
  5
660B
  8
0
 10
361.7252109247268095
 20
79.0009481432920637
 30
0.0
 11
360.8591855209422192
 21
79.5009481432920779
 31
0.0
  0
LINE
  5
660C
  8
0
 10
360.8591855209422192
 20
79.5009481432920779
 30
0.0
 11
360.8591855209422192
 21
69.5009481432920779
 31
0.0
  0
LINE
  5
660D
  8
0
 10
360.8591855209422192
 20
69.5009481432920779
 30
0.0
 11
361.7252109247268095
 21
70.0009481432920779
 31
0.0
  0
LINE
  5
660E
  8
0
 10
361.7252109247268095
 20
70.0009481432920779
 30
0.0
 11
361.7252109247268095
 21
79.0009481432920637
 31
0.0
  0
LINE
  5
660F
  8
1
 10
324.2252109247269232
 20
64.2509481432921348
 30
0.0
 11
324.2252109247269232
 21
84.7509481432920069
 31
0.0
  0
ARC
  5
6610
  8
0
 10
324.2252109247268095
 20
74.5009481432920779
 30
0.0
 40
7.2499999999999991
 50
223.6028189727009874
 51
316.3971810272990979
  0
ARC
  5
6611
  8
0
 10
324.2252109247268095
 20
74.5009481432920779
 30
0.0
 40
7.2499999999999991
 50
43.602818972700959
 51
136.3971810272990126
  0
LINE
  5
6612
  8
0
 10
330.8591855209422192
 20
69.5009481432920779
 30
0.0
 11
317.591236328511286
 21
69.5009481432920779
 31
0.0
  0
LINE
  5
6613
  8
0
 10
317.591236328511286
 20
79.5009481432920779
 30
0.0
 11
330.8591855209422192
 21
79.5009481432920779
 31
0.0
  0
LINE
  5
6614
  8
0
 10
316.7252109247268095
 20
70.0009481432920779
 30
0.0
 11
317.591236328511286
 21
69.5009481432920779
 31
0.0
  0
LINE
  5
6615
  8
0
 10
317.591236328511286
 20
69.5009481432920779
 30
0.0
 11
317.591236328511286
 21
79.5009481432920779
 31
0.0
  0
LINE
  5
6616
  8
0
 10
317.591236328511286
 20
79.5009481432920779
 30
0.0
 11
316.7252109247268095
 21
79.0009481432920637
 31
0.0
  0
LINE
  5
6617
  8
0
 10
316.7252109247268095
 20
70.0009481432920779
 30
0.0
 11
316.7252109247268095
 21
79.0009481432920637
 31
0.0
  0
LINE
  5
6618
  8
0
 10
331.7252109247266958
 20
79.0009481432920637
 30
0.0
 11
330.8591855209422192
 21
79.5009481432920779
 31
0.0
  0
LINE
  5
6619
  8
0
 10
330.8591855209422192
 20
79.5009481432920779
 30
0.0
 11
330.8591855209422192
 21
69.5009481432920779
 31
0.0
  0
LINE
  5
661A
  8
0
 10
330.8591855209422192
 20
69.5009481432920779
 30
0.0
 11
331.7252109247266958
 21
70.0009481432920779
 31
0.0
  0
LINE
  5
661B
  8
0
 10
331.7252109247266958
 20
70.0009481432920779
 30
0.0
 11
331.7252109247266958
 21
79.0009481432920637
 31
0.0
  0
LINE
  5
661C
  8
1
 10
294.2252109247264116
 20
64.2509481432921348
 30
0.0
 11
294.2252109247266958
 21
84.7509481432921348
 31
0.0
  0
ARC
  5
661D
  8
0
 10
294.2252109247266958
 20
74.5009481432920779
 30
0.0
 40
7.2499999999999991
 50
223.6028189727009874
 51
316.3971810272990979
  0
ARC
  5
661E
  8
0
 10
294.2252109247266958
 20
74.5009481432920779
 30
0.0
 40
7.2499999999999991
 50
43.602818972700959
 51
136.3971810272990126
  0
LINE
  5
661F
  8
0
 10
286.7252109247266958
 20
70.0009481432920779
 30
0.0
 11
287.591236328511286
 21
69.5009481432920779
 31
0.0
  0
LINE
  5
6620
  8
0
 10
287.591236328511286
 20
79.5009481432920779
 30
0.0
 11
286.7252109247266958
 21
79.0009481432920637
 31
0.0
  0
LINE
  5
6621
  8
0
 10
286.7252109247266958
 20
70.0009481432920779
 30
0.0
 11
286.7252109247266958
 21
79.0009481432920637
 31
0.0
  0
LINE
  5
6622
  8
0
 10
301.7252109247268095
 20
79.0009481432920637
 30
0.0
 11
300.8591855209422192
 21
79.5009481432920779
 31
0.0
  0
LINE
  5
6623
  8
0
 10
300.8591855209422192
 20
69.5009481432920779
 30
0.0
 11
301.7252109247268095
 21
70.0009481432920779
 31
0.0
  0
LINE
  5
6624
  8
0
 10
301.7252109247268095
 20
70.0009481432920779
 30
0.0
 11
301.7252109247268095
 21
79.0009481432920637
 31
0.0
  0
LINE
  5
6625
  8
0
 10
287.591236328511286
 20
69.5009481432920779
 30
0.0
 11
287.591236328511286
 21
79.5009481432920779
 31
0.0
  0
LINE
  5
6626
  8
0
 10
300.8591855209422192
 20
69.5009481432920779
 30
0.0
 11
287.591236328511286
 21
69.5009481432920779
 31
0.0
  0
LINE
  5
6627
  8
0
 10
300.8591855209422192
 20
79.5009481432920779
 30
0.0
 11
300.8591855209422192
 21
69.5009481432920779
 31
0.0
  0
LINE
  5
6628
  8
0
 10
287.591236328511286
 20
79.5009481432920779
 30
0.0
 11
300.8591855209422192
 21
79.5009481432920779
 31
0.0
  0
LINE
  5
6629
  8
1
 10
264.2252109247268095
 20
64.2509481432920779
 30
0.0
 11
264.2252109247268095
 21
84.7509481432921348
 31
0.0
  0
ARC
  5
662A
  8
0
 10
264.2252109247268095
 20
74.5009481432920779
 30
0.0
 40
7.2499999999999991
 50
223.6028189727009874
 51
316.3971810272990979
  0
ARC
  5
662B
  8
0
 10
264.2252109247268095
 20
74.5009481432920779
 30
0.0
 40
7.2499999999999991
 50
43.602818972700959
 51
136.3971810272990126
  0
LINE
  5
662C
  8
0
 10
256.7252109247266958
 20
70.0009481432920779
 30
0.0
 11
257.591236328511286
 21
69.5009481432920779
 31
0.0
  0
LINE
  5
662D
  8
0
 10
257.591236328511286
 20
79.5009481432920779
 30
0.0
 11
256.7252109247266958
 21
79.0009481432920637
 31
0.0
  0
LINE
  5
662E
  8
0
 10
256.7252109247266958
 20
70.0009481432920779
 30
0.0
 11
256.7252109247266958
 21
79.0009481432920637
 31
0.0
  0
LINE
  5
662F
  8
0
 10
271.7252109247266958
 20
79.0009481432920637
 30
0.0
 11
270.8591855209422192
 21
79.5009481432920779
 31
0.0
  0
LINE
  5
6630
  8
0
 10
270.8591855209422192
 20
69.5009481432920779
 30
0.0
 11
271.7252109247266958
 21
70.0009481432920779
 31
0.0
  0
LINE
  5
6631
  8
0
 10
271.7252109247266958
 20
70.0009481432920779
 30
0.0
 11
271.7252109247266958
 21
79.0009481432920637
 31
0.0
  0
LINE
  5
6632
  8
0
 10
257.591236328511286
 20
69.5009481432920779
 30
0.0
 11
257.591236328511286
 21
79.5009481432920779
 31
0.0
  0
LINE
  5
6633
  8
0
 10
270.8591855209422192
 20
69.5009481432920779
 30
0.0
 11
257.591236328511286
 21
69.5009481432920779
 31
0.0
  0
LINE
  5
6634
  8
0
 10
270.8591855209422192
 20
79.5009481432920779
 30
0.0
 11
270.8591855209422192
 21
69.5009481432920779
 31
0.0
  0
LINE
  5
6635
  8
0
 10
257.591236328511286
 20
79.5009481432920779
 30
0.0
 11
270.8591855209422192
 21
79.5009481432920779
 31
0.0
  0
LINE
  5
6636
  8
1
 10
234.2252109247266958
 20
64.2509481432921348
 30
0.0
 11
234.2252109247266958
 21
84.7509481432921348
 31
0.0
  0
ARC
  5
6637
  8
0
 10
234.2252109247266958
 20
74.5009481432920779
 30
0.0
 40
7.2500000000000151
 50
223.6028189727009874
 51
316.3971810272990979
  0
ARC
  5
6638
  8
0
 10
234.2252109247266958
 20
74.5009481432920779
 30
0.0
 40
7.2500000000000062
 50
43.602818972700959
 51
136.3971810272990126
  0
LINE
  5
6639
  8
0
 10
226.7252109247268095
 20
70.0009481432920779
 30
0.0
 11
227.591236328511286
 21
69.5009481432920779
 31
0.0
  0
LINE
  5
663A
  8
0
 10
227.591236328511286
 20
79.5009481432920779
 30
0.0
 11
226.7252109247268095
 21
79.0009481432920637
 31
0.0
  0
LINE
  5
663B
  8
0
 10
226.7252109247268095
 20
70.0009481432920779
 30
0.0
 11
226.7252109247268095
 21
79.0009481432920637
 31
0.0
  0
LINE
  5
663C
  8
0
 10
241.7252109247268095
 20
79.0009481432920637
 30
0.0
 11
240.8591855209421908
 21
79.5009481432920779
 31
0.0
  0
LINE
  5
663D
  8
0
 10
240.8591855209421908
 20
69.5009481432920779
 30
0.0
 11
241.7252109247268095
 21
70.0009481432920779
 31
0.0
  0
LINE
  5
663E
  8
0
 10
241.7252109247268095
 20
70.0009481432920779
 30
0.0
 11
241.7252109247268095
 21
79.0009481432920637
 31
0.0
  0
LINE
  5
663F
  8
0
 10
227.591236328511286
 20
69.5009481432920779
 30
0.0
 11
227.591236328511286
 21
79.5009481432920779
 31
0.0
  0
LINE
  5
6640
  8
0
 10
240.8591855209421908
 20
69.5009481432920779
 30
0.0
 11
227.591236328511286
 21
69.5009481432920779
 31
0.0
  0
LINE
  5
6641
  8
0
 10
240.8591855209421908
 20
79.5009481432920779
 30
0.0
 11
240.8591855209421908
 21
69.5009481432920779
 31
0.0
  0
LINE
  5
6642
  8
0
 10
227.591236328511286
 20
79.5009481432920779
 30
0.0
 11
240.8591855209421908
 21
79.5009481432920779
 31
0.0
  0
LINE
  5
6643
  8
1
 10
204.2252109247268095
 20
64.2509481432921348
 30
0.0
 11
204.2252109247268095
 21
84.7509481432921348
 31
0.0
  0
ARC
  5
6644
  8
0
 10
204.2252109247268095
 20
74.5009481432920779
 30
0.0
 40
7.2500000000000151
 50
223.6028189727009874
 51
316.3971810272990979
  0
ARC
  5
6645
  8
0
 10
204.2252109247268095
 20
74.5009481432920779
 30
0.0
 40
7.2500000000000062
 50
23.7898731698697716
 51
156.2101268301302071
  0
LINE
  5
6646
  8
0
 10
196.7252109247266958
 20
70.0009481432920779
 30
0.0
 11
197.5912363285110871
 21
69.5009481432920779
 31
0.0
  0
LINE
  5
6647
  8
0
 10
197.5912363285110871
 20
79.5009481432920779
 30
0.0
 11
196.7252109247266958
 21
79.0009481432920637
 31
0.0
  0
LINE
  5
6648
  8
0
 10
196.7252109247266958
 20
70.0009481432920779
 30
0.0
 11
196.7252109247266958
 21
79.0009481432920637
 31
0.0
  0
LINE
  5
6649
  8
0
 10
211.7252109247266958
 20
79.0009481432920637
 30
0.0
 11
210.8591855209421908
 21
79.5009481432920779
 31
0.0
  0
LINE
  5
664A
  8
0
 10
210.8591855209421908
 20
69.5009481432920779
 30
0.0
 11
211.7252109247266958
 21
70.0009481432920779
 31
0.0
  0
LINE
  5
664B
  8
0
 10
211.7252109247266958
 20
70.0009481432920779
 30
0.0
 11
211.7252109247266958
 21
79.0009481432920637
 31
0.0
  0
LINE
  5
664C
  8
0
 10
197.5912363285110871
 20
69.5009481432920779
 30
0.0
 11
197.5912363285110871
 21
79.5009481432920779
 31
0.0
  0
LINE
  5
664D
  8
0
 10
210.8591855209421908
 20
69.5009481432920779
 30
0.0
 11
197.5912363285110871
 21
69.5009481432920779
 31
0.0
  0
LINE
  5
664E
  8
0
 10
210.8591855209421908
 20
79.5009481432920779
 30
0.0
 11
210.8591855209421908
 21
69.5009481432920779
 31
0.0
  0
LINE
  5
664F
  8
0
 10
197.5912363285110871
 20
79.5009481432920779
 30
0.0
 11
210.8591855209421908
 21
79.5009481432920779
 31
0.0
  0
LINE
  5
6650
  8
1
 10
174.2252109247264968
 20
64.2509481432920779
 30
0.0
 11
174.2252109247266105
 21
84.7509481432921348
 31
0.0
  0
ARC
  5
6651
  8
0
 10
174.2252109247266958
 20
74.5009481432920779
 30
0.0
 40
7.2499999999999973
 50
223.6028189727009874
 51
316.3971810272990979
  0
ARC
  5
6652
  8
0
 10
174.2252109247266958
 20
74.5009481432920779
 30
0.0
 40
7.249999999999992
 50
43.602818972700959
 51
136.3971810272990126
  0
LINE
  5
6653
  8
0
 10
166.7252109247266958
 20
70.0009481432920779
 30
0.0
 11
167.5912363285112008
 21
69.5009481432920779
 31
0.0
  0
LINE
  5
6654
  8
0
 10
167.5912363285112008
 20
79.5009481432920779
 30
0.0
 11
166.7252109247266958
 21
79.0009481432920637
 31
0.0
  0
LINE
  5
6655
  8
0
 10
166.7252109247266958
 20
70.0009481432920779
 30
0.0
 11
166.7252109247266958
 21
79.0009481432920637
 31
0.0
  0
LINE
  5
6656
  8
0
 10
181.7252109247266958
 20
79.0009481432920637
 30
0.0
 11
180.8591855209423045
 21
79.5009481432920779
 31
0.0
  0
LINE
  5
6657
  8
0
 10
180.8591855209423045
 20
69.5009481432920779
 30
0.0
 11
181.7252109247266958
 21
70.0009481432920779
 31
0.0
  0
LINE
  5
6658
  8
0
 10
181.7252109247266958
 20
70.0009481432920779
 30
0.0
 11
181.7252109247266958
 21
79.0009481432920637
 31
0.0
  0
LINE
  5
6659
  8
0
 10
167.5912363285112008
 20
69.5009481432920779
 30
0.0
 11
167.5912363285112008
 21
79.5009481432920779
 31
0.0
  0
LINE
  5
665A
  8
0
 10
180.8591855209423045
 20
69.5009481432920779
 30
0.0
 11
167.5912363285112008
 21
69.5009481432920779
 31
0.0
  0
LINE
  5
665B
  8
0
 10
180.8591855209423045
 20
79.5009481432920779
 30
0.0
 11
180.8591855209423045
 21
69.5009481432920779
 31
0.0
  0
LINE
  5
665C
  8
0
 10
167.5912363285112008
 20
79.5009481432920779
 30
0.0
 11
180.8591855209423045
 21
79.5009481432920779
 31
0.0
  0
LINE
  5
665D
  8
1
 10
144.2252109247266105
 20
64.2509481432921348
 30
0.0
 11
144.2252109247268095
 21
84.7509481432921348
 31
0.0
  0
ARC
  5
665E
  8
0
 10
144.2252109247266958
 20
74.5009481432920779
 30
0.0
 40
7.2500000000000018
 50
223.6028189727009874
 51
316.3971810272990979
  0
ARC
  5
665F
  8
0
 10
144.2252109247266958
 20
74.5009481432920779
 30
0.0
 40
7.2500000000000027
 50
43.602818972700959
 51
136.3971810272990126
  0
LINE
  5
6660
  8
0
 10
137.5912363285112008
 20
79.5009481432920779
 30
0.0
 11
136.7252109247266958
 21
79.0009481432920637
 31
0.0
  0
LINE
  5
6661
  8
0
 10
136.7252109247266958
 20
70.0009481432920779
 30
0.0
 11
137.5912363285112008
 21
69.5009481432920779
 31
0.0
  0
LINE
  5
6662
  8
0
 10
136.7252109247266958
 20
70.0009481432920779
 30
0.0
 11
136.7252109247266958
 21
79.0009481432920637
 31
0.0
  0
LINE
  5
6663
  8
0
 10
151.7252109247266958
 20
79.0009481432920637
 30
0.0
 11
150.8591855209423045
 21
79.5009481432920779
 31
0.0
  0
LINE
  5
6664
  8
0
 10
150.8591855209423045
 20
69.5009481432920779
 30
0.0
 11
151.7252109247266958
 21
70.0009481432920779
 31
0.0
  0
LINE
  5
6665
  8
0
 10
151.7252109247266958
 20
70.0009481432920779
 30
0.0
 11
151.7252109247266958
 21
79.0009481432920637
 31
0.0
  0
LINE
  5
6666
  8
0
 10
137.5912363285112008
 20
69.5009481432920779
 30
0.0
 11
137.5912363285112008
 21
79.5009481432920779
 31
0.0
  0
LINE
  5
6667
  8
0
 10
150.8591855209423045
 20
69.5009481432920779
 30
0.0
 11
137.5912363285112008
 21
69.5009481432920779
 31
0.0
  0
LINE
  5
6668
  8
0
 10
150.8591855209423045
 20
79.5009481432920779
 30
0.0
 11
150.8591855209423045
 21
69.5009481432920779
 31
0.0
  0
LINE
  5
6669
  8
0
 10
137.5912363285112008
 20
79.5009481432920779
 30
0.0
 11
150.8591855209423045
 21
79.5009481432920779
 31
0.0
  0
LINE
  5
666A
  8
1
 10
369.22521092472698
 20
64.2509481432921348
 30
0.0
 11
369.2252109247269232
 21
84.7509481432921348
 31
0.0
  0
ARC
  5
666B
  8
0
 10
369.2252109247266958
 20
74.5009481432920779
 30
0.0
 40
7.2499999999999991
 50
223.6028189727009874
 51
316.3971810272990979
  0
ARC
  5
666C
  8
0
 10
369.2252109247266958
 20
74.5009481432920779
 30
0.0
 40
7.2499999999999991
 50
43.602818972700959
 51
136.3971810272990126
  0
LINE
  5
666D
  8
0
 10
361.7252109247268095
 20
79.0009481432920637
 30
0.0
 11
362.591236328511286
 21
79.5009481432920779
 31
0.0
  0
LINE
  5
666E
  8
0
 10
362.591236328511286
 20
69.5009481432920779
 30
0.0
 11
361.7252109247268095
 21
70.0009481432920779
 31
0.0
  0
LINE
  5
666F
  8
0
 10
375.8591855209422192
 20
79.5009481432920779
 30
0.0
 11
376.7252109247268095
 21
79.0009481432920637
 31
0.0
  0
LINE
  5
6670
  8
0
 10
376.7252109247268095
 20
70.0009481432920779
 30
0.0
 11
375.8591855209422192
 21
69.5009481432920779
 31
0.0
  0
ARC
  5
6671
  8
0
 10
366.5252109247269914
 20
75.4509481432920666
 30
0.0
 40
0.2000000000000136
 50
270.0
 51
359.9999999999968168
  0
LINE
  5
6672
  8
0
 10
363.7252109247266958
 20
73.5509481432920325
 30
0.0
 11
363.7252109247266958
 21
71.2009481432920097
 31
0.0
  0
ARC
  5
6673
  8
0
 10
363.9252109247266276
 20
73.5509481432920893
 30
0.0
 40
0.1999999999999651
 50
89.9999999999934914
 51
180.0000000000098055
  0
LINE
  5
6674
  8
0
 10
366.5252109247269914
 20
73.7509481432920779
 30
0.0
 11
363.9252109247266276
 21
73.7509481432920779
 31
0.0
  0
ARC
  5
6675
  8
0
 10
366.5252109247269914
 20
73.5509481432920325
 30
0.0
 40
0.200000000000017
 50
0.0000000000032569
 51
90.0
  0
LINE
  5
6676
  8
0
 10
366.7252109247268095
 20
72.0009481432920779
 30
0.0
 11
366.7252109247268095
 21
73.5509481432920325
 31
0.0
  0
LINE
  5
6677
  8
0
 10
371.7252109247266958
 20
72.0009481432920779
 30
0.0
 11
366.7252109247268095
 21
72.0009481432920779
 31
0.0
  0
LINE
  5
6678
  8
0
 10
371.7252109247266958
 20
73.5509481432920325
 30
0.0
 11
371.7252109247266958
 21
72.0009481432920779
 31
0.0
  0
ARC
  5
6679
  8
0
 10
371.9252109247266276
 20
73.5509481432920893
 30
0.0
 40
0.1999999999999651
 50
89.9999999999934914
 51
180.0000000000098055
  0
LINE
  5
667A
  8
0
 10
374.5252109247268777
 20
73.7509481432920779
 30
0.0
 11
371.9252109247266276
 21
73.7509481432920779
 31
0.0
  0
ARC
  5
667B
  8
0
 10
374.5252109247268777
 20
73.5509481432920325
 30
0.0
 40
0.200000000000017
 50
0.0000000000032569
 51
90.0
  0
LINE
  5
667C
  8
0
 10
374.7252109247268095
 20
71.2009481432920097
 30
0.0
 11
374.7252109247268095
 21
73.5509481432920325
 31
0.0
  0
ARC
  5
667D
  8
0
 10
374.5252109247268777
 20
71.2009481432920666
 30
0.0
 40
0.2000000000000135
 50
270.0
 51
359.9999999999968168
  0
LINE
  5
667E
  8
0
 10
363.9252109247266276
 20
71.0009481432920637
 30
0.0
 11
374.5252109247268777
 21
71.0009481432920637
 31
0.0
  0
ARC
  5
667F
  8
0
 10
363.9252109247266276
 20
71.2009481432920097
 30
0.0
 40
0.1999999999999602
 50
179.9999999999901945
 51
270.0000000000064801
  0
ARC
  5
6680
  8
0
 10
363.9252109247266276
 20
77.8009481432920893
 30
0.0
 40
0.1999999999999655
 50
89.9999999999934914
 51
180.0000000000098055
  0
LINE
  5
6681
  8
0
 10
374.5252109247268777
 20
78.0009481432920779
 30
0.0
 11
363.9252109247266276
 21
78.0009481432920779
 31
0.0
  0
ARC
  5
6682
  8
0
 10
374.5252109247268777
 20
77.8009481432920325
 30
0.0
 40
0.200000000000017
 50
0.0000000000032569
 51
90.0
  0
LINE
  5
6683
  8
0
 10
374.7252109247268095
 20
75.4509481432920097
 30
0.0
 11
374.7252109247268095
 21
77.8009481432920325
 31
0.0
  0
ARC
  5
6684
  8
0
 10
374.5252109247268777
 20
75.4509481432920666
 30
0.0
 40
0.2000000000000135
 50
270.0
 51
359.9999999999968168
  0
LINE
  5
6685
  8
0
 10
371.9252109247266276
 20
75.2509481432920637
 30
0.0
 11
374.5252109247268777
 21
75.2509481432920637
 31
0.0
  0
ARC
  5
6686
  8
0
 10
371.9252109247266276
 20
75.4509481432920097
 30
0.0
 40
0.1999999999999602
 50
179.9999999999901945
 51
270.0000000000064801
  0
LINE
  5
6687
  8
0
 10
371.7252109247266958
 20
77.0009481432920779
 30
0.0
 11
371.7252109247266958
 21
75.4509481432920097
 31
0.0
  0
LINE
  5
6688
  8
0
 10
366.7252109247268095
 20
77.0009481432920779
 30
0.0
 11
371.7252109247266958
 21
77.0009481432920779
 31
0.0
  0
LINE
  5
6689
  8
0
 10
366.7252109247268095
 20
75.4509481432920097
 30
0.0
 11
366.7252109247268095
 21
77.0009481432920779
 31
0.0
  0
LINE
  5
668A
  8
0
 10
363.9252109247266276
 20
75.2509481432920637
 30
0.0
 11
366.5252109247269914
 21
75.2509481432920637
 31
0.0
  0
ARC
  5
668B
  8
0
 10
363.9252109247266276
 20
75.4509481432920097
 30
0.0
 40
0.1999999999999602
 50
179.9999999999901945
 51
270.0000000000064801
  0
LINE
  5
668C
  8
0
 10
363.7252109247266958
 20
77.8009481432920325
 30
0.0
 11
363.7252109247266958
 21
75.4509481432920097
 31
0.0
  0
LINE
  5
668D
  8
0
 10
362.591236328511286
 20
69.5009481432920779
 30
0.0
 11
375.8591855209422192
 21
69.5009481432920779
 31
0.0
  0
LINE
  5
668E
  8
0
 10
375.8591855209422192
 20
69.5009481432920779
 30
0.0
 11
375.8591855209422192
 21
79.5009481432920779
 31
0.0
  0
LINE
  5
668F
  8
0
 10
375.8591855209422192
 20
79.5009481432920779
 30
0.0
 11
362.591236328511286
 21
79.5009481432920779
 31
0.0
  0
LINE
  5
6690
  8
0
 10
362.591236328511286
 20
79.5009481432920779
 30
0.0
 11
362.591236328511286
 21
69.5009481432920779
 31
0.0
  0
LINE
  5
6691
  8
1
 10
116.7252109247266958
 20
74.5009481432921348
 30
0.0
 11
396.7252109247266958
 21
74.5009481432920211
 31
0.0
  0
LINE
  5
6692
  8
1
 10
339.2252109247269232
 20
64.2509481432921348
 30
0.0
 11
339.2252109247270937
 21
84.7509481432921348
 31
0.0
  0
ARC
  5
6693
  8
0
 10
339.2252109247268095
 20
74.5009481432920779
 30
0.0
 40
7.2499999999999991
 50
223.6028189727009874
 51
316.3971810272990979
  0
ARC
  5
6694
  8
0
 10
339.2252109247268095
 20
74.5009481432920779
 30
0.0
 40
7.2499999999999991
 50
43.602818972700959
 51
136.3971810272990126
  0
LINE
  5
6695
  8
0
 10
331.7252109247266958
 20
79.0009481432920637
 30
0.0
 11
332.591236328511286
 21
79.5009481432920779
 31
0.0
  0
LINE
  5
6696
  8
0
 10
332.591236328511286
 20
69.5009481432920779
 30
0.0
 11
331.7252109247266958
 21
70.0009481432920779
 31
0.0
  0
LINE
  5
6697
  8
0
 10
345.8591855209422192
 20
79.5009481432920779
 30
0.0
 11
346.7252109247266958
 21
79.0009481432920637
 31
0.0
  0
LINE
  5
6698
  8
0
 10
346.7252109247266958
 20
70.0009481432920779
 30
0.0
 11
345.8591855209422192
 21
69.5009481432920779
 31
0.0
  0
LINE
  5
6699
  8
0
 10
332.591236328511286
 20
69.5009481432920779
 30
0.0
 11
345.8591855209422192
 21
69.5009481432920779
 31
0.0
  0
LINE
  5
669A
  8
0
 10
345.8591855209422192
 20
69.5009481432920779
 30
0.0
 11
345.8591855209422192
 21
79.5009481432920779
 31
0.0
  0
LINE
  5
669B
  8
0
 10
345.8591855209422192
 20
79.5009481432920779
 30
0.0
 11
332.591236328511286
 21
79.5009481432920779
 31
0.0
  0
LINE
  5
669C
  8
0
 10
332.591236328511286
 20
79.5009481432920779
 30
0.0
 11
332.591236328511286
 21
69.5009481432920779
 31
0.0
  0
LINE
  5
669D
  8
1
 10
309.2252109247269232
 20
64.2509481432921348
 30
0.0
 11
309.2252109247269232
 21
84.7509481432921348
 31
0.0
  0
ARC
  5
669E
  8
0
 10
309.2252109247266958
 20
74.5009481432920779
 30
0.0
 40
7.2499999999999991
 50
223.6028189727009874
 51
316.3971810272990979
  0
ARC
  5
669F
  8
0
 10
309.2252109247266958
 20
74.5009481432920779
 30
0.0
 40
7.2499999999999991
 50
43.602818972700959
 51
136.3971810272990126
  0
LINE
  5
66A0
  8
0
 10
301.7252109247268095
 20
79.0009481432920637
 30
0.0
 11
302.591236328511286
 21
79.5009481432920779
 31
0.0
  0
LINE
  5
66A1
  8
0
 10
302.591236328511286
 20
69.5009481432920779
 30
0.0
 11
301.7252109247268095
 21
70.0009481432920779
 31
0.0
  0
LINE
  5
66A2
  8
0
 10
315.8591855209422192
 20
79.5009481432920779
 30
0.0
 11
316.7252109247268095
 21
79.0009481432920637
 31
0.0
  0
LINE
  5
66A3
  8
0
 10
316.7252109247268095
 20
70.0009481432920779
 30
0.0
 11
315.8591855209422192
 21
69.5009481432920779
 31
0.0
  0
LINE
  5
66A4
  8
0
 10
302.591236328511286
 20
69.5009481432920779
 30
0.0
 11
315.8591855209422192
 21
69.5009481432920779
 31
0.0
  0
LINE
  5
66A5
  8
0
 10
315.8591855209422192
 20
69.5009481432920779
 30
0.0
 11
315.8591855209422192
 21
79.5009481432920779
 31
0.0
  0
LINE
  5
66A6
  8
0
 10
315.8591855209422192
 20
79.5009481432920779
 30
0.0
 11
302.591236328511286
 21
79.5009481432920779
 31
0.0
  0
LINE
  5
66A7
  8
0
 10
302.591236328511286
 20
79.5009481432920779
 30
0.0
 11
302.591236328511286
 21
69.5009481432920779
 31
0.0
  0
LINE
  5
66A8
  8
1
 10
279.2252109247265821
 20
64.2509481432921348
 30
0.0
 11
279.2252109247268095
 21
84.7509481432921348
 31
0.0
  0
ARC
  5
66A9
  8
0
 10
279.2252109247268095
 20
74.5009481432920779
 30
0.0
 40
7.2499999999999991
 50
223.6028189727009874
 51
316.3971810272990979
  0
ARC
  5
66AA
  8
0
 10
279.2252109247268095
 20
74.5009481432920779
 30
0.0
 40
7.2499999999999991
 50
43.602818972700959
 51
136.3971810272990126
  0
LINE
  5
66AB
  8
0
 10
271.7252109247266958
 20
79.0009481432920637
 30
0.0
 11
272.591236328511286
 21
79.5009481432920779
 31
0.0
  0
LINE
  5
66AC
  8
0
 10
272.591236328511286
 20
69.5009481432920779
 30
0.0
 11
271.7252109247266958
 21
70.0009481432920779
 31
0.0
  0
LINE
  5
66AD
  8
0
 10
285.8591855209422192
 20
79.5009481432920779
 30
0.0
 11
286.7252109247266958
 21
79.0009481432920637
 31
0.0
  0
LINE
  5
66AE
  8
0
 10
286.7252109247266958
 20
70.0009481432920779
 30
0.0
 11
285.8591855209422192
 21
69.5009481432920779
 31
0.0
  0
LINE
  5
66AF
  8
0
 10
272.591236328511286
 20
69.5009481432920779
 30
0.0
 11
285.8591855209422192
 21
69.5009481432920779
 31
0.0
  0
LINE
  5
66B0
  8
0
 10
285.8591855209422192
 20
69.5009481432920779
 30
0.0
 11
285.8591855209422192
 21
79.5009481432920779
 31
0.0
  0
LINE
  5
66B1
  8
0
 10
285.8591855209422192
 20
79.5009481432920779
 30
0.0
 11
272.591236328511286
 21
79.5009481432920779
 31
0.0
  0
LINE
  5
66B2
  8
0
 10
272.591236328511286
 20
79.5009481432920779
 30
0.0
 11
272.591236328511286
 21
69.5009481432920779
 31
0.0
  0
LINE
  5
66B3
  8
1
 10
249.2252109247266958
 20
64.2509481432921348
 30
0.0
 11
249.2252109247266958
 21
84.7509481432921348
 31
0.0
  0
ARC
  5
66B4
  8
0
 10
249.2252109247266958
 20
74.5009481432920779
 30
0.0
 40
7.2500000000000151
 50
223.6028189727009874
 51
316.3971810272990979
  0
ARC
  5
66B5
  8
0
 10
249.2252109247266958
 20
74.5009481432920779
 30
0.0
 40
7.2500000000000062
 50
43.602818972700959
 51
136.3971810272990126
  0
LINE
  5
66B6
  8
0
 10
241.7252109247268095
 20
79.0009481432920637
 30
0.0
 11
242.591236328511286
 21
79.5009481432920779
 31
0.0
  0
LINE
  5
66B7
  8
0
 10
242.591236328511286
 20
69.5009481432920779
 30
0.0
 11
241.7252109247268095
 21
70.0009481432920779
 31
0.0
  0
LINE
  5
66B8
  8
0
 10
255.8591855209421908
 20
79.5009481432920779
 30
0.0
 11
242.591236328511286
 21
79.5009481432920779
 31
0.0
  0
LINE
  5
66B9
  8
0
 10
242.591236328511286
 20
69.5009481432920779
 30
0.0
 11
255.8591855209421908
 21
69.5009481432920779
 31
0.0
  0
LINE
  5
66BA
  8
0
 10
242.591236328511286
 20
79.5009481432920779
 30
0.0
 11
242.591236328511286
 21
69.5009481432920779
 31
0.0
  0
LINE
  5
66BB
  8
0
 10
255.8591855209421908
 20
79.5009481432920779
 30
0.0
 11
256.7252109247266958
 21
79.0009481432920637
 31
0.0
  0
LINE
  5
66BC
  8
0
 10
255.8591855209421908
 20
69.5009481432920779
 30
0.0
 11
255.8591855209421908
 21
79.5009481432920779
 31
0.0
  0
LINE
  5
66BD
  8
0
 10
256.7252109247266958
 20
70.0009481432920779
 30
0.0
 11
255.8591855209421908
 21
69.5009481432920779
 31
0.0
  0
LINE
  5
66BE
  8
1
 10
219.2252109247266958
 20
64.2509481432921348
 30
0.0
 11
219.2252109247266958
 21
84.7509481432921348
 31
0.0
  0
ARC
  5
66BF
  8
0
 10
219.2252109247266958
 20
74.5009481432920779
 30
0.0
 40
7.2500000000000151
 50
223.6028189727009874
 51
316.3971810272990979
  0
ARC
  5
66C0
  8
0
 10
219.2252109247266958
 20
74.5009481432920779
 30
0.0
 40
7.2500000000000062
 50
43.602818972700959
 51
136.3971810272990126
  0
LINE
  5
66C1
  8
0
 10
226.7252109247268095
 20
70.0009481432920779
 30
0.0
 11
225.8591855209421908
 21
69.5009481432920779
 31
0.0
  0
LINE
  5
66C2
  8
0
 10
225.8591855209421908
 20
79.5009481432920779
 30
0.0
 11
226.7252109247268095
 21
79.0009481432920637
 31
0.0
  0
LINE
  5
66C3
  8
0
 10
211.7252109247266958
 20
79.0009481432920637
 30
0.0
 11
212.591236328511286
 21
79.5009481432920779
 31
0.0
  0
LINE
  5
66C4
  8
0
 10
212.591236328511286
 20
69.5009481432920779
 30
0.0
 11
211.7252109247266958
 21
70.0009481432920779
 31
0.0
  0
LINE
  5
66C5
  8
0
 10
212.591236328511286
 20
69.5009481432920779
 30
0.0
 11
225.8591855209421908
 21
69.5009481432920779
 31
0.0
  0
LINE
  5
66C6
  8
0
 10
225.8591855209421908
 20
69.5009481432920779
 30
0.0
 11
225.8591855209421908
 21
79.5009481432920779
 31
0.0
  0
LINE
  5
66C7
  8
0
 10
225.8591855209421908
 20
79.5009481432920779
 30
0.0
 11
212.591236328511286
 21
79.5009481432920779
 31
0.0
  0
LINE
  5
66C8
  8
0
 10
212.591236328511286
 20
79.5009481432920779
 30
0.0
 11
212.591236328511286
 21
69.5009481432920779
 31
0.0
  0
LINE
  5
66C9
  8
1
 10
189.2252109247266958
 20
64.2509481432921348
 30
0.0
 11
189.2252109247266958
 21
84.7509481432921348
 31
0.0
  0
ARC
  5
66CA
  8
0
 10
189.2252109247266958
 20
74.5009481432920779
 30
0.0
 40
7.25
 50
223.6028189727009874
 51
316.3971810272990979
  0
ARC
  5
66CB
  8
0
 10
189.2252109247266958
 20
74.5009481432920779
 30
0.0
 40
7.2499999999999929
 50
23.7898731698640198
 51
156.2101268301302071
  0
LINE
  5
66CC
  8
0
 10
196.7252109247266958
 20
70.0009481432920779
 30
0.0
 11
195.8591855209423045
 21
69.5009481432920779
 31
0.0
  0
LINE
  5
66CD
  8
0
 10
195.8591855209423045
 20
79.5009481432920779
 30
0.0
 11
196.7252109247266958
 21
79.0009481432920637
 31
0.0
  0
LINE
  5
66CE
  8
0
 10
181.7252109247266958
 20
79.0009481432920637
 30
0.0
 11
182.5912363285110871
 21
79.5009481432920779
 31
0.0
  0
LINE
  5
66CF
  8
0
 10
182.5912363285110871
 20
69.5009481432920779
 30
0.0
 11
181.7252109247266958
 21
70.0009481432920779
 31
0.0
  0
LINE
  5
66D0
  8
0
 10
182.5912363285110871
 20
69.5009481432920779
 30
0.0
 11
195.8591855209423045
 21
69.5009481432920779
 31
0.0
  0
LINE
  5
66D1
  8
0
 10
195.8591855209423045
 20
69.5009481432920779
 30
0.0
 11
195.8591855209423045
 21
79.5009481432920779
 31
0.0
  0
LINE
  5
66D2
  8
0
 10
195.8591855209423045
 20
79.5009481432920779
 30
0.0
 11
182.5912363285110871
 21
79.5009481432920779
 31
0.0
  0
LINE
  5
66D3
  8
0
 10
182.5912363285110871
 20
79.5009481432920779
 30
0.0
 11
182.5912363285110871
 21
69.5009481432920779
 31
0.0
  0
LINE
  5
66D4
  8
1
 10
159.2252109247268947
 20
64.2509481432920779
 30
0.0
 11
159.2252109247264968
 21
84.7509481432921348
 31
0.0
  0
ARC
  5
66D5
  8
0
 10
159.2252109247266958
 20
74.5009481432920779
 30
0.0
 40
7.2500000000000009
 50
223.6028189727009874
 51
316.3971810272990979
  0
ARC
  5
66D6
  8
0
 10
159.2252109247266958
 20
74.5009481432920779
 30
0.0
 40
7.2500000000000071
 50
43.602818972700959
 51
136.3971810272990126
  0
LINE
  5
66D7
  8
0
 10
166.7252109247266958
 20
70.0009481432920779
 30
0.0
 11
165.8591855209423045
 21
69.5009481432920779
 31
0.0
  0
LINE
  5
66D8
  8
0
 10
165.8591855209423045
 20
79.5009481432920779
 30
0.0
 11
166.7252109247266958
 21
79.0009481432920637
 31
0.0
  0
LINE
  5
66D9
  8
0
 10
151.7252109247266958
 20
79.0009481432920637
 30
0.0
 11
152.5912363285110871
 21
79.5009481432920779
 31
0.0
  0
LINE
  5
66DA
  8
0
 10
152.5912363285110871
 20
69.5009481432920779
 30
0.0
 11
151.7252109247266958
 21
70.0009481432920779
 31
0.0
  0
LINE
  5
66DB
  8
0
 10
152.5912363285110871
 20
69.5009481432920779
 30
0.0
 11
165.8591855209423045
 21
69.5009481432920779
 31
0.0
  0
LINE
  5
66DC
  8
0
 10
165.8591855209423045
 20
69.5009481432920779
 30
0.0
 11
165.8591855209423045
 21
79.5009481432920779
 31
0.0
  0
LINE
  5
66DD
  8
0
 10
165.8591855209423045
 20
79.5009481432920779
 30
0.0
 11
152.5912363285110871
 21
79.5009481432920779
 31
0.0
  0
LINE
  5
66DE
  8
0
 10
152.5912363285110871
 20
79.5009481432920779
 30
0.0
 11
152.5912363285110871
 21
69.5009481432920779
 31
0.0
  0
LINE
  5
66DF
  8
1
 10
129.2252109247264968
 20
64.2509481432921348
 30
0.0
 11
129.2252109247268095
 21
84.7509481432921348
 31
0.0
  0
ARC
  5
66E0
  8
0
 10
129.2252109247266958
 20
74.5009481432920779
 30
0.0
 40
7.25
 50
223.6028189727009874
 51
316.3971810272990979
  0
ARC
  5
66E1
  8
0
 10
129.2252109247266958
 20
74.5009481432920779
 30
0.0
 40
7.25
 50
43.602818972700959
 51
136.3971810272990126
  0
LINE
  5
66E2
  8
0
 10
122.5912363285111013
 20
69.5009481432920779
 30
0.0
 11
135.8591855209423045
 21
69.5009481432920779
 31
0.0
  0
LINE
  5
66E3
  8
0
 10
135.8591855209423045
 20
79.5009481432920779
 30
0.0
 11
122.5912363285111013
 21
79.5009481432920779
 31
0.0
  0
LINE
  5
66E4
  8
0
 10
135.8591855209423045
 20
79.5009481432920779
 30
0.0
 11
136.7252109247266958
 21
79.0009481432920637
 31
0.0
  0
LINE
  5
66E5
  8
0
 10
135.8591855209423045
 20
69.5009481432920779
 30
0.0
 11
135.8591855209423045
 21
79.5009481432920779
 31
0.0
  0
LINE
  5
66E6
  8
0
 10
136.7252109247266958
 20
70.0009481432920779
 30
0.0
 11
135.8591855209423045
 21
69.5009481432920779
 31
0.0
  0
LINE
  5
66E7
  8
0
 10
121.7252109247266958
 20
79.0009481432920637
 30
0.0
 11
122.5912363285111013
 21
79.5009481432920779
 31
0.0
  0
LINE
  5
66E8
  8
0
 10
121.7252109247266958
 20
79.0009481432920637
 30
0.0
 11
121.7252109247266958
 21
70.0009481432920779
 31
0.0
  0
LINE
  5
66E9
  8
0
 10
122.5912363285111013
 20
69.5009481432920779
 30
0.0
 11
121.7252109247266958
 21
70.0009481432920779
 31
0.0
  0
LINE
  5
66EA
  8
0
 10
122.5912363285111013
 20
79.5009481432920779
 30
0.0
 11
122.5912363285111013
 21
69.5009481432920779
 31
0.0
  0
ARC
  5
66EB
  8
0
 10
357.1234862739644882
 20
77.4009481432919415
 30
0.0
 40
0.5999999999999877
 50
90.0000000000065086
 51
225.0170421721844036
  0
ARC
  5
66EC
  8
0
 10
354.2252109247268095
 20
74.5009481432919642
 30
0.0
 40
3.4999999999999969
 50
314.9829576165593039
 51
45.0170421721844534
  0
ARC
  5
66ED
  8
0
 10
357.1234862739644882
 20
71.600948143291987
 30
0.0
 40
0.6000000000000064
 50
134.9829590601356983
 51
269.9999999999935199
  0
LINE
  5
66EE
  8
0
 10
359.5252109247268777
 20
71.0009481432919642
 30
0.0
 11
357.1234862739644882
 21
71.0009481432919642
 31
0.0
  0
ARC
  5
66EF
  8
0
 10
359.5252109247264798
 20
71.2009481432919529
 30
0.0
 40
0.2000000000000277
 50
270.0000000000130171
 51
359.9999999999902229
  0
LINE
  5
66F0
  8
0
 10
359.7252109247268095
 20
77.8009481432919188
 30
0.0
 11
359.7252109247268095
 21
71.200948143291896
 31
0.0
  0
ARC
  5
66F1
  8
0
 10
348.9252109247266276
 20
71.200948143291896
 30
0.0
 40
0.1999999999999318
 50
179.9999999999870113
 51
270.0000000000259774
  0
LINE
  5
66F2
  8
0
 10
348.7252109247266958
 20
71.200948143291896
 30
0.0
 11
348.7252109247266958
 21
77.8009481432919188
 31
0.0
  0
ARC
  5
66F3
  8
0
 10
348.9252109247266276
 20
77.8009481432919756
 30
0.0
 40
0.199999999999954
 50
89.9999999999739515
 51
180.0000000000129887
  0
LINE
  5
66F4
  8
0
 10
348.9252109247266276
 20
78.0009481432919642
 30
0.0
 11
351.3269355754890171
 21
78.0009481432919642
 31
0.0
  0
ARC
  5
66F5
  8
0
 10
351.3269355754890171
 20
77.4009481432919415
 30
0.0
 40
0.6000000000000024
 50
314.9829590601265181
 51
90.0
  0
ARC
  5
66F6
  8
0
 10
354.2252109247268095
 20
74.5009481432919642
 30
0.0
 40
3.5000000000000231
 50
134.9829576165593039
 51
225.0170421721844036
  0
ARC
  5
66F7
  8
0
 10
351.3269355754890171
 20
71.6009481432919301
 30
0.0
 40
0.5999999999999828
 50
270.0
 51
45.0170421721913527
  0
LINE
  5
66F8
  8
0
 10
351.3269355754890171
 20
71.0009481432919642
 30
0.0
 11
348.9252109247266276
 21
71.0009481432919642
 31
0.0
  0
LINE
  5
66F9
  8
0
 10
357.1234862739644882
 20
78.0009481432919642
 30
0.0
 11
359.5252109247268777
 21
78.0009481432919642
 31
0.0
  0
ARC
  5
66FA
  8
0
 10
359.5252109247264798
 20
77.8009481432919188
 30
0.0
 40
0.2000000000000455
 50
0.0000000000065138
 51
89.9999999999804601
  0
CIRCLE
  5
66FB
  8
0
 10
354.2252109247268095
 20
74.5009481432919642
 30
0.0
 40
2.5
  0
CIRCLE
  5
66FC
  8
0
 10
354.2252109247268095
 20
74.5009481432919642
 30
0.0
 40
1.5
  0
ARC
  5
66FD
  8
0
 10
327.1234862739647724
 20
77.4009481432920552
 30
0.0
 40
0.5999999999999877
 50
90.0000000000065086
 51
225.0170421721844036
  0
ARC
  5
66FE
  8
0
 10
324.22521092472698
 20
74.5009481432920779
 30
0.0
 40
3.4999999999999969
 50
314.9829576165593039
 51
45.0170421721844534
  0
ARC
  5
66FF
  8
0
 10
327.1234862739647724
 20
71.6009481432921007
 30
0.0
 40
0.6000000000000064
 50
134.9829590601356983
 51
269.9999999999935199
  0
LINE
  5
6700
  8
0
 10
329.5252109247272188
 20
71.0009481432920637
 30
0.0
 11
327.1234862739647724
 21
71.0009481432920637
 31
0.0
  0
ARC
  5
6701
  8
0
 10
329.5252109247267072
 20
71.2009481432920666
 30
0.0
 40
0.2000000000000277
 50
270.0000000000130171
 51
359.9999999999902229
  0
LINE
  5
6702
  8
0
 10
329.72521092472698
 20
77.8009481432920325
 30
0.0
 11
329.72521092472698
 21
71.2009481432920097
 31
0.0
  0
ARC
  5
6703
  8
0
 10
318.9252109247267981
 20
71.2009481432920097
 30
0.0
 40
0.1999999999999318
 50
179.9999999999870113
 51
270.0000000000259774
  0
LINE
  5
6704
  8
0
 10
318.72521092472698
 20
71.2009481432920097
 30
0.0
 11
318.72521092472698
 21
77.8009481432920325
 31
0.0
  0
ARC
  5
6705
  8
0
 10
318.9252109247267981
 20
77.8009481432920893
 30
0.0
 40
0.199999999999954
 50
89.9999999999739515
 51
180.0000000000129887
  0
LINE
  5
6706
  8
0
 10
318.9252109247267981
 20
78.0009481432920779
 30
0.0
 11
321.3269355754891876
 21
78.0009481432920779
 31
0.0
  0
ARC
  5
6707
  8
0
 10
321.3269355754891876
 20
77.4009481432920552
 30
0.0
 40
0.6000000000000024
 50
314.9829590601265181
 51
90.0
  0
ARC
  5
6708
  8
0
 10
324.22521092472698
 20
74.5009481432920779
 30
0.0
 40
3.5000000000000231
 50
134.9829576165593039
 51
225.0170421721844036
  0
ARC
  5
6709
  8
0
 10
321.3269355754891876
 20
71.6009481432920438
 30
0.0
 40
0.5999999999999828
 50
270.0
 51
45.0170421721913527
  0
LINE
  5
670A
  8
0
 10
321.3269355754891876
 20
71.0009481432920637
 30
0.0
 11
318.9252109247267981
 21
71.0009481432920637
 31
0.0
  0
LINE
  5
670B
  8
0
 10
327.1234862739647724
 20
78.0009481432920779
 30
0.0
 11
329.5252109247272188
 21
78.0009481432920779
 31
0.0
  0
ARC
  5
670C
  8
0
 10
329.5252109247267072
 20
77.8009481432920325
 30
0.0
 40
0.2000000000000455
 50
0.0000000000065138
 51
89.9999999999804601
  0
CIRCLE
  5
670D
  8
0
 10
324.22521092472698
 20
74.5009481432920779
 30
0.0
 40
2.5
  0
CIRCLE
  5
670E
  8
0
 10
324.22521092472698
 20
74.5009481432920779
 30
0.0
 40
1.5
  0
ARC
  5
670F
  8
0
 10
297.1234862739644882
 20
77.4009481432919983
 30
0.0
 40
0.5999999999999877
 50
90.0000000000065086
 51
225.0170421721844036
  0
ARC
  5
6710
  8
0
 10
294.2252109247266958
 20
74.5009481432920211
 30
0.0
 40
3.4999999999999969
 50
314.9829576165593039
 51
45.0170421721844534
  0
ARC
  5
6711
  8
0
 10
297.1234862739644882
 20
71.6009481432920438
 30
0.0
 40
0.6000000000000064
 50
134.9829590601356983
 51
269.9999999999935199
  0
LINE
  5
6712
  8
0
 10
299.5252109247268777
 20
71.0009481432920211
 30
0.0
 11
297.1234862739644882
 21
71.0009481432920211
 31
0.0
  0
ARC
  5
6713
  8
0
 10
299.5252109247264798
 20
71.2009481432920097
 30
0.0
 40
0.2000000000000277
 50
270.0000000000130171
 51
359.9999999999902229
  0
LINE
  5
6714
  8
0
 10
299.7252109247268095
 20
77.8009481432919756
 30
0.0
 11
299.7252109247268095
 21
71.2009481432919529
 31
0.0
  0
ARC
  5
6715
  8
0
 10
288.9252109247266276
 20
71.2009481432919529
 30
0.0
 40
0.1999999999999318
 50
179.9999999999870113
 51
270.0000000000259774
  0
LINE
  5
6716
  8
0
 10
288.7252109247266958
 20
71.2009481432919529
 30
0.0
 11
288.7252109247266958
 21
77.8009481432919756
 31
0.0
  0
ARC
  5
6717
  8
0
 10
288.9252109247266276
 20
77.8009481432920325
 30
0.0
 40
0.199999999999954
 50
89.9999999999739515
 51
180.0000000000129887
  0
LINE
  5
6718
  8
0
 10
288.9252109247266276
 20
78.0009481432920211
 30
0.0
 11
291.3269355754890171
 21
78.0009481432920211
 31
0.0
  0
ARC
  5
6719
  8
0
 10
291.3269355754890171
 20
77.4009481432919983
 30
0.0
 40
0.6000000000000024
 50
314.9829590601265181
 51
90.0
  0
ARC
  5
671A
  8
0
 10
294.2252109247266958
 20
74.5009481432920211
 30
0.0
 40
3.5000000000000231
 50
134.9829576165593039
 51
225.0170421721844036
  0
ARC
  5
671B
  8
0
 10
291.3269355754890171
 20
71.600948143291987
 30
0.0
 40
0.5999999999999828
 50
270.0
 51
45.0170421721913527
  0
LINE
  5
671C
  8
0
 10
291.3269355754890171
 20
71.0009481432920211
 30
0.0
 11
288.9252109247266276
 21
71.0009481432920211
 31
0.0
  0
LINE
  5
671D
  8
0
 10
297.1234862739644882
 20
78.0009481432920211
 30
0.0
 11
299.5252109247268777
 21
78.0009481432920211
 31
0.0
  0
ARC
  5
671E
  8
0
 10
299.5252109247264798
 20
77.8009481432919756
 30
0.0
 40
0.2000000000000455
 50
0.0000000000065138
 51
89.9999999999804601
  0
CIRCLE
  5
671F
  8
0
 10
294.2252109247266958
 20
74.5009481432920211
 30
0.0
 40
2.5
  0
CIRCLE
  5
6720
  8
0
 10
294.2252109247266958
 20
74.5009481432920211
 30
0.0
 40
1.5
  0
ARC
  5
6721
  8
0
 10
267.1234862739647724
 20
77.4009481432919983
 30
0.0
 40
0.5999999999999877
 50
90.0000000000065086
 51
225.0170421721844036
  0
ARC
  5
6722
  8
0
 10
264.22521092472698
 20
74.5009481432920211
 30
0.0
 40
3.4999999999999969
 50
314.9829576165593039
 51
45.0170421721844534
  0
ARC
  5
6723
  8
0
 10
267.1234862739647724
 20
71.6009481432920438
 30
0.0
 40
0.6000000000000064
 50
134.9829590601356983
 51
269.9999999999935199
  0
LINE
  5
6724
  8
0
 10
269.5252109247272188
 20
71.0009481432920211
 30
0.0
 11
267.1234862739647724
 21
71.0009481432920211
 31
0.0
  0
ARC
  5
6725
  8
0
 10
269.5252109247267072
 20
71.2009481432920097
 30
0.0
 40
0.2000000000000277
 50
270.0000000000130171
 51
359.9999999999902229
  0
LINE
  5
6726
  8
0
 10
269.72521092472698
 20
77.8009481432919756
 30
0.0
 11
269.72521092472698
 21
71.2009481432919529
 31
0.0
  0
ARC
  5
6727
  8
0
 10
258.9252109247267981
 20
71.2009481432919529
 30
0.0
 40
0.1999999999999318
 50
179.9999999999870113
 51
270.0000000000259774
  0
LINE
  5
6728
  8
0
 10
258.72521092472698
 20
71.2009481432919529
 30
0.0
 11
258.72521092472698
 21
77.8009481432919756
 31
0.0
  0
ARC
  5
6729
  8
0
 10
258.9252109247267981
 20
77.8009481432920325
 30
0.0
 40
0.199999999999954
 50
89.9999999999739515
 51
180.0000000000129887
  0
LINE
  5
672A
  8
0
 10
258.9252109247267981
 20
78.0009481432920211
 30
0.0
 11
261.3269355754891876
 21
78.0009481432920211
 31
0.0
  0
ARC
  5
672B
  8
0
 10
261.3269355754891876
 20
77.4009481432919983
 30
0.0
 40
0.6000000000000024
 50
314.9829590601265181
 51
90.0
  0
ARC
  5
672C
  8
0
 10
264.22521092472698
 20
74.5009481432920211
 30
0.0
 40
3.5000000000000231
 50
134.9829576165593039
 51
225.0170421721844036
  0
ARC
  5
672D
  8
0
 10
261.3269355754891876
 20
71.600948143291987
 30
0.0
 40
0.5999999999999828
 50
270.0
 51
45.0170421721913527
  0
LINE
  5
672E
  8
0
 10
261.3269355754891876
 20
71.0009481432920211
 30
0.0
 11
258.9252109247267981
 21
71.0009481432920211
 31
0.0
  0
LINE
  5
672F
  8
0
 10
267.1234862739647724
 20
78.0009481432920211
 30
0.0
 11
269.5252109247272188
 21
78.0009481432920211
 31
0.0
  0
ARC
  5
6730
  8
0
 10
269.5252109247267072
 20
77.8009481432919756
 30
0.0
 40
0.2000000000000455
 50
0.0000000000065138
 51
89.9999999999804601
  0
CIRCLE
  5
6731
  8
0
 10
264.22521092472698
 20
74.5009481432920211
 30
0.0
 40
2.5
  0
CIRCLE
  5
6732
  8
0
 10
264.22521092472698
 20
74.5009481432920211
 30
0.0
 40
1.5
  0
ARC
  5
6733
  8
0
 10
237.1234862739648008
 20
77.4009481432920552
 30
0.0
 40
0.5999999999999877
 50
90.0000000000065086
 51
225.0170421721844036
  0
ARC
  5
6734
  8
0
 10
234.2252109247270084
 20
74.5009481432920779
 30
0.0
 40
3.4999999999999969
 50
314.9829576165593039
 51
45.0170421721844534
  0
ARC
  5
6735
  8
0
 10
237.1234862739648008
 20
71.6009481432921007
 30
0.0
 40
0.6000000000000064
 50
134.9829590601356983
 51
269.9999999999935199
  0
LINE
  5
6736
  8
0
 10
239.5252109247271903
 20
71.0009481432920637
 30
0.0
 11
237.1234862739648008
 21
71.0009481432920637
 31
0.0
  0
ARC
  5
6737
  8
0
 10
239.5252109247267072
 20
71.2009481432920666
 30
0.0
 40
0.2000000000000277
 50
270.0000000000130171
 51
359.9999999999902229
  0
LINE
  5
6738
  8
0
 10
239.7252109247270084
 20
77.8009481432920325
 30
0.0
 11
239.7252109247270084
 21
71.2009481432920097
 31
0.0
  0
ARC
  5
6739
  8
0
 10
228.9252109247267981
 20
71.2009481432920097
 30
0.0
 40
0.1999999999999318
 50
179.9999999999870113
 51
270.0000000000259774
  0
LINE
  5
673A
  8
0
 10
228.7252109247270084
 20
71.2009481432920097
 30
0.0
 11
228.7252109247270084
 21
77.8009481432920325
 31
0.0
  0
ARC
  5
673B
  8
0
 10
228.9252109247267981
 20
77.8009481432920893
 30
0.0
 40
0.199999999999954
 50
89.9999999999739515
 51
180.0000000000129887
  0
LINE
  5
673C
  8
0
 10
228.9252109247267981
 20
78.0009481432920779
 30
0.0
 11
231.3269355754891876
 21
78.0009481432920779
 31
0.0
  0
ARC
  5
673D
  8
0
 10
231.3269355754891876
 20
77.4009481432920552
 30
0.0
 40
0.6000000000000024
 50
314.9829590601265181
 51
90.0
  0
ARC
  5
673E
  8
0
 10
234.2252109247270084
 20
74.5009481432920779
 30
0.0
 40
3.5000000000000231
 50
134.9829576165593039
 51
225.0170421721844036
  0
ARC
  5
673F
  8
0
 10
231.3269355754891876
 20
71.6009481432920438
 30
0.0
 40
0.5999999999999828
 50
270.0
 51
45.0170421721913527
  0
LINE
  5
6740
  8
0
 10
231.3269355754891876
 20
71.0009481432920637
 30
0.0
 11
228.9252109247267981
 21
71.0009481432920637
 31
0.0
  0
LINE
  5
6741
  8
0
 10
237.1234862739648008
 20
78.0009481432920779
 30
0.0
 11
239.5252109247271903
 21
78.0009481432920779
 31
0.0
  0
ARC
  5
6742
  8
0
 10
239.5252109247267072
 20
77.8009481432920325
 30
0.0
 40
0.2000000000000455
 50
0.0000000000065138
 51
89.9999999999804601
  0
CIRCLE
  5
6743
  8
0
 10
234.2252109247270084
 20
74.5009481432920779
 30
0.0
 40
2.5
  0
CIRCLE
  5
6744
  8
0
 10
234.2252109247270084
 20
74.5009481432920779
 30
0.0
 40
1.5
  0
ARC
  5
6745
  8
0
 10
207.1234862739648008
 20
77.4009481432919983
 30
0.0
 40
0.5999999999999877
 50
90.0000000000065086
 51
225.0170421721844036
  0
ARC
  5
6746
  8
0
 10
204.2252109247270084
 20
74.5009481432920211
 30
0.0
 40
3.4999999999999969
 50
314.9829576165593039
 51
45.0170421721844534
  0
ARC
  5
6747
  8
0
 10
207.1234862739648008
 20
71.6009481432920438
 30
0.0
 40
0.6000000000000064
 50
134.9829590601356983
 51
269.9999999999935199
  0
LINE
  5
6748
  8
0
 10
209.5252109247271903
 20
71.0009481432920211
 30
0.0
 11
207.1234862739648008
 21
71.0009481432920211
 31
0.0
  0
ARC
  5
6749
  8
0
 10
209.5252109247267072
 20
71.2009481432920097
 30
0.0
 40
0.2000000000000277
 50
270.0000000000130171
 51
359.9999999999902229
  0
LINE
  5
674A
  8
0
 10
209.7252109247270084
 20
77.8009481432919756
 30
0.0
 11
209.7252109247270084
 21
71.2009481432919529
 31
0.0
  0
ARC
  5
674B
  8
0
 10
198.9252109247267981
 20
71.2009481432919529
 30
0.0
 40
0.1999999999999318
 50
179.9999999999870113
 51
270.0000000000259774
  0
LINE
  5
674C
  8
0
 10
198.7252109247270084
 20
71.2009481432919529
 30
0.0
 11
198.7252109247270084
 21
77.8009481432919756
 31
0.0
  0
ARC
  5
674D
  8
0
 10
198.9252109247267981
 20
77.8009481432920325
 30
0.0
 40
0.199999999999954
 50
89.9999999999739515
 51
180.0000000000129887
  0
LINE
  5
674E
  8
0
 10
198.9252109247267981
 20
78.0009481432920211
 30
0.0
 11
201.3269355754891876
 21
78.0009481432920211
 31
0.0
  0
ARC
  5
674F
  8
0
 10
201.3269355754891876
 20
77.4009481432919983
 30
0.0
 40
0.6000000000000024
 50
314.9829590601265181
 51
90.0
  0
ARC
  5
6750
  8
0
 10
204.2252109247270084
 20
74.5009481432920211
 30
0.0
 40
3.5000000000000231
 50
134.9829576165593039
 51
225.0170421721844036
  0
ARC
  5
6751
  8
0
 10
201.3269355754891876
 20
71.600948143291987
 30
0.0
 40
0.5999999999999828
 50
270.0
 51
45.0170421721913527
  0
LINE
  5
6752
  8
0
 10
201.3269355754891876
 20
71.0009481432920211
 30
0.0
 11
198.9252109247267981
 21
71.0009481432920211
 31
0.0
  0
LINE
  5
6753
  8
0
 10
207.1234862739648008
 20
78.0009481432920211
 30
0.0
 11
209.5252109247271903
 21
78.0009481432920211
 31
0.0
  0
ARC
  5
6754
  8
0
 10
209.5252109247267072
 20
77.8009481432919756
 30
0.0
 40
0.2000000000000455
 50
0.0000000000065138
 51
89.9999999999804601
  0
CIRCLE
  5
6755
  8
0
 10
204.2252109247270084
 20
74.5009481432920211
 30
0.0
 40
2.5
  0
CIRCLE
  5
6756
  8
0
 10
204.2252109247270084
 20
74.5009481432920211
 30
0.0
 40
1.5
  0
ARC
  5
6757
  8
0
 10
177.1234862739646019
 20
77.4009481432919983
 30
0.0
 40
0.5999999999999877
 50
90.0000000000065086
 51
225.0170421721844036
  0
ARC
  5
6758
  8
0
 10
174.2252109247268095
 20
74.5009481432920211
 30
0.0
 40
3.4999999999999969
 50
314.9829576165593039
 51
45.0170421721844534
  0
ARC
  5
6759
  8
0
 10
177.1234862739646019
 20
71.6009481432920438
 30
0.0
 40
0.6000000000000064
 50
134.9829590601356983
 51
269.9999999999935199
  0
LINE
  5
675A
  8
0
 10
179.5252109247269914
 20
71.0009481432920211
 30
0.0
 11
177.1234862739646019
 21
71.0009481432920211
 31
0.0
  0
ARC
  5
675B
  8
0
 10
179.5252109247265935
 20
71.2009481432920097
 30
0.0
 40
0.2000000000000277
 50
270.0000000000130171
 51
359.9999999999902229
  0
LINE
  5
675C
  8
0
 10
179.7252109247268095
 20
77.8009481432919756
 30
0.0
 11
179.7252109247268095
 21
71.2009481432919529
 31
0.0
  0
ARC
  5
675D
  8
0
 10
168.9252109247267128
 20
71.2009481432919529
 30
0.0
 40
0.1999999999999318
 50
179.9999999999870113
 51
270.0000000000259774
  0
LINE
  5
675E
  8
0
 10
168.7252109247268095
 20
71.2009481432919529
 30
0.0
 11
168.7252109247268095
 21
77.8009481432919756
 31
0.0
  0
ARC
  5
675F
  8
0
 10
168.9252109247267128
 20
77.8009481432920325
 30
0.0
 40
0.199999999999954
 50
89.9999999999739515
 51
180.0000000000129887
  0
LINE
  5
6760
  8
0
 10
168.9252109247267128
 20
78.0009481432920211
 30
0.0
 11
171.3269355754889887
 21
78.0009481432920211
 31
0.0
  0
ARC
  5
6761
  8
0
 10
171.3269355754889887
 20
77.4009481432919983
 30
0.0
 40
0.6000000000000024
 50
314.9829590601265181
 51
90.0
  0
ARC
  5
6762
  8
0
 10
174.2252109247268095
 20
74.5009481432920211
 30
0.0
 40
3.5000000000000231
 50
134.9829576165593039
 51
225.0170421721844036
  0
ARC
  5
6763
  8
0
 10
171.3269355754889887
 20
71.600948143291987
 30
0.0
 40
0.5999999999999828
 50
270.0
 51
45.0170421721913527
  0
LINE
  5
6764
  8
0
 10
171.3269355754889887
 20
71.0009481432920211
 30
0.0
 11
168.9252109247267128
 21
71.0009481432920211
 31
0.0
  0
LINE
  5
6765
  8
0
 10
177.1234862739646019
 20
78.0009481432920211
 30
0.0
 11
179.5252109247269914
 21
78.0009481432920211
 31
0.0
  0
ARC
  5
6766
  8
0
 10
179.5252109247265935
 20
77.8009481432919756
 30
0.0
 40
0.2000000000000455
 50
0.0000000000065138
 51
89.9999999999804601
  0
CIRCLE
  5
6767
  8
0
 10
174.2252109247268095
 20
74.5009481432920211
 30
0.0
 40
2.5
  0
CIRCLE
  5
6768
  8
0
 10
174.2252109247268095
 20
74.5009481432920211
 30
0.0
 40
1.5
  0
ARC
  5
6769
  8
0
 10
147.1234862739646871
 20
77.4009481432920552
 30
0.0
 40
0.5999999999999877
 50
90.0000000000065086
 51
225.0170421721844036
  0
ARC
  5
676A
  8
0
 10
144.2252109247268947
 20
74.5009481432920779
 30
0.0
 40
3.4999999999999969
 50
314.9829576165593039
 51
45.0170421721844534
  0
ARC
  5
676B
  8
0
 10
147.1234862739646871
 20
71.6009481432921007
 30
0.0
 40
0.6000000000000064
 50
134.9829590601356983
 51
269.9999999999935199
  0
LINE
  5
676C
  8
0
 10
149.5252109247271051
 20
71.0009481432920637
 30
0.0
 11
147.1234862739646871
 21
71.0009481432920637
 31
0.0
  0
ARC
  5
676D
  8
0
 10
149.5252109247267072
 20
71.2009481432920666
 30
0.0
 40
0.2000000000000277
 50
270.0000000000130171
 51
359.9999999999902229
  0
LINE
  5
676E
  8
0
 10
149.7252109247270084
 20
77.8009481432920325
 30
0.0
 11
149.7252109247270084
 21
71.2009481432920097
 31
0.0
  0
ARC
  5
676F
  8
0
 10
138.9252109247267981
 20
71.2009481432920097
 30
0.0
 40
0.1999999999999318
 50
179.9999999999870113
 51
270.0000000000259774
  0
LINE
  5
6770
  8
0
 10
138.7252109247270084
 20
71.2009481432920097
 30
0.0
 11
138.7252109247270084
 21
77.8009481432920325
 31
0.0
  0
ARC
  5
6771
  8
0
 10
138.9252109247267981
 20
77.8009481432920893
 30
0.0
 40
0.199999999999954
 50
89.9999999999739515
 51
180.0000000000129887
  0
LINE
  5
6772
  8
0
 10
138.9252109247267981
 20
78.0009481432920779
 30
0.0
 11
141.3269355754891876
 21
78.0009481432920779
 31
0.0
  0
ARC
  5
6773
  8
0
 10
141.3269355754891876
 20
77.4009481432920552
 30
0.0
 40
0.6000000000000024
 50
314.9829590601265181
 51
90.0
  0
ARC
  5
6774
  8
0
 10
144.2252109247268947
 20
74.5009481432920779
 30
0.0
 40
3.5000000000000231
 50
134.9829576165593039
 51
225.0170421721844036
  0
ARC
  5
6775
  8
0
 10
141.3269355754891876
 20
71.6009481432920438
 30
0.0
 40
0.5999999999999828
 50
270.0
 51
45.0170421721913527
  0
LINE
  5
6776
  8
0
 10
141.3269355754891876
 20
71.0009481432920637
 30
0.0
 11
138.9252109247267981
 21
71.0009481432920637
 31
0.0
  0
LINE
  5
6777
  8
0
 10
147.1234862739646871
 20
78.0009481432920779
 30
0.0
 11
149.5252109247271051
 21
78.0009481432920779
 31
0.0
  0
ARC
  5
6778
  8
0
 10
149.5252109247267072
 20
77.8009481432920325
 30
0.0
 40
0.2000000000000455
 50
0.0000000000065138
 51
89.9999999999804601
  0
CIRCLE
  5
6779
  8
0
 10
144.2252109247268947
 20
74.5009481432920779
 30
0.0
 40
2.5
  0
CIRCLE
  5
677A
  8
0
 10
144.2252109247268947
 20
74.5009481432920779
 30
0.0
 40
1.5
  0
ARC
  5
677B
  8
0
 10
336.5252109247272188
 20
75.4509481432921802
 30
0.0
 40
0.2000000000000136
 50
270.0
 51
359.9999999999968168
  0
LINE
  5
677C
  8
0
 10
333.72521092472698
 20
73.5509481432921461
 30
0.0
 11
333.72521092472698
 21
71.2009481432921234
 31
0.0
  0
ARC
  5
677D
  8
0
 10
333.9252109247267981
 20
73.550948143292203
 30
0.0
 40
0.1999999999999651
 50
89.9999999999934914
 51
180.0000000000098055
  0
LINE
  5
677E
  8
0
 10
336.5252109247272188
 20
73.7509481432921916
 30
0.0
 11
333.9252109247267981
 21
73.7509481432921916
 31
0.0
  0
ARC
  5
677F
  8
0
 10
336.5252109247272188
 20
73.5509481432921461
 30
0.0
 40
0.200000000000017
 50
0.0000000000032569
 51
90.0
  0
LINE
  5
6780
  8
0
 10
336.72521092472698
 20
72.0009481432921916
 30
0.0
 11
336.72521092472698
 21
73.5509481432921461
 31
0.0
  0
LINE
  5
6781
  8
0
 10
341.72521092472698
 20
72.0009481432921916
 30
0.0
 11
336.72521092472698
 21
72.0009481432921916
 31
0.0
  0
LINE
  5
6782
  8
0
 10
341.72521092472698
 20
73.5509481432921461
 30
0.0
 11
341.72521092472698
 21
72.0009481432921916
 31
0.0
  0
ARC
  5
6783
  8
0
 10
341.9252109247267981
 20
73.550948143292203
 30
0.0
 40
0.1999999999999651
 50
89.9999999999934914
 51
180.0000000000098055
  0
LINE
  5
6784
  8
0
 10
344.5252109247272188
 20
73.7509481432921916
 30
0.0
 11
341.9252109247267981
 21
73.7509481432921916
 31
0.0
  0
ARC
  5
6785
  8
0
 10
344.5252109247272188
 20
73.5509481432921461
 30
0.0
 40
0.200000000000017
 50
0.0000000000032569
 51
90.0
  0
LINE
  5
6786
  8
0
 10
344.72521092472698
 20
71.2009481432921234
 30
0.0
 11
344.72521092472698
 21
73.5509481432921461
 31
0.0
  0
ARC
  5
6787
  8
0
 10
344.5252109247272188
 20
71.2009481432921802
 30
0.0
 40
0.2000000000000135
 50
270.0
 51
359.9999999999968168
  0
LINE
  5
6788
  8
0
 10
333.9252109247267981
 20
71.0009481432921916
 30
0.0
 11
344.5252109247272188
 21
71.0009481432921916
 31
0.0
  0
ARC
  5
6789
  8
0
 10
333.9252109247267981
 20
71.2009481432921234
 30
0.0
 40
0.1999999999999602
 50
179.9999999999901945
 51
270.0000000000064801
  0
ARC
  5
678A
  8
0
 10
333.9252109247267981
 20
77.800948143292203
 30
0.0
 40
0.1999999999999655
 50
89.9999999999934914
 51
180.0000000000098055
  0
LINE
  5
678B
  8
0
 10
344.5252109247272188
 20
78.0009481432921916
 30
0.0
 11
333.9252109247267981
 21
78.0009481432921916
 31
0.0
  0
ARC
  5
678C
  8
0
 10
344.5252109247272188
 20
77.8009481432921461
 30
0.0
 40
0.200000000000017
 50
0.0000000000032569
 51
90.0
  0
LINE
  5
678D
  8
0
 10
344.72521092472698
 20
75.4509481432921234
 30
0.0
 11
344.72521092472698
 21
77.8009481432921461
 31
0.0
  0
ARC
  5
678E
  8
0
 10
344.5252109247272188
 20
75.4509481432921802
 30
0.0
 40
0.2000000000000135
 50
270.0
 51
359.9999999999968168
  0
LINE
  5
678F
  8
0
 10
341.9252109247267981
 20
75.2509481432921916
 30
0.0
 11
344.5252109247272188
 21
75.2509481432921916
 31
0.0
  0
ARC
  5
6790
  8
0
 10
341.9252109247267981
 20
75.4509481432921234
 30
0.0
 40
0.1999999999999602
 50
179.9999999999901945
 51
270.0000000000064801
  0
LINE
  5
6791
  8
0
 10
341.72521092472698
 20
77.0009481432921916
 30
0.0
 11
341.72521092472698
 21
75.4509481432921234
 31
0.0
  0
LINE
  5
6792
  8
0
 10
336.72521092472698
 20
77.0009481432921916
 30
0.0
 11
341.72521092472698
 21
77.0009481432921916
 31
0.0
  0
LINE
  5
6793
  8
0
 10
336.72521092472698
 20
75.4509481432921234
 30
0.0
 11
336.72521092472698
 21
77.0009481432921916
 31
0.0
  0
LINE
  5
6794
  8
0
 10
333.9252109247267981
 20
75.2509481432921916
 30
0.0
 11
336.5252109247272188
 21
75.2509481432921916
 31
0.0
  0
ARC
  5
6795
  8
0
 10
333.9252109247267981
 20
75.4509481432921234
 30
0.0
 40
0.1999999999999602
 50
179.9999999999901945
 51
270.0000000000064801
  0
LINE
  5
6796
  8
0
 10
333.72521092472698
 20
77.8009481432921461
 30
0.0
 11
333.72521092472698
 21
75.4509481432921234
 31
0.0
  0
ARC
  5
6797
  8
0
 10
306.5252109247268777
 20
75.4509481432921234
 30
0.0
 40
0.2000000000000136
 50
270.0
 51
359.9999999999968168
  0
LINE
  5
6798
  8
0
 10
303.7252109247268095
 20
73.5509481432920893
 30
0.0
 11
303.7252109247268095
 21
71.2009481432920666
 31
0.0
  0
ARC
  5
6799
  8
0
 10
303.9252109247266276
 20
73.5509481432921461
 30
0.0
 40
0.1999999999999651
 50
89.9999999999934914
 51
180.0000000000098055
  0
LINE
  5
679A
  8
0
 10
306.5252109247268777
 20
73.7509481432921348
 30
0.0
 11
303.9252109247266276
 21
73.7509481432921348
 31
0.0
  0
ARC
  5
679B
  8
0
 10
306.5252109247268777
 20
73.5509481432920893
 30
0.0
 40
0.200000000000017
 50
0.0000000000032569
 51
90.0
  0
LINE
  5
679C
  8
0
 10
306.7252109247266958
 20
72.0009481432921348
 30
0.0
 11
306.7252109247266958
 21
73.5509481432920893
 31
0.0
  0
LINE
  5
679D
  8
0
 10
311.7252109247268095
 20
72.0009481432921348
 30
0.0
 11
306.7252109247266958
 21
72.0009481432921348
 31
0.0
  0
LINE
  5
679E
  8
0
 10
311.7252109247268095
 20
73.5509481432920893
 30
0.0
 11
311.7252109247268095
 21
72.0009481432921348
 31
0.0
  0
ARC
  5
679F
  8
0
 10
311.9252109247266276
 20
73.5509481432921461
 30
0.0
 40
0.1999999999999651
 50
89.9999999999934914
 51
180.0000000000098055
  0
LINE
  5
67A0
  8
0
 10
314.5252109247269914
 20
73.7509481432921348
 30
0.0
 11
311.9252109247266276
 21
73.7509481432921348
 31
0.0
  0
ARC
  5
67A1
  8
0
 10
314.5252109247269914
 20
73.5509481432920893
 30
0.0
 40
0.200000000000017
 50
0.0000000000032569
 51
90.0
  0
LINE
  5
67A2
  8
0
 10
314.7252109247268095
 20
71.2009481432920666
 30
0.0
 11
314.7252109247268095
 21
73.5509481432920893
 31
0.0
  0
ARC
  5
67A3
  8
0
 10
314.5252109247269914
 20
71.2009481432921234
 30
0.0
 40
0.2000000000000135
 50
270.0
 51
359.9999999999968168
  0
LINE
  5
67A4
  8
0
 10
303.9252109247266276
 20
71.0009481432921348
 30
0.0
 11
314.5252109247269914
 21
71.0009481432921348
 31
0.0
  0
ARC
  5
67A5
  8
0
 10
303.9252109247266276
 20
71.2009481432920666
 30
0.0
 40
0.1999999999999602
 50
179.9999999999901945
 51
270.0000000000064801
  0
ARC
  5
67A6
  8
0
 10
303.9252109247266276
 20
77.8009481432921461
 30
0.0
 40
0.1999999999999655
 50
89.9999999999934914
 51
180.0000000000098055
  0
LINE
  5
67A7
  8
0
 10
314.5252109247269914
 20
78.0009481432921348
 30
0.0
 11
303.9252109247266276
 21
78.0009481432921348
 31
0.0
  0
ARC
  5
67A8
  8
0
 10
314.5252109247269914
 20
77.8009481432920893
 30
0.0
 40
0.200000000000017
 50
0.0000000000032569
 51
90.0
  0
LINE
  5
67A9
  8
0
 10
314.7252109247268095
 20
75.4509481432920666
 30
0.0
 11
314.7252109247268095
 21
77.8009481432920893
 31
0.0
  0
ARC
  5
67AA
  8
0
 10
314.5252109247269914
 20
75.4509481432921234
 30
0.0
 40
0.2000000000000135
 50
270.0
 51
359.9999999999968168
  0
LINE
  5
67AB
  8
0
 10
311.9252109247266276
 20
75.2509481432921348
 30
0.0
 11
314.5252109247269914
 21
75.2509481432921348
 31
0.0
  0
ARC
  5
67AC
  8
0
 10
311.9252109247266276
 20
75.4509481432920666
 30
0.0
 40
0.1999999999999602
 50
179.9999999999901945
 51
270.0000000000064801
  0
LINE
  5
67AD
  8
0
 10
311.7252109247268095
 20
77.0009481432921348
 30
0.0
 11
311.7252109247268095
 21
75.4509481432920666
 31
0.0
  0
LINE
  5
67AE
  8
0
 10
306.7252109247266958
 20
77.0009481432921348
 30
0.0
 11
311.7252109247268095
 21
77.0009481432921348
 31
0.0
  0
LINE
  5
67AF
  8
0
 10
306.7252109247266958
 20
75.4509481432920666
 30
0.0
 11
306.7252109247266958
 21
77.0009481432921348
 31
0.0
  0
LINE
  5
67B0
  8
0
 10
303.9252109247266276
 20
75.2509481432921348
 30
0.0
 11
306.5252109247268777
 21
75.2509481432921348
 31
0.0
  0
ARC
  5
67B1
  8
0
 10
303.9252109247266276
 20
75.4509481432920666
 30
0.0
 40
0.1999999999999602
 50
179.9999999999901945
 51
270.0000000000064801
  0
LINE
  5
67B2
  8
0
 10
303.7252109247268095
 20
77.8009481432920893
 30
0.0
 11
303.7252109247268095
 21
75.4509481432920666
 31
0.0
  0
ARC
  5
67B3
  8
0
 10
276.5252109247268777
 20
75.4509481432921234
 30
0.0
 40
0.2000000000000136
 50
270.0
 51
359.9999999999968168
  0
LINE
  5
67B4
  8
0
 10
273.7252109247266958
 20
73.5509481432920893
 30
0.0
 11
273.7252109247266958
 21
71.2009481432920666
 31
0.0
  0
ARC
  5
67B5
  8
0
 10
273.9252109247266276
 20
73.5509481432921461
 30
0.0
 40
0.1999999999999651
 50
89.9999999999934914
 51
180.0000000000098055
  0
LINE
  5
67B6
  8
0
 10
276.5252109247268777
 20
73.7509481432921348
 30
0.0
 11
273.9252109247266276
 21
73.7509481432921348
 31
0.0
  0
ARC
  5
67B7
  8
0
 10
276.5252109247268777
 20
73.5509481432920893
 30
0.0
 40
0.200000000000017
 50
0.0000000000032569
 51
90.0
  0
LINE
  5
67B8
  8
0
 10
276.7252109247268095
 20
72.0009481432921348
 30
0.0
 11
276.7252109247268095
 21
73.5509481432920893
 31
0.0
  0
LINE
  5
67B9
  8
0
 10
281.7252109247266958
 20
72.0009481432921348
 30
0.0
 11
276.7252109247268095
 21
72.0009481432921348
 31
0.0
  0
LINE
  5
67BA
  8
0
 10
281.7252109247266958
 20
73.5509481432920893
 30
0.0
 11
281.7252109247266958
 21
72.0009481432921348
 31
0.0
  0
ARC
  5
67BB
  8
0
 10
281.9252109247265139
 20
73.5509481432921461
 30
0.0
 40
0.1999999999999651
 50
89.9999999999934914
 51
180.0000000000098055
  0
LINE
  5
67BC
  8
0
 10
284.5252109247268777
 20
73.7509481432921348
 30
0.0
 11
281.9252109247265139
 21
73.7509481432921348
 31
0.0
  0
ARC
  5
67BD
  8
0
 10
284.5252109247268777
 20
73.5509481432920893
 30
0.0
 40
0.200000000000017
 50
0.0000000000032569
 51
90.0
  0
LINE
  5
67BE
  8
0
 10
284.7252109247268095
 20
71.2009481432920666
 30
0.0
 11
284.7252109247268095
 21
73.5509481432920893
 31
0.0
  0
ARC
  5
67BF
  8
0
 10
284.5252109247268777
 20
71.2009481432921234
 30
0.0
 40
0.2000000000000135
 50
270.0
 51
359.9999999999968168
  0
LINE
  5
67C0
  8
0
 10
273.9252109247266276
 20
71.0009481432921348
 30
0.0
 11
284.5252109247268777
 21
71.0009481432921348
 31
0.0
  0
ARC
  5
67C1
  8
0
 10
273.9252109247266276
 20
71.2009481432920666
 30
0.0
 40
0.1999999999999602
 50
179.9999999999901945
 51
270.0000000000064801
  0
ARC
  5
67C2
  8
0
 10
273.9252109247266276
 20
77.8009481432921461
 30
0.0
 40
0.1999999999999655
 50
89.9999999999934914
 51
180.0000000000098055
  0
LINE
  5
67C3
  8
0
 10
284.5252109247268777
 20
78.0009481432921348
 30
0.0
 11
273.9252109247266276
 21
78.0009481432921348
 31
0.0
  0
ARC
  5
67C4
  8
0
 10
284.5252109247268777
 20
77.8009481432920893
 30
0.0
 40
0.200000000000017
 50
0.0000000000032569
 51
90.0
  0
LINE
  5
67C5
  8
0
 10
284.7252109247268095
 20
75.4509481432920666
 30
0.0
 11
284.7252109247268095
 21
77.8009481432920893
 31
0.0
  0
ARC
  5
67C6
  8
0
 10
284.5252109247268777
 20
75.4509481432921234
 30
0.0
 40
0.2000000000000135
 50
270.0
 51
359.9999999999968168
  0
LINE
  5
67C7
  8
0
 10
281.9252109247265139
 20
75.2509481432921348
 30
0.0
 11
284.5252109247268777
 21
75.2509481432921348
 31
0.0
  0
ARC
  5
67C8
  8
0
 10
281.9252109247265139
 20
75.4509481432920666
 30
0.0
 40
0.1999999999999602
 50
179.9999999999901945
 51
270.0000000000064801
  0
LINE
  5
67C9
  8
0
 10
281.7252109247266958
 20
77.0009481432921348
 30
0.0
 11
281.7252109247266958
 21
75.4509481432920666
 31
0.0
  0
LINE
  5
67CA
  8
0
 10
276.7252109247268095
 20
77.0009481432921348
 30
0.0
 11
281.7252109247266958
 21
77.0009481432921348
 31
0.0
  0
LINE
  5
67CB
  8
0
 10
276.7252109247268095
 20
75.4509481432920666
 30
0.0
 11
276.7252109247268095
 21
77.0009481432921348
 31
0.0
  0
LINE
  5
67CC
  8
0
 10
273.9252109247266276
 20
75.2509481432921348
 30
0.0
 11
276.5252109247268777
 21
75.2509481432921348
 31
0.0
  0
ARC
  5
67CD
  8
0
 10
273.9252109247266276
 20
75.4509481432920666
 30
0.0
 40
0.1999999999999602
 50
179.9999999999901945
 51
270.0000000000064801
  0
LINE
  5
67CE
  8
0
 10
273.7252109247266958
 20
77.8009481432920893
 30
0.0
 11
273.7252109247266958
 21
75.4509481432920666
 31
0.0
  0
ARC
  5
67CF
  8
0
 10
246.5252109247269061
 20
75.4509481432921234
 30
0.0
 40
0.2000000000000136
 50
270.0
 51
359.9999999999968168
  0
LINE
  5
67D0
  8
0
 10
243.7252109247268095
 20
73.5509481432920893
 30
0.0
 11
243.7252109247268095
 21
71.2009481432920666
 31
0.0
  0
ARC
  5
67D1
  8
0
 10
243.9252109247265992
 20
73.5509481432921461
 30
0.0
 40
0.1999999999999651
 50
89.9999999999934914
 51
180.0000000000098055
  0
LINE
  5
67D2
  8
0
 10
246.5252109247269061
 20
73.7509481432921348
 30
0.0
 11
243.9252109247265992
 21
73.7509481432921348
 31
0.0
  0
ARC
  5
67D3
  8
0
 10
246.5252109247269061
 20
73.5509481432920893
 30
0.0
 40
0.200000000000017
 50
0.0000000000032569
 51
90.0
  0
LINE
  5
67D4
  8
0
 10
246.7252109247266958
 20
72.0009481432921348
 30
0.0
 11
246.7252109247266958
 21
73.5509481432920893
 31
0.0
  0
LINE
  5
67D5
  8
0
 10
251.7252109247268095
 20
72.0009481432921348
 30
0.0
 11
246.7252109247266958
 21
72.0009481432921348
 31
0.0
  0
LINE
  5
67D6
  8
0
 10
251.7252109247268095
 20
73.5509481432920893
 30
0.0
 11
251.7252109247268095
 21
72.0009481432921348
 31
0.0
  0
ARC
  5
67D7
  8
0
 10
251.9252109247265992
 20
73.5509481432921461
 30
0.0
 40
0.1999999999999651
 50
89.9999999999934914
 51
180.0000000000098055
  0
LINE
  5
67D8
  8
0
 10
254.5252109247269061
 20
73.7509481432921348
 30
0.0
 11
251.9252109247265992
 21
73.7509481432921348
 31
0.0
  0
ARC
  5
67D9
  8
0
 10
254.5252109247269061
 20
73.5509481432920893
 30
0.0
 40
0.200000000000017
 50
0.0000000000032569
 51
90.0
  0
LINE
  5
67DA
  8
0
 10
254.7252109247266958
 20
71.2009481432920666
 30
0.0
 11
254.7252109247266958
 21
73.5509481432920893
 31
0.0
  0
ARC
  5
67DB
  8
0
 10
254.5252109247269061
 20
71.2009481432921234
 30
0.0
 40
0.2000000000000135
 50
270.0
 51
359.9999999999968168
  0
LINE
  5
67DC
  8
0
 10
243.9252109247265992
 20
71.0009481432921348
 30
0.0
 11
254.5252109247269061
 21
71.0009481432921348
 31
0.0
  0
ARC
  5
67DD
  8
0
 10
243.9252109247265992
 20
71.2009481432920666
 30
0.0
 40
0.1999999999999602
 50
179.9999999999901945
 51
270.0000000000064801
  0
ARC
  5
67DE
  8
0
 10
243.9252109247265992
 20
77.8009481432921461
 30
0.0
 40
0.1999999999999655
 50
89.9999999999934914
 51
180.0000000000098055
  0
LINE
  5
67DF
  8
0
 10
254.5252109247269061
 20
78.0009481432921348
 30
0.0
 11
243.9252109247265992
 21
78.0009481432921348
 31
0.0
  0
ARC
  5
67E0
  8
0
 10
254.5252109247269061
 20
77.8009481432920893
 30
0.0
 40
0.200000000000017
 50
0.0000000000032569
 51
90.0
  0
LINE
  5
67E1
  8
0
 10
254.7252109247266958
 20
75.4509481432920666
 30
0.0
 11
254.7252109247266958
 21
77.8009481432920893
 31
0.0
  0
ARC
  5
67E2
  8
0
 10
254.5252109247269061
 20
75.4509481432921234
 30
0.0
 40
0.2000000000000135
 50
270.0
 51
359.9999999999968168
  0
LINE
  5
67E3
  8
0
 10
251.9252109247265992
 20
75.2509481432921348
 30
0.0
 11
254.5252109247269061
 21
75.2509481432921348
 31
0.0
  0
ARC
  5
67E4
  8
0
 10
251.9252109247265992
 20
75.4509481432920666
 30
0.0
 40
0.1999999999999602
 50
179.9999999999901945
 51
270.0000000000064801
  0
LINE
  5
67E5
  8
0
 10
251.7252109247268095
 20
77.0009481432921348
 30
0.0
 11
251.7252109247268095
 21
75.4509481432920666
 31
0.0
  0
LINE
  5
67E6
  8
0
 10
246.7252109247266958
 20
77.0009481432921348
 30
0.0
 11
251.7252109247268095
 21
77.0009481432921348
 31
0.0
  0
LINE
  5
67E7
  8
0
 10
246.7252109247266958
 20
75.4509481432920666
 30
0.0
 11
246.7252109247266958
 21
77.0009481432921348
 31
0.0
  0
LINE
  5
67E8
  8
0
 10
243.9252109247265992
 20
75.2509481432921348
 30
0.0
 11
246.5252109247269061
 21
75.2509481432921348
 31
0.0
  0
ARC
  5
67E9
  8
0
 10
243.9252109247265992
 20
75.4509481432920666
 30
0.0
 40
0.1999999999999602
 50
179.9999999999901945
 51
270.0000000000064801
  0
LINE
  5
67EA
  8
0
 10
243.7252109247268095
 20
77.8009481432920893
 30
0.0
 11
243.7252109247268095
 21
75.4509481432920666
 31
0.0
  0
ARC
  5
67EB
  8
0
 10
216.5252109247269061
 20
75.4509481432921234
 30
0.0
 40
0.2000000000000136
 50
270.0
 51
359.9999999999968168
  0
LINE
  5
67EC
  8
0
 10
213.7252109247266958
 20
73.5509481432920893
 30
0.0
 11
213.7252109247266958
 21
71.2009481432920666
 31
0.0
  0
ARC
  5
67ED
  8
0
 10
213.9252109247265992
 20
73.5509481432921461
 30
0.0
 40
0.1999999999999651
 50
89.9999999999934914
 51
180.0000000000098055
  0
LINE
  5
67EE
  8
0
 10
216.5252109247269061
 20
73.7509481432921348
 30
0.0
 11
213.9252109247265992
 21
73.7509481432921348
 31
0.0
  0
ARC
  5
67EF
  8
0
 10
216.5252109247269061
 20
73.5509481432920893
 30
0.0
 40
0.200000000000017
 50
0.0000000000032569
 51
90.0
  0
LINE
  5
67F0
  8
0
 10
216.7252109247268095
 20
72.0009481432921348
 30
0.0
 11
216.7252109247268095
 21
73.5509481432920893
 31
0.0
  0
LINE
  5
67F1
  8
0
 10
221.7252109247266958
 20
72.0009481432921348
 30
0.0
 11
216.7252109247268095
 21
72.0009481432921348
 31
0.0
  0
LINE
  5
67F2
  8
0
 10
221.7252109247266958
 20
73.5509481432920893
 30
0.0
 11
221.7252109247266958
 21
72.0009481432921348
 31
0.0
  0
ARC
  5
67F3
  8
0
 10
221.9252109247265992
 20
73.5509481432921461
 30
0.0
 40
0.1999999999999651
 50
89.9999999999934914
 51
180.0000000000098055
  0
LINE
  5
67F4
  8
0
 10
224.5252109247269061
 20
73.7509481432921348
 30
0.0
 11
221.9252109247265992
 21
73.7509481432921348
 31
0.0
  0
ARC
  5
67F5
  8
0
 10
224.5252109247269061
 20
73.5509481432920893
 30
0.0
 40
0.200000000000017
 50
0.0000000000032569
 51
90.0
  0
LINE
  5
67F6
  8
0
 10
224.7252109247268095
 20
71.2009481432920666
 30
0.0
 11
224.7252109247268095
 21
73.5509481432920893
 31
0.0
  0
ARC
  5
67F7
  8
0
 10
224.5252109247269061
 20
71.2009481432921234
 30
0.0
 40
0.2000000000000135
 50
270.0
 51
359.9999999999968168
  0
LINE
  5
67F8
  8
0
 10
213.9252109247265992
 20
71.0009481432921348
 30
0.0
 11
224.5252109247269061
 21
71.0009481432921348
 31
0.0
  0
ARC
  5
67F9
  8
0
 10
213.9252109247265992
 20
71.2009481432920666
 30
0.0
 40
0.1999999999999602
 50
179.9999999999901945
 51
270.0000000000064801
  0
ARC
  5
67FA
  8
0
 10
213.9252109247265992
 20
77.8009481432921461
 30
0.0
 40
0.1999999999999655
 50
89.9999999999934914
 51
180.0000000000098055
  0
LINE
  5
67FB
  8
0
 10
224.5252109247269061
 20
78.0009481432921348
 30
0.0
 11
213.9252109247265992
 21
78.0009481432921348
 31
0.0
  0
ARC
  5
67FC
  8
0
 10
224.5252109247269061
 20
77.8009481432920893
 30
0.0
 40
0.200000000000017
 50
0.0000000000032569
 51
90.0
  0
LINE
  5
67FD
  8
0
 10
224.7252109247268095
 20
75.4509481432920666
 30
0.0
 11
224.7252109247268095
 21
77.8009481432920893
 31
0.0
  0
ARC
  5
67FE
  8
0
 10
224.5252109247269061
 20
75.4509481432921234
 30
0.0
 40
0.2000000000000135
 50
270.0
 51
359.9999999999968168
  0
LINE
  5
67FF
  8
0
 10
221.9252109247265992
 20
75.2509481432921348
 30
0.0
 11
224.5252109247269061
 21
75.2509481432921348
 31
0.0
  0
ARC
  5
6800
  8
0
 10
221.9252109247265992
 20
75.4509481432920666
 30
0.0
 40
0.1999999999999602
 50
179.9999999999901945
 51
270.0000000000064801
  0
LINE
  5
6801
  8
0
 10
221.7252109247266958
 20
77.0009481432921348
 30
0.0
 11
221.7252109247266958
 21
75.4509481432920666
 31
0.0
  0
LINE
  5
6802
  8
0
 10
216.7252109247268095
 20
77.0009481432921348
 30
0.0
 11
221.7252109247266958
 21
77.0009481432921348
 31
0.0
  0
LINE
  5
6803
  8
0
 10
216.7252109247268095
 20
75.4509481432920666
 30
0.0
 11
216.7252109247268095
 21
77.0009481432921348
 31
0.0
  0
LINE
  5
6804
  8
0
 10
213.9252109247265992
 20
75.2509481432921348
 30
0.0
 11
216.5252109247269061
 21
75.2509481432921348
 31
0.0
  0
ARC
  5
6805
  8
0
 10
213.9252109247265992
 20
75.4509481432920666
 30
0.0
 40
0.1999999999999602
 50
179.9999999999901945
 51
270.0000000000064801
  0
LINE
  5
6806
  8
0
 10
213.7252109247266958
 20
77.8009481432920893
 30
0.0
 11
213.7252109247266958
 21
75.4509481432920666
 31
0.0
  0
ARC
  5
6807
  8
0
 10
186.5252109247267924
 20
75.4509481432921234
 30
0.0
 40
0.2000000000000136
 50
270.0
 51
359.9999999999968168
  0
LINE
  5
6808
  8
0
 10
183.7252109247266105
 20
73.5509481432920893
 30
0.0
 11
183.7252109247266105
 21
71.2009481432920666
 31
0.0
  0
ARC
  5
6809
  8
0
 10
183.9252109247264002
 20
73.5509481432921461
 30
0.0
 40
0.1999999999999651
 50
89.9999999999934914
 51
180.0000000000098055
  0
LINE
  5
680A
  8
0
 10
186.5252109247267924
 20
73.7509481432921348
 30
0.0
 11
183.9252109247264002
 21
73.7509481432921348
 31
0.0
  0
ARC
  5
680B
  8
0
 10
186.5252109247267924
 20
73.5509481432920893
 30
0.0
 40
0.200000000000017
 50
0.0000000000032569
 51
90.0
  0
LINE
  5
680C
  8
0
 10
186.7252109247266105
 20
72.0009481432921348
 30
0.0
 11
186.7252109247266105
 21
73.5509481432920893
 31
0.0
  0
LINE
  5
680D
  8
0
 10
191.7252109247266105
 20
72.0009481432921348
 30
0.0
 11
186.7252109247266105
 21
72.0009481432921348
 31
0.0
  0
LINE
  5
680E
  8
0
 10
191.7252109247266105
 20
73.5509481432920893
 30
0.0
 11
191.7252109247266105
 21
72.0009481432921348
 31
0.0
  0
ARC
  5
680F
  8
0
 10
191.9252109247264002
 20
73.5509481432921461
 30
0.0
 40
0.1999999999999651
 50
89.9999999999934914
 51
180.0000000000098055
  0
LINE
  5
6810
  8
0
 10
194.5252109247267924
 20
73.7509481432921348
 30
0.0
 11
191.9252109247264002
 21
73.7509481432921348
 31
0.0
  0
ARC
  5
6811
  8
0
 10
194.5252109247267924
 20
73.5509481432920893
 30
0.0
 40
0.200000000000017
 50
0.0000000000032569
 51
90.0
  0
LINE
  5
6812
  8
0
 10
194.7252109247266105
 20
71.2009481432920666
 30
0.0
 11
194.7252109247266105
 21
73.5509481432920893
 31
0.0
  0
ARC
  5
6813
  8
0
 10
194.5252109247267924
 20
71.2009481432921234
 30
0.0
 40
0.2000000000000135
 50
270.0
 51
359.9999999999968168
  0
LINE
  5
6814
  8
0
 10
183.9252109247264002
 20
71.0009481432921348
 30
0.0
 11
194.5252109247267924
 21
71.0009481432921348
 31
0.0
  0
ARC
  5
6815
  8
0
 10
183.9252109247264002
 20
71.2009481432920666
 30
0.0
 40
0.1999999999999602
 50
179.9999999999901945
 51
270.0000000000064801
  0
ARC
  5
6816
  8
0
 10
183.9252109247264002
 20
77.8009481432921461
 30
0.0
 40
0.1999999999999655
 50
89.9999999999934914
 51
180.0000000000098055
  0
LINE
  5
6817
  8
0
 10
194.5252109247267924
 20
78.0009481432921348
 30
0.0
 11
183.9252109247264002
 21
78.0009481432921348
 31
0.0
  0
ARC
  5
6818
  8
0
 10
194.5252109247267924
 20
77.8009481432920893
 30
0.0
 40
0.200000000000017
 50
0.0000000000032569
 51
90.0
  0
LINE
  5
6819
  8
0
 10
194.7252109247266105
 20
75.4509481432920666
 30
0.0
 11
194.7252109247266105
 21
77.8009481432920893
 31
0.0
  0
ARC
  5
681A
  8
0
 10
194.5252109247267924
 20
75.4509481432921234
 30
0.0
 40
0.2000000000000135
 50
270.0
 51
359.9999999999968168
  0
LINE
  5
681B
  8
0
 10
191.9252109247264002
 20
75.2509481432921348
 30
0.0
 11
194.5252109247267924
 21
75.2509481432921348
 31
0.0
  0
ARC
  5
681C
  8
0
 10
191.9252109247264002
 20
75.4509481432920666
 30
0.0
 40
0.1999999999999602
 50
179.9999999999901945
 51
270.0000000000064801
  0
LINE
  5
681D
  8
0
 10
191.7252109247266105
 20
77.0009481432921348
 30
0.0
 11
191.7252109247266105
 21
75.4509481432920666
 31
0.0
  0
LINE
  5
681E
  8
0
 10
186.7252109247266105
 20
77.0009481432921348
 30
0.0
 11
191.7252109247266105
 21
77.0009481432921348
 31
0.0
  0
LINE
  5
681F
  8
0
 10
186.7252109247266105
 20
75.4509481432920666
 30
0.0
 11
186.7252109247266105
 21
77.0009481432921348
 31
0.0
  0
LINE
  5
6820
  8
0
 10
183.9252109247264002
 20
75.2509481432921348
 30
0.0
 11
186.5252109247267924
 21
75.2509481432921348
 31
0.0
  0
ARC
  5
6821
  8
0
 10
183.9252109247264002
 20
75.4509481432920666
 30
0.0
 40
0.1999999999999602
 50
179.9999999999901945
 51
270.0000000000064801
  0
LINE
  5
6822
  8
0
 10
183.7252109247266105
 20
77.8009481432920893
 30
0.0
 11
183.7252109247266105
 21
75.4509481432920666
 31
0.0
  0
ARC
  5
6823
  8
0
 10
156.5252109247267924
 20
75.4509481432921802
 30
0.0
 40
0.2000000000000136
 50
270.0
 51
359.9999999999968168
  0
LINE
  5
6824
  8
0
 10
153.7252109247266105
 20
73.5509481432921461
 30
0.0
 11
153.7252109247266105
 21
71.2009481432921234
 31
0.0
  0
ARC
  5
6825
  8
0
 10
153.9252109247264002
 20
73.550948143292203
 30
0.0
 40
0.1999999999999651
 50
89.9999999999934914
 51
180.0000000000098055
  0
LINE
  5
6826
  8
0
 10
156.5252109247267924
 20
73.7509481432921916
 30
0.0
 11
153.9252109247264002
 21
73.7509481432921916
 31
0.0
  0
ARC
  5
6827
  8
0
 10
156.5252109247267924
 20
73.5509481432921461
 30
0.0
 40
0.200000000000017
 50
0.0000000000032569
 51
90.0
  0
LINE
  5
6828
  8
0
 10
156.7252109247266105
 20
72.0009481432921916
 30
0.0
 11
156.7252109247266105
 21
73.5509481432921461
 31
0.0
  0
LINE
  5
6829
  8
0
 10
161.7252109247266105
 20
72.0009481432921916
 30
0.0
 11
156.7252109247266105
 21
72.0009481432921916
 31
0.0
  0
LINE
  5
682A
  8
0
 10
161.7252109247266105
 20
73.5509481432921461
 30
0.0
 11
161.7252109247266105
 21
72.0009481432921916
 31
0.0
  0
ARC
  5
682B
  8
0
 10
161.9252109247264002
 20
73.550948143292203
 30
0.0
 40
0.1999999999999651
 50
89.9999999999934914
 51
180.0000000000098055
  0
LINE
  5
682C
  8
0
 10
164.5252109247267924
 20
73.7509481432921916
 30
0.0
 11
161.9252109247264002
 21
73.7509481432921916
 31
0.0
  0
ARC
  5
682D
  8
0
 10
164.5252109247267924
 20
73.5509481432921461
 30
0.0
 40
0.200000000000017
 50
0.0000000000032569
 51
90.0
  0
LINE
  5
682E
  8
0
 10
164.7252109247266105
 20
71.2009481432921234
 30
0.0
 11
164.7252109247266105
 21
73.5509481432921461
 31
0.0
  0
ARC
  5
682F
  8
0
 10
164.5252109247267924
 20
71.2009481432921802
 30
0.0
 40
0.2000000000000135
 50
270.0
 51
359.9999999999968168
  0
LINE
  5
6830
  8
0
 10
153.9252109247264002
 20
71.0009481432921916
 30
0.0
 11
164.5252109247267924
 21
71.0009481432921916
 31
0.0
  0
ARC
  5
6831
  8
0
 10
153.9252109247264002
 20
71.2009481432921234
 30
0.0
 40
0.1999999999999602
 50
179.9999999999901945
 51
270.0000000000064801
  0
ARC
  5
6832
  8
0
 10
153.9252109247264002
 20
77.800948143292203
 30
0.0
 40
0.1999999999999655
 50
89.9999999999934914
 51
180.0000000000098055
  0
LINE
  5
6833
  8
0
 10
164.5252109247267924
 20
78.0009481432921916
 30
0.0
 11
153.9252109247264002
 21
78.0009481432921916
 31
0.0
  0
ARC
  5
6834
  8
0
 10
164.5252109247267924
 20
77.8009481432921461
 30
0.0
 40
0.200000000000017
 50
0.0000000000032569
 51
90.0
  0
LINE
  5
6835
  8
0
 10
164.7252109247266105
 20
75.4509481432921234
 30
0.0
 11
164.7252109247266105
 21
77.8009481432921461
 31
0.0
  0
ARC
  5
6836
  8
0
 10
164.5252109247267924
 20
75.4509481432921802
 30
0.0
 40
0.2000000000000135
 50
270.0
 51
359.9999999999968168
  0
LINE
  5
6837
  8
0
 10
161.9252109247264002
 20
75.2509481432921916
 30
0.0
 11
164.5252109247267924
 21
75.2509481432921916
 31
0.0
  0
ARC
  5
6838
  8
0
 10
161.9252109247264002
 20
75.4509481432921234
 30
0.0
 40
0.1999999999999602
 50
179.9999999999901945
 51
270.0000000000064801
  0
LINE
  5
6839
  8
0
 10
161.7252109247266105
 20
77.0009481432921916
 30
0.0
 11
161.7252109247266105
 21
75.4509481432921234
 31
0.0
  0
LINE
  5
683A
  8
0
 10
156.7252109247266105
 20
77.0009481432921916
 30
0.0
 11
161.7252109247266105
 21
77.0009481432921916
 31
0.0
  0
LINE
  5
683B
  8
0
 10
156.7252109247266105
 20
75.4509481432921234
 30
0.0
 11
156.7252109247266105
 21
77.0009481432921916
 31
0.0
  0
LINE
  5
683C
  8
0
 10
153.9252109247264002
 20
75.2509481432921916
 30
0.0
 11
156.5252109247267924
 21
75.2509481432921916
 31
0.0
  0
ARC
  5
683D
  8
0
 10
153.9252109247264002
 20
75.4509481432921234
 30
0.0
 40
0.1999999999999602
 50
179.9999999999901945
 51
270.0000000000064801
  0
LINE
  5
683E
  8
0
 10
153.7252109247266105
 20
77.8009481432921461
 30
0.0
 11
153.7252109247266105
 21
75.4509481432921234
 31
0.0
  0
ARC
  5
683F
  8
0
 10
126.5252109247269061
 20
75.4509481432921802
 30
0.0
 40
0.2000000000000136
 50
270.0
 51
359.9999999999968168
  0
LINE
  5
6840
  8
0
 10
123.7252109247266958
 20
73.5509481432921461
 30
0.0
 11
123.7252109247266958
 21
71.2009481432921234
 31
0.0
  0
ARC
  5
6841
  8
0
 10
123.9252109247264997
 20
73.550948143292203
 30
0.0
 40
0.1999999999999651
 50
89.9999999999934914
 51
180.0000000000098055
  0
LINE
  5
6842
  8
0
 10
126.5252109247269061
 20
73.7509481432921916
 30
0.0
 11
123.9252109247264997
 21
73.7509481432921916
 31
0.0
  0
ARC
  5
6843
  8
0
 10
126.5252109247269061
 20
73.5509481432921461
 30
0.0
 40
0.200000000000017
 50
0.0000000000032569
 51
90.0
  0
LINE
  5
6844
  8
0
 10
126.7252109247266958
 20
72.0009481432921916
 30
0.0
 11
126.7252109247266958
 21
73.5509481432921461
 31
0.0
  0
LINE
  5
6845
  8
0
 10
131.7252109247266958
 20
72.0009481432921916
 30
0.0
 11
126.7252109247266958
 21
72.0009481432921916
 31
0.0
  0
LINE
  5
6846
  8
0
 10
131.7252109247266958
 20
73.5509481432921461
 30
0.0
 11
131.7252109247266958
 21
72.0009481432921916
 31
0.0
  0
ARC
  5
6847
  8
0
 10
131.9252109247265139
 20
73.550948143292203
 30
0.0
 40
0.1999999999999651
 50
89.9999999999934914
 51
180.0000000000098055
  0
LINE
  5
6848
  8
0
 10
134.5252109247269061
 20
73.7509481432921916
 30
0.0
 11
131.9252109247265139
 21
73.7509481432921916
 31
0.0
  0
ARC
  5
6849
  8
0
 10
134.5252109247269061
 20
73.5509481432921461
 30
0.0
 40
0.200000000000017
 50
0.0000000000032569
 51
90.0
  0
LINE
  5
684A
  8
0
 10
134.7252109247266958
 20
71.2009481432921234
 30
0.0
 11
134.7252109247266958
 21
73.5509481432921461
 31
0.0
  0
ARC
  5
684B
  8
0
 10
134.5252109247269061
 20
71.2009481432921802
 30
0.0
 40
0.2000000000000135
 50
270.0
 51
359.9999999999968168
  0
LINE
  5
684C
  8
0
 10
123.9252109247264997
 20
71.0009481432921916
 30
0.0
 11
134.5252109247269061
 21
71.0009481432921916
 31
0.0
  0
ARC
  5
684D
  8
0
 10
123.9252109247264997
 20
71.2009481432921234
 30
0.0
 40
0.1999999999999602
 50
179.9999999999901945
 51
270.0000000000064801
  0
ARC
  5
684E
  8
0
 10
123.9252109247264997
 20
77.800948143292203
 30
0.0
 40
0.1999999999999655
 50
89.9999999999934914
 51
180.0000000000098055
  0
LINE
  5
684F
  8
0
 10
134.5252109247269061
 20
78.0009481432921916
 30
0.0
 11
123.9252109247264997
 21
78.0009481432921916
 31
0.0
  0
ARC
  5
6850
  8
0
 10
134.5252109247269061
 20
77.8009481432921461
 30
0.0
 40
0.200000000000017
 50
0.0000000000032569
 51
90.0
  0
LINE
  5
6851
  8
0
 10
134.7252109247266958
 20
75.4509481432921234
 30
0.0
 11
134.7252109247266958
 21
77.8009481432921461
 31
0.0
  0
ARC
  5
6852
  8
0
 10
134.5252109247269061
 20
75.4509481432921802
 30
0.0
 40
0.2000000000000135
 50
270.0
 51
359.9999999999968168
  0
LINE
  5
6853
  8
0
 10
131.9252109247265139
 20
75.2509481432921916
 30
0.0
 11
134.5252109247269061
 21
75.2509481432921916
 31
0.0
  0
ARC
  5
6854
  8
0
 10
131.9252109247265139
 20
75.4509481432921234
 30
0.0
 40
0.1999999999999602
 50
179.9999999999901945
 51
270.0000000000064801
  0
LINE
  5
6855
  8
0
 10
131.7252109247266958
 20
77.0009481432921916
 30
0.0
 11
131.7252109247266958
 21
75.4509481432921234
 31
0.0
  0
LINE
  5
6856
  8
0
 10
126.7252109247266958
 20
77.0009481432921916
 30
0.0
 11
131.7252109247266958
 21
77.0009481432921916
 31
0.0
  0
LINE
  5
6857
  8
0
 10
126.7252109247266958
 20
75.4509481432921234
 30
0.0
 11
126.7252109247266958
 21
77.0009481432921916
 31
0.0
  0
LINE
  5
6858
  8
0
 10
123.9252109247264997
 20
75.2509481432921916
 30
0.0
 11
126.5252109247269061
 21
75.2509481432921916
 31
0.0
  0
ARC
  5
6859
  8
0
 10
123.9252109247264997
 20
75.4509481432921234
 30
0.0
 40
0.1999999999999602
 50
179.9999999999901945
 51
270.0000000000064801
  0
LINE
  5
685A
  8
0
 10
123.7252109247266958
 20
77.8009481432921461
 30
0.0
 11
123.7252109247266958
 21
75.4509481432921234
 31
0.0
  0
LINE
  5
685B
  8
1
 10
384.2252109247269232
 20
134.0009481432919927
 30
0.0
 11
384.22521092472698
 21
174.3509481432921007
 31
0.0
  0
LINE
  5
685C
  8
1
 10
354.2252109247272074
 20
134.0009481432919927
 30
0.0
 11
354.2252109247270937
 21
174.3509481432921007
 31
0.0
  0
LINE
  5
685D
  8
1
 10
324.22521092472698
 20
134.0009481432919927
 30
0.0
 11
324.22521092472698
 21
174.350948143291987
 31
0.0
  0
LINE
  5
685E
  8
1
 10
294.22521092472698
 20
134.0009481432919927
 30
0.0
 11
294.22521092472698
 21
174.350948143291987
 31
0.0
  0
LINE
  5
685F
  8
1
 10
264.2252109247270937
 20
134.0009481432919927
 30
0.0
 11
264.2252109247270937
 21
174.3509481432921007
 31
0.0
  0
LINE
  5
6860
  8
1
 10
234.2252109247268947
 20
134.0009481432919927
 30
0.0
 11
234.2252109247270084
 21
174.350948143291987
 31
0.0
  0
LINE
  5
6861
  8
1
 10
204.2252109247270084
 20
134.0009481432919927
 30
0.0
 11
204.2252109247268095
 21
174.3509481432921007
 31
0.0
  0
LINE
  5
6862
  8
1
 10
174.2252109247266958
 20
134.0009481432919927
 30
0.0
 11
174.2252109247268095
 21
174.3509481432921007
 31
0.0
  0
LINE
  5
6863
  8
1
 10
144.2252109247268095
 20
134.0009481432919927
 30
0.0
 11
144.2252109247266958
 21
174.3509481432921007
 31
0.0
  0
LINE
  5
6864
  8
0
 10
141.7252109247266958
 20
166.9509481432920097
 30
0.0
 11
141.7252109247266958
 21
166.425948143292004
 31
0.0
  0
LINE
  5
6865
  8
0
 10
146.7252109247266958
 20
166.425948143292004
 30
0.0
 11
146.7252109247266958
 21
166.9509481432920097
 31
0.0
  0
LINE
  5
6866
  8
0
 10
145.7252109247266958
 20
137.0009481432921064
 30
0.0
 11
146.7252109247266958
 21
137.4509481432920097
 31
0.0
  0
LINE
  5
6867
  8
0
 10
141.7252109247266958
 20
137.4509481432920097
 30
0.0
 11
142.7252109247266958
 21
137.0009481432921064
 31
0.0
  0
LINE
  5
6868
  8
0
 10
142.7252109247266958
 20
137.0009481432921064
 30
0.0
 11
145.7252109247266958
 21
137.0009481432921064
 31
0.0
  0
LINE
  5
6869
  8
0
 10
141.7252109247266958
 20
141.925948143292004
 30
0.0
 11
141.7252109247266958
 21
141.4009481432919983
 31
0.0
  0
LINE
  5
686A
  8
0
 10
146.7252109247266958
 20
141.4009481432919983
 30
0.0
 11
146.7252109247266958
 21
141.925948143292004
 31
0.0
  0
LINE
  5
686B
  8
0
 10
137.5912363285112008
 20
170.9009481432919983
 30
0.0
 11
136.7252109247266958
 21
170.4009481432919983
 31
0.0
  0
LINE
  5
686C
  8
0
 10
136.7252109247266958
 20
167.4509481432920097
 30
0.0
 11
136.7252109247266958
 21
170.4009481432919983
 31
0.0
  0
LINE
  5
686D
  8
0
 10
136.7252109247266958
 20
167.4509481432920097
 30
0.0
 11
137.5912363285112008
 21
166.9509481432920097
 31
0.0
  0
LINE
  5
686E
  8
0
 10
150.8591855209423045
 20
166.9509481432920097
 30
0.0
 11
151.7252109247266958
 21
167.4509481432920097
 31
0.0
  0
LINE
  5
686F
  8
0
 10
151.7252109247266958
 20
170.4009481432919983
 30
0.0
 11
150.8591855209423045
 21
170.9009481432919983
 31
0.0
  0
LINE
  5
6870
  8
0
 10
137.5912363285112008
 20
170.9009481432919983
 30
0.0
 11
150.8591855209423045
 21
170.9009481432919983
 31
0.0
  0
LINE
  5
6871
  8
0
 10
137.5912363285112008
 20
166.9509481432920097
 30
0.0
 11
137.5912363285112008
 21
170.9009481432919983
 31
0.0
  0
LINE
  5
6872
  8
0
 10
137.5912363285112008
 20
166.9509481432920097
 30
0.0
 11
150.8591855209423045
 21
166.9509481432920097
 31
0.0
  0
LINE
  5
6873
  8
0
 10
150.8591855209423045
 20
166.9509481432920097
 30
0.0
 11
150.8591855209423045
 21
170.9009481432919983
 31
0.0
  0
LINE
  5
6874
  8
0
 10
137.5912363285112008
 20
137.4509481432920097
 30
0.0
 11
150.8591855209423045
 21
137.4509481432920097
 31
0.0
  0
LINE
  5
6875
  8
0
 10
137.5912363285112008
 20
141.4009481432919983
 30
0.0
 11
150.8591855209423045
 21
141.4009481432919983
 31
0.0
  0
LINE
  5
6876
  8
0
 10
151.7252109247266958
 20
137.9509481432920097
 30
0.0
 11
150.8591855209423045
 21
137.4509481432920097
 31
0.0
  0
LINE
  5
6877
  8
0
 10
150.8591855209423045
 20
141.4009481432919983
 30
0.0
 11
151.7252109247266958
 21
140.9009481432919983
 31
0.0
  0
LINE
  5
6878
  8
0
 10
150.8591855209423045
 20
141.4009481432919983
 30
0.0
 11
150.8591855209423045
 21
137.4509481432920097
 31
0.0
  0
LINE
  5
6879
  8
0
 10
136.7252109247266958
 20
140.9009481432919983
 30
0.0
 11
137.5912363285112008
 21
141.4009481432919983
 31
0.0
  0
LINE
  5
687A
  8
0
 10
136.7252109247266958
 20
140.9009481432919983
 30
0.0
 11
136.7252109247266958
 21
137.9509481432920097
 31
0.0
  0
LINE
  5
687B
  8
0
 10
137.5912363285112008
 20
137.4509481432920097
 30
0.0
 11
136.7252109247266958
 21
137.9509481432920097
 31
0.0
  0
LINE
  5
687C
  8
0
 10
137.5912363285112008
 20
141.4009481432919983
 30
0.0
 11
137.5912363285112008
 21
137.4509481432920097
 31
0.0
  0
LINE
  5
687D
  8
0
 10
137.2752109247267072
 20
166.4259481432920893
 30
0.0
 11
151.1752109247267981
 21
166.425948143292004
 31
0.0
  0
ARC
  5
687E
  8
0
 10
151.1752109247267981
 20
166.1259481432921064
 30
0.0
 40
0.3000000000000007
 50
0.0
 51
90.0
  0
ARC
  5
687F
  8
0
 10
137.2752109247267072
 20
166.1259481432921064
 30
0.0
 40
0.3000000000000043
 50
90.0
 51
180.0
  0
LINE
  5
6880
  8
0
 10
151.4752109247266958
 20
142.2259481432921007
 30
0.0
 11
151.4752109247266958
 21
166.1259481432921064
 31
0.0
  0
LINE
  5
6881
  8
0
 10
136.9752109247266958
 20
166.1259481432921064
 30
0.0
 11
136.9752109247266958
 21
142.2259481432921007
 31
0.0
  0
LINE
  5
6882
  8
0
 10
137.2752109247267072
 20
141.925948143292004
 30
0.0
 11
151.1752109247267981
 21
141.925948143292004
 31
0.0
  0
ARC
  5
6883
  8
0
 10
151.1752109247267981
 20
142.2259481432921007
 30
0.0
 40
0.3000000000000025
 50
270.0
 51
0.0
  0
ARC
  5
6884
  8
0
 10
137.2752109247267072
 20
142.2259481432921007
 30
0.0
 40
0.3000000000000016
 50
180.0
 51
270.0
  0
LINE
  5
6885
  8
1
 10
369.2252109247270937
 20
174.3509481432921007
 30
0.0
 11
369.2252109247266958
 21
134.0009481432919927
 31
0.0
  0
LINE
  5
6886
  8
1
 10
339.22521092472698
 20
174.3509481432921007
 30
0.0
 11
339.2252109247269232
 21
134.0009481432919927
 31
0.0
  0
LINE
  5
6887
  8
1
 10
309.2252109247270937
 20
174.3509481432921007
 30
0.0
 11
309.2252109247269232
 21
134.0009481432919927
 31
0.0
  0
LINE
  5
6888
  8
1
 10
279.22521092472698
 20
174.350948143291987
 30
0.0
 11
279.22521092472698
 21
134.0009481432919927
 31
0.0
  0
LINE
  5
6889
  8
1
 10
249.2252109247270084
 20
174.3509481432921007
 30
0.0
 11
249.2252109247270084
 21
134.0009481432919927
 31
0.0
  0
LINE
  5
688A
  8
1
 10
219.2252109247264968
 20
174.350948143291987
 30
0.0
 11
219.2252109247270937
 21
134.0009481432919927
 31
0.0
  0
LINE
  5
688B
  8
1
 10
189.2252109247270084
 20
174.350948143291987
 30
0.0
 11
189.2252109247266105
 21
134.0009481432919927
 31
0.0
  0
LINE
  5
688C
  8
1
 10
159.2252109247266958
 20
174.3509481432921007
 30
0.0
 11
159.2252109247266958
 21
134.5009481432919074
 31
0.0
  0
LINE
  5
688D
  8
1
 10
129.2252109247266958
 20
174.350948143291987
 30
0.0
 11
129.2252109247266105
 21
134.0009481432919927
 31
0.0
  0
LINE
  5
688E
  8
0
 10
131.7252109247266958
 20
166.425948143292004
 30
0.0
 11
131.7252109247266958
 21
166.9509481432920097
 31
0.0
  0
LINE
  5
688F
  8
0
 10
126.7252109247266958
 20
166.9509481432920097
 30
0.0
 11
126.7252109247266958
 21
166.425948143292004
 31
0.0
  0
LINE
  5
6890
  8
0
 10
130.7252109247266958
 20
171.3509481432921007
 30
0.0
 11
127.7252109247266958
 21
171.3509481432921007
 31
0.0
  0
LINE
  5
6891
  8
0
 10
127.7252109247266958
 20
171.3509481432921007
 30
0.0
 11
126.7252109247266958
 21
170.9009481432919983
 31
0.0
  0
LINE
  5
6892
  8
0
 10
131.7252109247266958
 20
170.9009481432919983
 30
0.0
 11
130.7252109247266958
 21
171.3509481432921007
 31
0.0
  0
LINE
  5
6893
  8
0
 10
131.7252109247266958
 20
141.4009481432919983
 30
0.0
 11
131.7252109247266958
 21
141.925948143292004
 31
0.0
  0
LINE
  5
6894
  8
0
 10
126.7252109247266958
 20
141.925948143292004
 30
0.0
 11
126.7252109247266958
 21
141.4009481432919983
 31
0.0
  0
LINE
  5
6895
  8
0
 10
122.5912363285111013
 20
166.9509481432920097
 30
0.0
 11
121.7252109247266958
 21
167.4509481432920097
 31
0.0
  0
LINE
  5
6896
  8
0
 10
121.7252109247266958
 20
170.4009481432919983
 30
0.0
 11
122.5912363285111013
 21
170.9009481432919983
 31
0.0
  0
LINE
  5
6897
  8
0
 10
121.7252109247266958
 20
167.4509481432920097
 30
0.0
 11
121.7252109247266958
 21
170.4009481432919983
 31
0.0
  0
LINE
  5
6898
  8
0
 10
135.8591855209423045
 20
170.9009481432919983
 30
0.0
 11
122.5912363285111013
 21
170.9009481432919983
 31
0.0
  0
LINE
  5
6899
  8
0
 10
122.5912363285111013
 20
166.9509481432920097
 30
0.0
 11
122.5912363285111013
 21
170.9009481432919983
 31
0.0
  0
LINE
  5
689A
  8
0
 10
135.8591855209423045
 20
166.9509481432920097
 30
0.0
 11
122.5912363285111013
 21
166.9509481432920097
 31
0.0
  0
LINE
  5
689B
  8
0
 10
135.8591855209423045
 20
170.9009481432919983
 30
0.0
 11
136.7252109247266958
 21
170.4009481432919983
 31
0.0
  0
LINE
  5
689C
  8
0
 10
135.8591855209423045
 20
166.9509481432920097
 30
0.0
 11
135.8591855209423045
 21
170.9009481432919983
 31
0.0
  0
LINE
  5
689D
  8
0
 10
136.7252109247266958
 20
167.4509481432920097
 30
0.0
 11
135.8591855209423045
 21
166.9509481432920097
 31
0.0
  0
LINE
  5
689E
  8
0
 10
121.7252109247266958
 20
137.9509481432920097
 30
0.0
 11
122.5912363285111013
 21
137.4509481432920097
 31
0.0
  0
LINE
  5
689F
  8
0
 10
122.5912363285111013
 20
141.4009481432919983
 30
0.0
 11
121.7252109247266958
 21
140.9009481432919983
 31
0.0
  0
LINE
  5
68A0
  8
0
 10
121.7252109247266958
 20
140.9009481432919983
 30
0.0
 11
121.7252109247266958
 21
137.9509481432920097
 31
0.0
  0
LINE
  5
68A1
  8
0
 10
135.8591855209423045
 20
141.4009481432919983
 30
0.0
 11
122.5912363285111013
 21
141.4009481432919983
 31
0.0
  0
LINE
  5
68A2
  8
0
 10
135.8591855209423045
 20
137.4509481432920097
 30
0.0
 11
122.5912363285111013
 21
137.4509481432920097
 31
0.0
  0
LINE
  5
68A3
  8
0
 10
122.5912363285111013
 20
141.4009481432919983
 30
0.0
 11
122.5912363285111013
 21
137.4509481432920097
 31
0.0
  0
LINE
  5
68A4
  8
0
 10
136.7252109247266958
 20
140.9009481432919983
 30
0.0
 11
135.8591855209423045
 21
141.4009481432919983
 31
0.0
  0
LINE
  5
68A5
  8
0
 10
135.8591855209423045
 20
141.4009481432919983
 30
0.0
 11
135.8591855209423045
 21
137.4509481432920097
 31
0.0
  0
LINE
  5
68A6
  8
0
 10
135.8591855209423045
 20
137.4509481432920097
 30
0.0
 11
136.7252109247266958
 21
137.9509481432920097
 31
0.0
  0
LINE
  5
68A7
  8
0
 10
136.1752109247267981
 20
166.425948143292004
 30
0.0
 11
122.275210924726693
 21
166.4259481432920893
 31
0.0
  0
ARC
  5
68A8
  8
0
 10
122.275210924726693
 20
166.1259481432921064
 30
0.0
 40
0.3000000000000007
 50
90.0
 51
180.0
  0
ARC
  5
68A9
  8
0
 10
136.1752109247267981
 20
166.1259481432921064
 30
0.0
 40
0.3000000000000007
 50
0.0
 51
90.0
  0
LINE
  5
68AA
  8
0
 10
136.1752109247267981
 20
141.925948143292004
 30
0.0
 11
122.275210924726693
 21
141.9259481432920893
 31
0.0
  0
ARC
  5
68AB
  8
0
 10
122.275210924726693
 20
142.2259481432921007
 30
0.0
 40
0.2999999999999989
 50
180.0
 51
270.0
  0
ARC
  5
68AC
  8
0
 10
136.1752109247267981
 20
142.2259481432921007
 30
0.0
 40
0.2999999999999989
 50
270.0
 51
0.0
  0
LINE
  5
68AD
  8
0
 10
121.9752109247266958
 20
166.1259481432921064
 30
0.0
 11
121.9752109247266958
 21
142.2259481432921007
 31
0.0
  0
LINE
  5
68AE
  8
0
 10
136.4752109247266958
 20
142.2259481432921007
 30
0.0
 11
136.4752109247266958
 21
166.1259481432921064
 31
0.0
  0
LINE
  5
68AF
  8
1
 10
116.7252109247269942
 20
154.1759481432920893
 30
0.0
 11
396.72521092472698
 21
154.1759481432920893
 31
0.0
  0
LINE
  5
68B0
  8
0
 10
171.7252109247266958
 20
166.9509481432920097
 30
0.0
 11
171.7252109247266958
 21
166.425948143292004
 31
0.0
  0
LINE
  5
68B1
  8
0
 10
176.7252109247266958
 20
166.425948143292004
 30
0.0
 11
176.7252109247266958
 21
166.9509481432920097
 31
0.0
  0
LINE
  5
68B2
  8
0
 10
175.7252109247266958
 20
137.0009481432921064
 30
0.0
 11
176.7252109247266958
 21
137.4509481432920097
 31
0.0
  0
LINE
  5
68B3
  8
0
 10
171.7252109247266958
 20
137.4509481432920097
 30
0.0
 11
172.7252109247266958
 21
137.0009481432921064
 31
0.0
  0
LINE
  5
68B4
  8
0
 10
172.7252109247266958
 20
137.0009481432921064
 30
0.0
 11
175.7252109247266958
 21
137.0009481432921064
 31
0.0
  0
LINE
  5
68B5
  8
0
 10
171.7252109247266958
 20
141.925948143292004
 30
0.0
 11
171.7252109247266958
 21
141.4009481432919983
 31
0.0
  0
LINE
  5
68B6
  8
0
 10
176.7252109247266958
 20
141.4009481432919983
 30
0.0
 11
176.7252109247266958
 21
141.925948143292004
 31
0.0
  0
LINE
  5
68B7
  8
0
 10
167.5912363285112008
 20
170.9009481432919983
 30
0.0
 11
166.7252109247266958
 21
170.4009481432919983
 31
0.0
  0
LINE
  5
68B8
  8
0
 10
166.7252109247266958
 20
167.4509481432920097
 30
0.0
 11
166.7252109247266958
 21
170.4009481432919983
 31
0.0
  0
LINE
  5
68B9
  8
0
 10
166.7252109247266958
 20
167.4509481432920097
 30
0.0
 11
167.5912363285112008
 21
166.9509481432920097
 31
0.0
  0
LINE
  5
68BA
  8
0
 10
180.8591855209423045
 20
166.9509481432920097
 30
0.0
 11
181.7252109247266958
 21
167.4509481432920097
 31
0.0
  0
LINE
  5
68BB
  8
0
 10
181.7252109247266958
 20
170.4009481432919983
 30
0.0
 11
180.8591855209423045
 21
170.9009481432919983
 31
0.0
  0
LINE
  5
68BC
  8
0
 10
167.5912363285112008
 20
170.9009481432919983
 30
0.0
 11
180.8591855209423045
 21
170.9009481432919983
 31
0.0
  0
LINE
  5
68BD
  8
0
 10
167.5912363285112008
 20
166.9509481432920097
 30
0.0
 11
167.5912363285112008
 21
170.9009481432919983
 31
0.0
  0
LINE
  5
68BE
  8
0
 10
167.5912363285112008
 20
166.9509481432920097
 30
0.0
 11
180.8591855209423045
 21
166.9509481432920097
 31
0.0
  0
LINE
  5
68BF
  8
0
 10
180.8591855209423045
 20
166.9509481432920097
 30
0.0
 11
180.8591855209423045
 21
170.9009481432919983
 31
0.0
  0
LINE
  5
68C0
  8
0
 10
167.5912363285112008
 20
137.4509481432920097
 30
0.0
 11
180.8591855209423045
 21
137.4509481432920097
 31
0.0
  0
LINE
  5
68C1
  8
0
 10
167.5912363285112008
 20
141.4009481432919983
 30
0.0
 11
180.8591855209423045
 21
141.4009481432919983
 31
0.0
  0
LINE
  5
68C2
  8
0
 10
181.7252109247266958
 20
137.9509481432920097
 30
0.0
 11
180.8591855209423045
 21
137.4509481432920097
 31
0.0
  0
LINE
  5
68C3
  8
0
 10
180.8591855209423045
 20
141.4009481432919983
 30
0.0
 11
181.7252109247266958
 21
140.9009481432919983
 31
0.0
  0
LINE
  5
68C4
  8
0
 10
180.8591855209423045
 20
141.4009481432919983
 30
0.0
 11
180.8591855209423045
 21
137.4509481432920097
 31
0.0
  0
LINE
  5
68C5
  8
0
 10
166.7252109247266958
 20
140.9009481432919983
 30
0.0
 11
167.5912363285112008
 21
141.4009481432919983
 31
0.0
  0
LINE
  5
68C6
  8
0
 10
166.7252109247266958
 20
140.9009481432919983
 30
0.0
 11
166.7252109247266958
 21
137.9509481432920097
 31
0.0
  0
LINE
  5
68C7
  8
0
 10
167.5912363285112008
 20
137.4509481432920097
 30
0.0
 11
166.7252109247266958
 21
137.9509481432920097
 31
0.0
  0
LINE
  5
68C8
  8
0
 10
167.5912363285112008
 20
141.4009481432919983
 30
0.0
 11
167.5912363285112008
 21
137.4509481432920097
 31
0.0
  0
LINE
  5
68C9
  8
0
 10
167.2752109247267072
 20
166.4259481432920893
 30
0.0
 11
181.1752109247267981
 21
166.425948143292004
 31
0.0
  0
ARC
  5
68CA
  8
0
 10
181.1752109247267981
 20
166.1259481432921064
 30
0.0
 40
0.3000000000000007
 50
0.0
 51
90.0
  0
ARC
  5
68CB
  8
0
 10
167.2752109247267072
 20
166.1259481432921064
 30
0.0
 40
0.3000000000000043
 50
90.0
 51
180.0
  0
LINE
  5
68CC
  8
0
 10
181.4752109247266958
 20
142.2259481432921007
 30
0.0
 11
181.4752109247266958
 21
166.1259481432921064
 31
0.0
  0
LINE
  5
68CD
  8
0
 10
166.9752109247266958
 20
166.1259481432921064
 30
0.0
 11
166.9752109247266958
 21
142.2259481432921007
 31
0.0
  0
LINE
  5
68CE
  8
0
 10
167.2752109247267072
 20
141.925948143292004
 30
0.0
 11
181.1752109247267981
 21
141.925948143292004
 31
0.0
  0
ARC
  5
68CF
  8
0
 10
181.1752109247267981
 20
142.2259481432921007
 30
0.0
 40
0.3000000000000025
 50
270.0
 51
0.0
  0
ARC
  5
68D0
  8
0
 10
167.2752109247267072
 20
142.2259481432921007
 30
0.0
 40
0.3000000000000016
 50
180.0
 51
270.0
  0
LINE
  5
68D1
  8
0
 10
161.7252109247266958
 20
166.425948143292004
 30
0.0
 11
161.7252109247266958
 21
166.9509481432920097
 31
0.0
  0
LINE
  5
68D2
  8
0
 10
156.7252109247266958
 20
166.9509481432920097
 30
0.0
 11
156.7252109247266958
 21
166.425948143292004
 31
0.0
  0
LINE
  5
68D3
  8
0
 10
160.7252109247266958
 20
171.3509481432921007
 30
0.0
 11
157.7252109247266958
 21
171.3509481432921007
 31
0.0
  0
LINE
  5
68D4
  8
0
 10
157.7252109247266958
 20
171.3509481432921007
 30
0.0
 11
156.7252109247266958
 21
170.9009481432919983
 31
0.0
  0
LINE
  5
68D5
  8
0
 10
161.7252109247266958
 20
170.9009481432919983
 30
0.0
 11
160.7252109247266958
 21
171.3509481432921007
 31
0.0
  0
LINE
  5
68D6
  8
0
 10
161.7252109247266958
 20
141.4009481432919983
 30
0.0
 11
161.7252109247266958
 21
141.925948143292004
 31
0.0
  0
LINE
  5
68D7
  8
0
 10
156.7252109247266958
 20
141.925948143292004
 30
0.0
 11
156.7252109247266958
 21
141.4009481432919983
 31
0.0
  0
LINE
  5
68D8
  8
0
 10
152.5912363285110871
 20
166.9509481432920097
 30
0.0
 11
151.7252109247266958
 21
167.4509481432920097
 31
0.0
  0
LINE
  5
68D9
  8
0
 10
151.7252109247266958
 20
170.4009481432919983
 30
0.0
 11
152.5912363285110871
 21
170.9009481432919983
 31
0.0
  0
LINE
  5
68DA
  8
0
 10
151.7252109247266958
 20
167.4509481432920097
 30
0.0
 11
151.7252109247266958
 21
170.4009481432919983
 31
0.0
  0
LINE
  5
68DB
  8
0
 10
165.8591855209423045
 20
170.9009481432919983
 30
0.0
 11
152.5912363285110871
 21
170.9009481432919983
 31
0.0
  0
LINE
  5
68DC
  8
0
 10
152.5912363285110871
 20
166.9509481432920097
 30
0.0
 11
152.5912363285110871
 21
170.9009481432919983
 31
0.0
  0
LINE
  5
68DD
  8
0
 10
165.8591855209423045
 20
166.9509481432920097
 30
0.0
 11
152.5912363285110871
 21
166.9509481432920097
 31
0.0
  0
LINE
  5
68DE
  8
0
 10
165.8591855209423045
 20
170.9009481432919983
 30
0.0
 11
166.7252109247266958
 21
170.4009481432919983
 31
0.0
  0
LINE
  5
68DF
  8
0
 10
165.8591855209423045
 20
166.9509481432920097
 30
0.0
 11
165.8591855209423045
 21
170.9009481432919983
 31
0.0
  0
LINE
  5
68E0
  8
0
 10
166.7252109247266958
 20
167.4509481432920097
 30
0.0
 11
165.8591855209423045
 21
166.9509481432920097
 31
0.0
  0
LINE
  5
68E1
  8
0
 10
151.7252109247266958
 20
137.9509481432920097
 30
0.0
 11
152.5912363285110871
 21
137.4509481432920097
 31
0.0
  0
LINE
  5
68E2
  8
0
 10
152.5912363285110871
 20
141.4009481432919983
 30
0.0
 11
151.7252109247266958
 21
140.9009481432919983
 31
0.0
  0
LINE
  5
68E3
  8
0
 10
151.7252109247266958
 20
140.9009481432919983
 30
0.0
 11
151.7252109247266958
 21
137.9509481432920097
 31
0.0
  0
LINE
  5
68E4
  8
0
 10
165.8591855209423045
 20
141.4009481432919983
 30
0.0
 11
152.5912363285110871
 21
141.4009481432919983
 31
0.0
  0
LINE
  5
68E5
  8
0
 10
165.8591855209423045
 20
137.4509481432920097
 30
0.0
 11
152.5912363285110871
 21
137.4509481432920097
 31
0.0
  0
LINE
  5
68E6
  8
0
 10
152.5912363285110871
 20
141.4009481432919983
 30
0.0
 11
152.5912363285110871
 21
137.4509481432920097
 31
0.0
  0
LINE
  5
68E7
  8
0
 10
166.7252109247266958
 20
140.9009481432919983
 30
0.0
 11
165.8591855209423045
 21
141.4009481432919983
 31
0.0
  0
LINE
  5
68E8
  8
0
 10
165.8591855209423045
 20
141.4009481432919983
 30
0.0
 11
165.8591855209423045
 21
137.4509481432920097
 31
0.0
  0
LINE
  5
68E9
  8
0
 10
165.8591855209423045
 20
137.4509481432920097
 30
0.0
 11
166.7252109247266958
 21
137.9509481432920097
 31
0.0
  0
LINE
  5
68EA
  8
0
 10
166.1752109247267981
 20
166.425948143292004
 30
0.0
 11
152.2752109247267072
 21
166.4259481432920893
 31
0.0
  0
ARC
  5
68EB
  8
0
 10
152.2752109247267072
 20
166.1259481432921064
 30
0.0
 40
0.3000000000000007
 50
90.0
 51
180.0
  0
ARC
  5
68EC
  8
0
 10
166.1752109247267981
 20
166.1259481432921064
 30
0.0
 40
0.3000000000000007
 50
0.0
 51
90.0
  0
LINE
  5
68ED
  8
0
 10
166.1752109247267981
 20
141.925948143292004
 30
0.0
 11
152.2752109247267072
 21
141.9259481432920893
 31
0.0
  0
ARC
  5
68EE
  8
0
 10
152.2752109247267072
 20
142.2259481432921007
 30
0.0
 40
0.2999999999999989
 50
180.0
 51
270.0
  0
ARC
  5
68EF
  8
0
 10
166.1752109247267981
 20
142.2259481432921007
 30
0.0
 40
0.2999999999999989
 50
270.0
 51
0.0
  0
LINE
  5
68F0
  8
0
 10
151.9752109247266958
 20
166.1259481432921064
 30
0.0
 11
151.9752109247266958
 21
142.2259481432921007
 31
0.0
  0
LINE
  5
68F1
  8
0
 10
166.4752109247266958
 20
142.2259481432921007
 30
0.0
 11
166.4752109247266958
 21
166.1259481432921064
 31
0.0
  0
LINE
  5
68F2
  8
0
 10
201.7252109247268095
 20
166.9509481432920097
 30
0.0
 11
201.7252109247268095
 21
166.425948143292004
 31
0.0
  0
LINE
  5
68F3
  8
0
 10
206.7252109247266958
 20
166.425948143292004
 30
0.0
 11
206.7252109247266958
 21
166.9509481432920097
 31
0.0
  0
LINE
  5
68F4
  8
0
 10
205.7252109247268095
 20
137.0009481432921064
 30
0.0
 11
206.7252109247266958
 21
137.4509481432920097
 31
0.0
  0
LINE
  5
68F5
  8
0
 10
201.7252109247268095
 20
137.4509481432920097
 30
0.0
 11
202.7252109247266958
 21
137.0009481432921064
 31
0.0
  0
LINE
  5
68F6
  8
0
 10
202.7252109247266958
 20
137.0009481432921064
 30
0.0
 11
205.7252109247268095
 21
137.0009481432921064
 31
0.0
  0
LINE
  5
68F7
  8
0
 10
201.7252109247268095
 20
141.925948143292004
 30
0.0
 11
201.7252109247268095
 21
141.4009481432919983
 31
0.0
  0
LINE
  5
68F8
  8
0
 10
206.7252109247266958
 20
141.4009481432919983
 30
0.0
 11
206.7252109247266958
 21
141.925948143292004
 31
0.0
  0
LINE
  5
68F9
  8
0
 10
197.5912363285110871
 20
170.9009481432919983
 30
0.0
 11
196.7252109247266958
 21
170.4009481432919983
 31
0.0
  0
LINE
  5
68FA
  8
0
 10
196.7252109247266958
 20
167.4509481432920097
 30
0.0
 11
196.7252109247266958
 21
170.4009481432919983
 31
0.0
  0
LINE
  5
68FB
  8
0
 10
196.7252109247266958
 20
167.4509481432920097
 30
0.0
 11
197.5912363285110871
 21
166.9509481432920097
 31
0.0
  0
LINE
  5
68FC
  8
0
 10
210.8591855209423045
 20
166.9509481432920097
 30
0.0
 11
211.7252109247266958
 21
167.4509481432920097
 31
0.0
  0
LINE
  5
68FD
  8
0
 10
211.7252109247266958
 20
170.4009481432919983
 30
0.0
 11
210.8591855209423045
 21
170.9009481432919983
 31
0.0
  0
LINE
  5
68FE
  8
0
 10
197.5912363285110871
 20
170.9009481432919983
 30
0.0
 11
210.8591855209423045
 21
170.9009481432919983
 31
0.0
  0
LINE
  5
68FF
  8
0
 10
197.5912363285110871
 20
166.9509481432920097
 30
0.0
 11
197.5912363285110871
 21
170.9009481432919983
 31
0.0
  0
LINE
  5
6900
  8
0
 10
197.5912363285110871
 20
166.9509481432920097
 30
0.0
 11
210.8591855209423045
 21
166.9509481432920097
 31
0.0
  0
LINE
  5
6901
  8
0
 10
210.8591855209423045
 20
166.9509481432920097
 30
0.0
 11
210.8591855209423045
 21
170.9009481432919983
 31
0.0
  0
LINE
  5
6902
  8
0
 10
197.5912363285110871
 20
137.4509481432920097
 30
0.0
 11
210.8591855209423045
 21
137.4509481432920097
 31
0.0
  0
LINE
  5
6903
  8
0
 10
197.5912363285110871
 20
141.4009481432919983
 30
0.0
 11
210.8591855209423045
 21
141.4009481432919983
 31
0.0
  0
LINE
  5
6904
  8
0
 10
211.7252109247266958
 20
137.9509481432920097
 30
0.0
 11
210.8591855209423045
 21
137.4509481432920097
 31
0.0
  0
LINE
  5
6905
  8
0
 10
210.8591855209423045
 20
141.4009481432919983
 30
0.0
 11
211.7252109247266958
 21
140.9009481432919983
 31
0.0
  0
LINE
  5
6906
  8
0
 10
210.8591855209423045
 20
141.4009481432919983
 30
0.0
 11
210.8591855209423045
 21
137.4509481432920097
 31
0.0
  0
LINE
  5
6907
  8
0
 10
196.7252109247266958
 20
140.9009481432919983
 30
0.0
 11
197.5912363285110871
 21
141.4009481432919983
 31
0.0
  0
LINE
  5
6908
  8
0
 10
196.7252109247266958
 20
140.9009481432919983
 30
0.0
 11
196.7252109247266958
 21
137.9509481432920097
 31
0.0
  0
LINE
  5
6909
  8
0
 10
197.5912363285110871
 20
137.4509481432920097
 30
0.0
 11
196.7252109247266958
 21
137.9509481432920097
 31
0.0
  0
LINE
  5
690A
  8
0
 10
197.5912363285110871
 20
141.4009481432919983
 30
0.0
 11
197.5912363285110871
 21
137.4509481432920097
 31
0.0
  0
LINE
  5
690B
  8
0
 10
197.2752109247267072
 20
166.4259481432920893
 30
0.0
 11
211.1752109247267981
 21
166.425948143292004
 31
0.0
  0
ARC
  5
690C
  8
0
 10
211.1752109247267981
 20
166.1259481432921064
 30
0.0
 40
0.3000000000000007
 50
0.0
 51
90.0
  0
ARC
  5
690D
  8
0
 10
197.2752109247267072
 20
166.1259481432921064
 30
0.0
 40
0.3000000000000043
 50
90.0
 51
180.0
  0
LINE
  5
690E
  8
0
 10
211.4752109247266958
 20
142.2259481432921007
 30
0.0
 11
211.4752109247266958
 21
166.1259481432921064
 31
0.0
  0
LINE
  5
690F
  8
0
 10
196.9752109247266958
 20
166.1259481432921064
 30
0.0
 11
196.9752109247266958
 21
142.2259481432921007
 31
0.0
  0
LINE
  5
6910
  8
0
 10
197.2752109247267072
 20
141.925948143292004
 30
0.0
 11
211.1752109247267981
 21
141.925948143292004
 31
0.0
  0
ARC
  5
6911
  8
0
 10
211.1752109247267981
 20
142.2259481432921007
 30
0.0
 40
0.3000000000000025
 50
270.0
 51
0.0
  0
ARC
  5
6912
  8
0
 10
197.2752109247267072
 20
142.2259481432921007
 30
0.0
 40
0.3000000000000016
 50
180.0
 51
270.0
  0
LINE
  5
6913
  8
0
 10
191.7252109247266958
 20
166.425948143292004
 30
0.0
 11
191.7252109247266958
 21
166.9509481432920097
 31
0.0
  0
LINE
  5
6914
  8
0
 10
186.7252109247266958
 20
166.9509481432920097
 30
0.0
 11
186.7252109247266958
 21
166.425948143292004
 31
0.0
  0
LINE
  5
6915
  8
0
 10
190.7252109247266958
 20
171.3509481432921007
 30
0.0
 11
187.7252109247266958
 21
171.3509481432921007
 31
0.0
  0
LINE
  5
6916
  8
0
 10
187.7252109247266958
 20
171.3509481432921007
 30
0.0
 11
186.7252109247266958
 21
170.9009481432919983
 31
0.0
  0
LINE
  5
6917
  8
0
 10
191.7252109247266958
 20
170.9009481432919983
 30
0.0
 11
190.7252109247266958
 21
171.3509481432921007
 31
0.0
  0
LINE
  5
6918
  8
0
 10
191.7252109247266958
 20
141.4009481432919983
 30
0.0
 11
191.7252109247266958
 21
141.925948143292004
 31
0.0
  0
LINE
  5
6919
  8
0
 10
186.7252109247266958
 20
141.925948143292004
 30
0.0
 11
186.7252109247266958
 21
141.4009481432919983
 31
0.0
  0
LINE
  5
691A
  8
0
 10
182.5912363285110871
 20
166.9509481432920097
 30
0.0
 11
181.7252109247266958
 21
167.4509481432920097
 31
0.0
  0
LINE
  5
691B
  8
0
 10
181.7252109247266958
 20
170.4009481432919983
 30
0.0
 11
182.5912363285110871
 21
170.9009481432919983
 31
0.0
  0
LINE
  5
691C
  8
0
 10
181.7252109247266958
 20
167.4509481432920097
 30
0.0
 11
181.7252109247266958
 21
170.4009481432919983
 31
0.0
  0
LINE
  5
691D
  8
0
 10
195.8591855209423045
 20
170.9009481432919983
 30
0.0
 11
182.5912363285110871
 21
170.9009481432919983
 31
0.0
  0
LINE
  5
691E
  8
0
 10
182.5912363285110871
 20
166.9509481432920097
 30
0.0
 11
182.5912363285110871
 21
170.9009481432919983
 31
0.0
  0
LINE
  5
691F
  8
0
 10
195.8591855209423045
 20
166.9509481432920097
 30
0.0
 11
182.5912363285110871
 21
166.9509481432920097
 31
0.0
  0
LINE
  5
6920
  8
0
 10
195.8591855209423045
 20
170.9009481432919983
 30
0.0
 11
196.7252109247266958
 21
170.4009481432919983
 31
0.0
  0
LINE
  5
6921
  8
0
 10
195.8591855209423045
 20
166.9509481432920097
 30
0.0
 11
195.8591855209423045
 21
170.9009481432919983
 31
0.0
  0
LINE
  5
6922
  8
0
 10
196.7252109247266958
 20
167.4509481432920097
 30
0.0
 11
195.8591855209423045
 21
166.9509481432920097
 31
0.0
  0
LINE
  5
6923
  8
0
 10
181.7252109247266958
 20
137.9509481432920097
 30
0.0
 11
182.5912363285110871
 21
137.4509481432920097
 31
0.0
  0
LINE
  5
6924
  8
0
 10
182.5912363285110871
 20
141.4009481432919983
 30
0.0
 11
181.7252109247266958
 21
140.9009481432919983
 31
0.0
  0
LINE
  5
6925
  8
0
 10
181.7252109247266958
 20
140.9009481432919983
 30
0.0
 11
181.7252109247266958
 21
137.9509481432920097
 31
0.0
  0
LINE
  5
6926
  8
0
 10
195.8591855209423045
 20
141.4009481432919983
 30
0.0
 11
182.5912363285110871
 21
141.4009481432919983
 31
0.0
  0
LINE
  5
6927
  8
0
 10
195.8591855209423045
 20
137.4509481432920097
 30
0.0
 11
182.5912363285110871
 21
137.4509481432920097
 31
0.0
  0
LINE
  5
6928
  8
0
 10
182.5912363285110871
 20
141.4009481432919983
 30
0.0
 11
182.5912363285110871
 21
137.4509481432920097
 31
0.0
  0
LINE
  5
6929
  8
0
 10
196.7252109247266958
 20
140.9009481432919983
 30
0.0
 11
195.8591855209423045
 21
141.4009481432919983
 31
0.0
  0
LINE
  5
692A
  8
0
 10
195.8591855209423045
 20
141.4009481432919983
 30
0.0
 11
195.8591855209423045
 21
137.4509481432920097
 31
0.0
  0
LINE
  5
692B
  8
0
 10
195.8591855209423045
 20
137.4509481432920097
 30
0.0
 11
196.7252109247266958
 21
137.9509481432920097
 31
0.0
  0
ARC
  5
692E
  8
0
 10
196.1752109247267981
 20
166.1259481432921064
 30
0.0
 40
0.3000000000000007
 50
0.0
 51
90.0
  0
ARC
  5
6931
  8
0
 10
196.1752109247267981
 20
142.2259481432921007
 30
0.0
 40
0.2999999999999989
 50
270.0
 51
0.0
  0
LINE
  5
6932
  8
0
 10
181.9752109247266958
 20
166.1259481432921064
 30
0.0
 11
181.9752109247266958
 21
142.2259481432921007
 31
0.0
  0
LINE
  5
6933
  8
0
 10
196.4752109247266958
 20
142.2259481432921007
 30
0.0
 11
196.4752109247266958
 21
166.1259481432921064
 31
0.0
  0
LINE
  5
6934
  8
0
 10
231.7252109247266958
 20
166.9509481432920097
 30
0.0
 11
231.7252109247266958
 21
166.425948143292004
 31
0.0
  0
LINE
  5
6935
  8
0
 10
236.7252109247266958
 20
166.425948143292004
 30
0.0
 11
236.7252109247266958
 21
166.9509481432920097
 31
0.0
  0
LINE
  5
6936
  8
0
 10
235.7252109247268095
 20
137.0009481432921064
 30
0.0
 11
236.7252109247266958
 21
137.4509481432920097
 31
0.0
  0
LINE
  5
6937
  8
0
 10
231.7252109247266958
 20
137.4509481432920097
 30
0.0
 11
232.7252109247268095
 21
137.0009481432921064
 31
0.0
  0
LINE
  5
6938
  8
0
 10
232.7252109247268095
 20
137.0009481432921064
 30
0.0
 11
235.7252109247268095
 21
137.0009481432921064
 31
0.0
  0
LINE
  5
6939
  8
0
 10
231.7252109247266958
 20
141.925948143292004
 30
0.0
 11
231.7252109247266958
 21
141.4009481432919983
 31
0.0
  0
LINE
  5
693A
  8
0
 10
236.7252109247266958
 20
141.4009481432919983
 30
0.0
 11
236.7252109247266958
 21
141.925948143292004
 31
0.0
  0
LINE
  5
693B
  8
0
 10
227.5912363285112008
 20
170.9009481432919983
 30
0.0
 11
226.7252109247268095
 21
170.4009481432919983
 31
0.0
  0
LINE
  5
693C
  8
0
 10
226.7252109247268095
 20
167.4509481432920097
 30
0.0
 11
226.7252109247268095
 21
170.4009481432919983
 31
0.0
  0
LINE
  5
693D
  8
0
 10
226.7252109247268095
 20
167.4509481432920097
 30
0.0
 11
227.5912363285112008
 21
166.9509481432920097
 31
0.0
  0
LINE
  5
693E
  8
0
 10
240.8591855209423045
 20
166.9509481432920097
 30
0.0
 11
241.7252109247268095
 21
167.4509481432920097
 31
0.0
  0
LINE
  5
693F
  8
0
 10
241.7252109247268095
 20
170.4009481432919983
 30
0.0
 11
240.8591855209423045
 21
170.9009481432919983
 31
0.0
  0
LINE
  5
6940
  8
0
 10
227.5912363285112008
 20
170.9009481432919983
 30
0.0
 11
240.8591855209423045
 21
170.9009481432919983
 31
0.0
  0
LINE
  5
6941
  8
0
 10
227.5912363285112008
 20
166.9509481432920097
 30
0.0
 11
227.5912363285112008
 21
170.9009481432919983
 31
0.0
  0
LINE
  5
6942
  8
0
 10
227.5912363285112008
 20
166.9509481432920097
 30
0.0
 11
240.8591855209423045
 21
166.9509481432920097
 31
0.0
  0
LINE
  5
6943
  8
0
 10
240.8591855209423045
 20
166.9509481432920097
 30
0.0
 11
240.8591855209423045
 21
170.9009481432919983
 31
0.0
  0
LINE
  5
6944
  8
0
 10
227.5912363285112008
 20
137.4509481432920097
 30
0.0
 11
240.8591855209423045
 21
137.4509481432920097
 31
0.0
  0
LINE
  5
6945
  8
0
 10
227.5912363285112008
 20
141.4009481432919983
 30
0.0
 11
240.8591855209423045
 21
141.4009481432919983
 31
0.0
  0
LINE
  5
6946
  8
0
 10
241.7252109247268095
 20
137.9509481432920097
 30
0.0
 11
240.8591855209423045
 21
137.4509481432920097
 31
0.0
  0
LINE
  5
6947
  8
0
 10
240.8591855209423045
 20
141.4009481432919983
 30
0.0
 11
241.7252109247268095
 21
140.9009481432919983
 31
0.0
  0
LINE
  5
6948
  8
0
 10
240.8591855209423045
 20
141.4009481432919983
 30
0.0
 11
240.8591855209423045
 21
137.4509481432920097
 31
0.0
  0
LINE
  5
6949
  8
0
 10
226.7252109247268095
 20
140.9009481432919983
 30
0.0
 11
227.5912363285112008
 21
141.4009481432919983
 31
0.0
  0
LINE
  5
694A
  8
0
 10
226.7252109247268095
 20
140.9009481432919983
 30
0.0
 11
226.7252109247268095
 21
137.9509481432920097
 31
0.0
  0
LINE
  5
694B
  8
0
 10
227.5912363285112008
 20
137.4509481432920097
 30
0.0
 11
226.7252109247268095
 21
137.9509481432920097
 31
0.0
  0
LINE
  5
694C
  8
0
 10
227.5912363285112008
 20
141.4009481432919983
 30
0.0
 11
227.5912363285112008
 21
137.4509481432920097
 31
0.0
  0
LINE
  5
694D
  8
0
 10
227.2752109247267072
 20
166.4259481432920893
 30
0.0
 11
241.1752109247267981
 21
166.425948143292004
 31
0.0
  0
ARC
  5
694E
  8
0
 10
241.1752109247267981
 20
166.1259481432921064
 30
0.0
 40
0.3000000000000007
 50
0.0
 51
90.0
  0
ARC
  5
694F
  8
0
 10
227.2752109247267072
 20
166.1259481432921064
 30
0.0
 40
0.3000000000000043
 50
90.0
 51
180.0
  0
LINE
  5
6950
  8
0
 10
241.4752109247268095
 20
142.2259481432921007
 30
0.0
 11
241.4752109247268095
 21
166.1259481432921064
 31
0.0
  0
LINE
  5
6951
  8
0
 10
226.9752109247268095
 20
166.1259481432921064
 30
0.0
 11
226.9752109247268095
 21
142.2259481432921007
 31
0.0
  0
LINE
  5
6952
  8
0
 10
227.2752109247267072
 20
141.925948143292004
 30
0.0
 11
241.1752109247267981
 21
141.925948143292004
 31
0.0
  0
ARC
  5
6953
  8
0
 10
241.1752109247267981
 20
142.2259481432921007
 30
0.0
 40
0.3000000000000025
 50
270.0
 51
0.0
  0
ARC
  5
6954
  8
0
 10
227.2752109247267072
 20
142.2259481432921007
 30
0.0
 40
0.3000000000000016
 50
180.0
 51
270.0
  0
LINE
  5
6955
  8
0
 10
221.7252109247266958
 20
166.425948143292004
 30
0.0
 11
221.7252109247266958
 21
166.9509481432920097
 31
0.0
  0
LINE
  5
6956
  8
0
 10
216.7252109247268095
 20
166.9509481432920097
 30
0.0
 11
216.7252109247268095
 21
166.425948143292004
 31
0.0
  0
LINE
  5
6957
  8
0
 10
220.7252109247268095
 20
171.3509481432921007
 30
0.0
 11
217.7252109247266958
 21
171.3509481432921007
 31
0.0
  0
LINE
  5
6958
  8
0
 10
217.7252109247266958
 20
171.3509481432921007
 30
0.0
 11
216.7252109247268095
 21
170.9009481432919983
 31
0.0
  0
LINE
  5
6959
  8
0
 10
221.7252109247266958
 20
170.9009481432919983
 30
0.0
 11
220.7252109247268095
 21
171.3509481432921007
 31
0.0
  0
LINE
  5
695A
  8
0
 10
221.7252109247266958
 20
141.4009481432919983
 30
0.0
 11
221.7252109247266958
 21
141.925948143292004
 31
0.0
  0
LINE
  5
695B
  8
0
 10
216.7252109247268095
 20
141.925948143292004
 30
0.0
 11
216.7252109247268095
 21
141.4009481432919983
 31
0.0
  0
LINE
  5
695C
  8
0
 10
212.5912363285112008
 20
166.9509481432920097
 30
0.0
 11
211.7252109247266958
 21
167.4509481432920097
 31
0.0
  0
LINE
  5
695D
  8
0
 10
211.7252109247266958
 20
170.4009481432919983
 30
0.0
 11
212.5912363285112008
 21
170.9009481432919983
 31
0.0
  0
LINE
  5
695E
  8
0
 10
211.7252109247266958
 20
167.4509481432920097
 30
0.0
 11
211.7252109247266958
 21
170.4009481432919983
 31
0.0
  0
LINE
  5
695F
  8
0
 10
225.8591855209423045
 20
170.9009481432919983
 30
0.0
 11
212.5912363285112008
 21
170.9009481432919983
 31
0.0
  0
LINE
  5
6960
  8
0
 10
212.5912363285112008
 20
166.9509481432920097
 30
0.0
 11
212.5912363285112008
 21
170.9009481432919983
 31
0.0
  0
LINE
  5
6961
  8
0
 10
225.8591855209423045
 20
166.9509481432920097
 30
0.0
 11
212.5912363285112008
 21
166.9509481432920097
 31
0.0
  0
LINE
  5
6962
  8
0
 10
225.8591855209423045
 20
170.9009481432919983
 30
0.0
 11
226.7252109247268095
 21
170.4009481432919983
 31
0.0
  0
LINE
  5
6963
  8
0
 10
225.8591855209423045
 20
166.9509481432920097
 30
0.0
 11
225.8591855209423045
 21
170.9009481432919983
 31
0.0
  0
LINE
  5
6964
  8
0
 10
226.7252109247268095
 20
167.4509481432920097
 30
0.0
 11
225.8591855209423045
 21
166.9509481432920097
 31
0.0
  0
LINE
  5
6965
  8
0
 10
211.7252109247266958
 20
137.9509481432920097
 30
0.0
 11
212.5912363285112008
 21
137.4509481432920097
 31
0.0
  0
LINE
  5
6966
  8
0
 10
212.5912363285112008
 20
141.4009481432919983
 30
0.0
 11
211.7252109247266958
 21
140.9009481432919983
 31
0.0
  0
LINE
  5
6967
  8
0
 10
211.7252109247266958
 20
140.9009481432919983
 30
0.0
 11
211.7252109247266958
 21
137.9509481432920097
 31
0.0
  0
LINE
  5
6968
  8
0
 10
225.8591855209423045
 20
141.4009481432919983
 30
0.0
 11
212.5912363285112008
 21
141.4009481432919983
 31
0.0
  0
LINE
  5
6969
  8
0
 10
225.8591855209423045
 20
137.4509481432920097
 30
0.0
 11
212.5912363285112008
 21
137.4509481432920097
 31
0.0
  0
LINE
  5
696A
  8
0
 10
212.5912363285112008
 20
141.4009481432919983
 30
0.0
 11
212.5912363285112008
 21
137.4509481432920097
 31
0.0
  0
LINE
  5
696B
  8
0
 10
226.7252109247268095
 20
140.9009481432919983
 30
0.0
 11
225.8591855209423045
 21
141.4009481432919983
 31
0.0
  0
LINE
  5
696C
  8
0
 10
225.8591855209423045
 20
141.4009481432919983
 30
0.0
 11
225.8591855209423045
 21
137.4509481432920097
 31
0.0
  0
LINE
  5
696D
  8
0
 10
225.8591855209423045
 20
137.4509481432920097
 30
0.0
 11
226.7252109247268095
 21
137.9509481432920097
 31
0.0
  0
ARC
  5
6970
  8
0
 10
226.1752109247267981
 20
166.1259481432921064
 30
0.0
 40
0.3000000000000007
 50
0.0
 51
90.0
  0
ARC
  5
6973
  8
0
 10
226.1752109247267981
 20
142.2259481432921007
 30
0.0
 40
0.2999999999999989
 50
270.0
 51
0.0
  0
LINE
  5
6974
  8
0
 10
211.9752109247268095
 20
166.1259481432921064
 30
0.0
 11
211.9752109247268095
 21
142.2259481432921007
 31
0.0
  0
LINE
  5
6975
  8
0
 10
226.4752109247268095
 20
142.2259481432921007
 30
0.0
 11
226.4752109247268095
 21
166.1259481432921064
 31
0.0
  0
LINE
  5
6976
  8
0
 10
261.7252109247266958
 20
166.9509481432920097
 30
0.0
 11
261.7252109247266958
 21
166.425948143292004
 31
0.0
  0
LINE
  5
6977
  8
0
 10
266.7252109247268095
 20
166.425948143292004
 30
0.0
 11
266.7252109247268095
 21
166.9509481432920097
 31
0.0
  0
LINE
  5
6978
  8
0
 10
265.7252109247266958
 20
137.0009481432921064
 30
0.0
 11
266.7252109247268095
 21
137.4509481432920097
 31
0.0
  0
LINE
  5
6979
  8
0
 10
261.7252109247266958
 20
137.4509481432920097
 30
0.0
 11
262.7252109247268095
 21
137.0009481432921064
 31
0.0
  0
LINE
  5
697A
  8
0
 10
262.7252109247268095
 20
137.0009481432921064
 30
0.0
 11
265.7252109247266958
 21
137.0009481432921064
 31
0.0
  0
LINE
  5
697B
  8
0
 10
261.7252109247266958
 20
141.925948143292004
 30
0.0
 11
261.7252109247266958
 21
141.4009481432919983
 31
0.0
  0
LINE
  5
697C
  8
0
 10
266.7252109247268095
 20
141.4009481432919983
 30
0.0
 11
266.7252109247268095
 21
141.925948143292004
 31
0.0
  0
LINE
  5
697D
  8
0
 10
257.5912363285111724
 20
170.9009481432919983
 30
0.0
 11
256.7252109247266958
 21
170.4009481432919983
 31
0.0
  0
LINE
  5
697E
  8
0
 10
256.7252109247266958
 20
167.4509481432920097
 30
0.0
 11
256.7252109247266958
 21
170.4009481432919983
 31
0.0
  0
LINE
  5
697F
  8
0
 10
256.7252109247266958
 20
167.4509481432920097
 30
0.0
 11
257.5912363285111724
 21
166.9509481432920097
 31
0.0
  0
LINE
  5
6980
  8
0
 10
270.8591855209422761
 20
166.9509481432920097
 30
0.0
 11
271.7252109247266958
 21
167.4509481432920097
 31
0.0
  0
LINE
  5
6981
  8
0
 10
271.7252109247266958
 20
170.4009481432919983
 30
0.0
 11
270.8591855209422761
 21
170.9009481432919983
 31
0.0
  0
LINE
  5
6982
  8
0
 10
257.5912363285111724
 20
170.9009481432919983
 30
0.0
 11
270.8591855209422761
 21
170.9009481432919983
 31
0.0
  0
LINE
  5
6983
  8
0
 10
257.5912363285111724
 20
166.9509481432920097
 30
0.0
 11
257.5912363285111724
 21
170.9009481432919983
 31
0.0
  0
LINE
  5
6984
  8
0
 10
257.5912363285111724
 20
166.9509481432920097
 30
0.0
 11
270.8591855209422761
 21
166.9509481432920097
 31
0.0
  0
LINE
  5
6985
  8
0
 10
270.8591855209422761
 20
166.9509481432920097
 30
0.0
 11
270.8591855209422761
 21
170.9009481432919983
 31
0.0
  0
LINE
  5
6986
  8
0
 10
257.5912363285111724
 20
137.4509481432920097
 30
0.0
 11
270.8591855209422761
 21
137.4509481432920097
 31
0.0
  0
LINE
  5
6987
  8
0
 10
257.5912363285111724
 20
141.4009481432919983
 30
0.0
 11
270.8591855209422761
 21
141.4009481432919983
 31
0.0
  0
LINE
  5
6988
  8
0
 10
271.7252109247266958
 20
137.9509481432920097
 30
0.0
 11
270.8591855209422761
 21
137.4509481432920097
 31
0.0
  0
LINE
  5
6989
  8
0
 10
270.8591855209422761
 20
141.4009481432919983
 30
0.0
 11
271.7252109247266958
 21
140.9009481432919983
 31
0.0
  0
LINE
  5
698A
  8
0
 10
270.8591855209422761
 20
141.4009481432919983
 30
0.0
 11
270.8591855209422761
 21
137.4509481432920097
 31
0.0
  0
LINE
  5
698B
  8
0
 10
256.7252109247266958
 20
140.9009481432919983
 30
0.0
 11
257.5912363285111724
 21
141.4009481432919983
 31
0.0
  0
LINE
  5
698C
  8
0
 10
256.7252109247266958
 20
140.9009481432919983
 30
0.0
 11
256.7252109247266958
 21
137.9509481432920097
 31
0.0
  0
LINE
  5
698D
  8
0
 10
257.5912363285111724
 20
137.4509481432920097
 30
0.0
 11
256.7252109247266958
 21
137.9509481432920097
 31
0.0
  0
LINE
  5
698E
  8
0
 10
257.5912363285111724
 20
141.4009481432919983
 30
0.0
 11
257.5912363285111724
 21
137.4509481432920097
 31
0.0
  0
LINE
  5
698F
  8
0
 10
257.2752109247267072
 20
166.4259481432920893
 30
0.0
 11
271.1752109247267981
 21
166.425948143292004
 31
0.0
  0
ARC
  5
6990
  8
0
 10
271.1752109247267981
 20
166.1259481432921064
 30
0.0
 40
0.3000000000000007
 50
0.0
 51
90.0
  0
ARC
  5
6991
  8
0
 10
257.2752109247267072
 20
166.1259481432921064
 30
0.0
 40
0.3000000000000043
 50
90.0
 51
180.0
  0
LINE
  5
6992
  8
0
 10
271.4752109247266958
 20
142.2259481432921007
 30
0.0
 11
271.4752109247266958
 21
166.1259481432921064
 31
0.0
  0
LINE
  5
6993
  8
0
 10
256.9752109247266958
 20
166.1259481432921064
 30
0.0
 11
256.9752109247266958
 21
142.2259481432921007
 31
0.0
  0
LINE
  5
6994
  8
0
 10
257.2752109247267072
 20
141.925948143292004
 30
0.0
 11
271.1752109247267981
 21
141.925948143292004
 31
0.0
  0
ARC
  5
6995
  8
0
 10
271.1752109247267981
 20
142.2259481432921007
 30
0.0
 40
0.3000000000000025
 50
270.0
 51
0.0
  0
ARC
  5
6996
  8
0
 10
257.2752109247267072
 20
142.2259481432921007
 30
0.0
 40
0.3000000000000016
 50
180.0
 51
270.0
  0
LINE
  5
6997
  8
0
 10
251.7252109247268095
 20
166.425948143292004
 30
0.0
 11
251.7252109247268095
 21
166.9509481432920097
 31
0.0
  0
LINE
  5
6998
  8
0
 10
246.7252109247266958
 20
166.9509481432920097
 30
0.0
 11
246.7252109247266958
 21
166.425948143292004
 31
0.0
  0
LINE
  5
6999
  8
0
 10
250.7252109247266958
 20
171.3509481432921007
 30
0.0
 11
247.7252109247268095
 21
171.3509481432921007
 31
0.0
  0
LINE
  5
699A
  8
0
 10
247.7252109247268095
 20
171.3509481432921007
 30
0.0
 11
246.7252109247266958
 21
170.9009481432919983
 31
0.0
  0
LINE
  5
699B
  8
0
 10
251.7252109247268095
 20
170.9009481432919983
 30
0.0
 11
250.7252109247266958
 21
171.3509481432921007
 31
0.0
  0
LINE
  5
699C
  8
0
 10
251.7252109247268095
 20
141.4009481432919983
 30
0.0
 11
251.7252109247268095
 21
141.925948143292004
 31
0.0
  0
LINE
  5
699D
  8
0
 10
246.7252109247266958
 20
141.925948143292004
 30
0.0
 11
246.7252109247266958
 21
141.4009481432919983
 31
0.0
  0
LINE
  5
699E
  8
0
 10
242.5912363285112008
 20
166.9509481432920097
 30
0.0
 11
241.7252109247268095
 21
167.4509481432920097
 31
0.0
  0
LINE
  5
699F
  8
0
 10
241.7252109247268095
 20
170.4009481432919983
 30
0.0
 11
242.5912363285112008
 21
170.9009481432919983
 31
0.0
  0
LINE
  5
69A0
  8
0
 10
241.7252109247268095
 20
167.4509481432920097
 30
0.0
 11
241.7252109247268095
 21
170.4009481432919983
 31
0.0
  0
LINE
  5
69A1
  8
0
 10
255.8591855209423898
 20
170.9009481432919983
 30
0.0
 11
242.5912363285112008
 21
170.9009481432919983
 31
0.0
  0
LINE
  5
69A2
  8
0
 10
242.5912363285112008
 20
166.9509481432920097
 30
0.0
 11
242.5912363285112008
 21
170.9009481432919983
 31
0.0
  0
LINE
  5
69A3
  8
0
 10
255.8591855209423898
 20
166.9509481432920097
 30
0.0
 11
242.5912363285112008
 21
166.9509481432920097
 31
0.0
  0
LINE
  5
69A4
  8
0
 10
255.8591855209423898
 20
170.9009481432919983
 30
0.0
 11
256.7252109247266958
 21
170.4009481432919983
 31
0.0
  0
LINE
  5
69A5
  8
0
 10
255.8591855209423898
 20
166.9509481432920097
 30
0.0
 11
255.8591855209423898
 21
170.9009481432919983
 31
0.0
  0
LINE
  5
69A6
  8
0
 10
256.7252109247266958
 20
167.4509481432920097
 30
0.0
 11
255.8591855209423898
 21
166.9509481432920097
 31
0.0
  0
LINE
  5
69A7
  8
0
 10
241.7252109247268095
 20
137.9509481432920097
 30
0.0
 11
242.5912363285112008
 21
137.4509481432920097
 31
0.0
  0
LINE
  5
69A8
  8
0
 10
242.5912363285112008
 20
141.4009481432919983
 30
0.0
 11
241.7252109247268095
 21
140.9009481432919983
 31
0.0
  0
LINE
  5
69A9
  8
0
 10
241.7252109247268095
 20
140.9009481432919983
 30
0.0
 11
241.7252109247268095
 21
137.9509481432920097
 31
0.0
  0
LINE
  5
69AA
  8
0
 10
255.8591855209423898
 20
141.4009481432919983
 30
0.0
 11
242.5912363285112008
 21
141.4009481432919983
 31
0.0
  0
LINE
  5
69AB
  8
0
 10
255.8591855209423898
 20
137.4509481432920097
 30
0.0
 11
242.5912363285112008
 21
137.4509481432920097
 31
0.0
  0
LINE
  5
69AC
  8
0
 10
242.5912363285112008
 20
141.4009481432919983
 30
0.0
 11
242.5912363285112008
 21
137.4509481432920097
 31
0.0
  0
LINE
  5
69AD
  8
0
 10
256.7252109247266958
 20
140.9009481432919983
 30
0.0
 11
255.8591855209423898
 21
141.4009481432919983
 31
0.0
  0
LINE
  5
69AE
  8
0
 10
255.8591855209423898
 20
141.4009481432919983
 30
0.0
 11
255.8591855209423898
 21
137.4509481432920097
 31
0.0
  0
LINE
  5
69AF
  8
0
 10
255.8591855209423898
 20
137.4509481432920097
 30
0.0
 11
256.7252109247266958
 21
137.9509481432920097
 31
0.0
  0
ARC
  5
69B2
  8
0
 10
256.1752109247267981
 20
166.1259481432921064
 30
0.0
 40
0.3000000000000007
 50
0.0
 51
90.0
  0
ARC
  5
69B5
  8
0
 10
256.1752109247267981
 20
142.2259481432921007
 30
0.0
 40
0.2999999999999989
 50
270.0
 51
0.0
  0
LINE
  5
69B6
  8
0
 10
241.9752109247268095
 20
166.1259481432921064
 30
0.0
 11
241.9752109247268095
 21
142.2259481432921007
 31
0.0
  0
LINE
  5
69B7
  8
0
 10
256.4752109247268095
 20
142.2259481432921007
 30
0.0
 11
256.4752109247268095
 21
166.1259481432921064
 31
0.0
  0
LINE
  5
69B8
  8
0
 10
291.7252109247268095
 20
166.9509481432920097
 30
0.0
 11
291.7252109247268095
 21
166.425948143292004
 31
0.0
  0
LINE
  5
69B9
  8
0
 10
296.7252109247266958
 20
166.425948143292004
 30
0.0
 11
296.7252109247266958
 21
166.9509481432920097
 31
0.0
  0
LINE
  5
69BA
  8
0
 10
295.7252109247268095
 20
137.0009481432921064
 30
0.0
 11
296.7252109247266958
 21
137.4509481432920097
 31
0.0
  0
LINE
  5
69BB
  8
0
 10
291.7252109247268095
 20
137.4509481432920097
 30
0.0
 11
292.7252109247266958
 21
137.0009481432921064
 31
0.0
  0
LINE
  5
69BC
  8
0
 10
292.7252109247266958
 20
137.0009481432921064
 30
0.0
 11
295.7252109247268095
 21
137.0009481432921064
 31
0.0
  0
LINE
  5
69BD
  8
0
 10
291.7252109247268095
 20
141.925948143292004
 30
0.0
 11
291.7252109247268095
 21
141.4009481432919983
 31
0.0
  0
LINE
  5
69BE
  8
0
 10
296.7252109247266958
 20
141.4009481432919983
 30
0.0
 11
296.7252109247266958
 21
141.925948143292004
 31
0.0
  0
LINE
  5
69BF
  8
0
 10
287.5912363285111724
 20
170.9009481432919983
 30
0.0
 11
286.7252109247266958
 21
170.4009481432919983
 31
0.0
  0
LINE
  5
69C0
  8
0
 10
286.7252109247266958
 20
167.4509481432920097
 30
0.0
 11
286.7252109247266958
 21
170.4009481432919983
 31
0.0
  0
LINE
  5
69C1
  8
0
 10
286.7252109247266958
 20
167.4509481432920097
 30
0.0
 11
287.5912363285111724
 21
166.9509481432920097
 31
0.0
  0
LINE
  5
69C2
  8
0
 10
300.8591855209422761
 20
166.9509481432920097
 30
0.0
 11
301.7252109247268095
 21
167.4509481432920097
 31
0.0
  0
LINE
  5
69C3
  8
0
 10
301.7252109247268095
 20
170.4009481432919983
 30
0.0
 11
300.8591855209422761
 21
170.9009481432919983
 31
0.0
  0
LINE
  5
69C4
  8
0
 10
287.5912363285111724
 20
170.9009481432919983
 30
0.0
 11
300.8591855209422761
 21
170.9009481432919983
 31
0.0
  0
LINE
  5
69C5
  8
0
 10
287.5912363285111724
 20
166.9509481432920097
 30
0.0
 11
287.5912363285111724
 21
170.9009481432919983
 31
0.0
  0
LINE
  5
69C6
  8
0
 10
287.5912363285111724
 20
166.9509481432920097
 30
0.0
 11
300.8591855209422761
 21
166.9509481432920097
 31
0.0
  0
LINE
  5
69C7
  8
0
 10
300.8591855209422761
 20
166.9509481432920097
 30
0.0
 11
300.8591855209422761
 21
170.9009481432919983
 31
0.0
  0
LINE
  5
69C8
  8
0
 10
287.5912363285111724
 20
137.4509481432920097
 30
0.0
 11
300.8591855209422761
 21
137.4509481432920097
 31
0.0
  0
LINE
  5
69C9
  8
0
 10
287.5912363285111724
 20
141.4009481432919983
 30
0.0
 11
300.8591855209422761
 21
141.4009481432919983
 31
0.0
  0
LINE
  5
69CA
  8
0
 10
301.7252109247268095
 20
137.9509481432920097
 30
0.0
 11
300.8591855209422761
 21
137.4509481432920097
 31
0.0
  0
LINE
  5
69CB
  8
0
 10
300.8591855209422761
 20
141.4009481432919983
 30
0.0
 11
301.7252109247268095
 21
140.9009481432919983
 31
0.0
  0
LINE
  5
69CC
  8
0
 10
300.8591855209422761
 20
141.4009481432919983
 30
0.0
 11
300.8591855209422761
 21
137.4509481432920097
 31
0.0
  0
LINE
  5
69CD
  8
0
 10
286.7252109247266958
 20
140.9009481432919983
 30
0.0
 11
287.5912363285111724
 21
141.4009481432919983
 31
0.0
  0
LINE
  5
69CE
  8
0
 10
286.7252109247266958
 20
140.9009481432919983
 30
0.0
 11
286.7252109247266958
 21
137.9509481432920097
 31
0.0
  0
LINE
  5
69CF
  8
0
 10
287.5912363285111724
 20
137.4509481432920097
 30
0.0
 11
286.7252109247266958
 21
137.9509481432920097
 31
0.0
  0
LINE
  5
69D0
  8
0
 10
287.5912363285111724
 20
141.4009481432919983
 30
0.0
 11
287.5912363285111724
 21
137.4509481432920097
 31
0.0
  0
LINE
  5
69D1
  8
0
 10
287.2752109247267072
 20
166.4259481432920893
 30
0.0
 11
301.1752109247267981
 21
166.425948143292004
 31
0.0
  0
ARC
  5
69D2
  8
0
 10
301.1752109247267981
 20
166.1259481432921064
 30
0.0
 40
0.3000000000000007
 50
0.0
 51
90.0
  0
ARC
  5
69D3
  8
0
 10
287.2752109247267072
 20
166.1259481432921064
 30
0.0
 40
0.3000000000000043
 50
90.0
 51
180.0
  0
LINE
  5
69D4
  8
0
 10
301.4752109247268095
 20
142.2259481432921007
 30
0.0
 11
301.4752109247268095
 21
166.1259481432921064
 31
0.0
  0
LINE
  5
69D5
  8
0
 10
286.9752109247268095
 20
166.1259481432921064
 30
0.0
 11
286.9752109247268095
 21
142.2259481432921007
 31
0.0
  0
LINE
  5
69D6
  8
0
 10
287.2752109247267072
 20
141.925948143292004
 30
0.0
 11
301.1752109247267981
 21
141.925948143292004
 31
0.0
  0
ARC
  5
69D7
  8
0
 10
301.1752109247267981
 20
142.2259481432921007
 30
0.0
 40
0.3000000000000025
 50
270.0
 51
0.0
  0
ARC
  5
69D8
  8
0
 10
287.2752109247267072
 20
142.2259481432921007
 30
0.0
 40
0.3000000000000016
 50
180.0
 51
270.0
  0
LINE
  5
69D9
  8
0
 10
281.7252109247266958
 20
166.425948143292004
 30
0.0
 11
281.7252109247266958
 21
166.9509481432920097
 31
0.0
  0
LINE
  5
69DA
  8
0
 10
276.7252109247268095
 20
166.9509481432920097
 30
0.0
 11
276.7252109247268095
 21
166.425948143292004
 31
0.0
  0
LINE
  5
69DB
  8
0
 10
280.7252109247268095
 20
171.3509481432921007
 30
0.0
 11
277.7252109247266958
 21
171.3509481432921007
 31
0.0
  0
LINE
  5
69DC
  8
0
 10
277.7252109247266958
 20
171.3509481432921007
 30
0.0
 11
276.7252109247268095
 21
170.9009481432919983
 31
0.0
  0
LINE
  5
69DD
  8
0
 10
281.7252109247266958
 20
170.9009481432919983
 30
0.0
 11
280.7252109247268095
 21
171.3509481432921007
 31
0.0
  0
LINE
  5
69DE
  8
0
 10
281.7252109247266958
 20
141.4009481432919983
 30
0.0
 11
281.7252109247266958
 21
141.925948143292004
 31
0.0
  0
LINE
  5
69DF
  8
0
 10
276.7252109247268095
 20
141.925948143292004
 30
0.0
 11
276.7252109247268095
 21
141.4009481432919983
 31
0.0
  0
LINE
  5
69E0
  8
0
 10
272.5912363285111724
 20
166.9509481432920097
 30
0.0
 11
271.7252109247266958
 21
167.4509481432920097
 31
0.0
  0
LINE
  5
69E1
  8
0
 10
271.7252109247266958
 20
170.4009481432919983
 30
0.0
 11
272.5912363285111724
 21
170.9009481432919983
 31
0.0
  0
LINE
  5
69E2
  8
0
 10
271.7252109247266958
 20
167.4509481432920097
 30
0.0
 11
271.7252109247266958
 21
170.4009481432919983
 31
0.0
  0
LINE
  5
69E3
  8
0
 10
285.8591855209422761
 20
170.9009481432919983
 30
0.0
 11
272.5912363285111724
 21
170.9009481432919983
 31
0.0
  0
LINE
  5
69E4
  8
0
 10
272.5912363285111724
 20
166.9509481432920097
 30
0.0
 11
272.5912363285111724
 21
170.9009481432919983
 31
0.0
  0
LINE
  5
69E5
  8
0
 10
285.8591855209422761
 20
166.9509481432920097
 30
0.0
 11
272.5912363285111724
 21
166.9509481432920097
 31
0.0
  0
LINE
  5
69E6
  8
0
 10
285.8591855209422761
 20
170.9009481432919983
 30
0.0
 11
286.7252109247266958
 21
170.4009481432919983
 31
0.0
  0
LINE
  5
69E7
  8
0
 10
285.8591855209422761
 20
166.9509481432920097
 30
0.0
 11
285.8591855209422761
 21
170.9009481432919983
 31
0.0
  0
LINE
  5
69E8
  8
0
 10
286.7252109247266958
 20
167.4509481432920097
 30
0.0
 11
285.8591855209422761
 21
166.9509481432920097
 31
0.0
  0
LINE
  5
69E9
  8
0
 10
271.7252109247266958
 20
137.9509481432920097
 30
0.0
 11
272.5912363285111724
 21
137.4509481432920097
 31
0.0
  0
LINE
  5
69EA
  8
0
 10
272.5912363285111724
 20
141.4009481432919983
 30
0.0
 11
271.7252109247266958
 21
140.9009481432919983
 31
0.0
  0
LINE
  5
69EB
  8
0
 10
271.7252109247266958
 20
140.9009481432919983
 30
0.0
 11
271.7252109247266958
 21
137.9509481432920097
 31
0.0
  0
LINE
  5
69EC
  8
0
 10
285.8591855209422761
 20
141.4009481432919983
 30
0.0
 11
272.5912363285111724
 21
141.4009481432919983
 31
0.0
  0
LINE
  5
69ED
  8
0
 10
285.8591855209422761
 20
137.4509481432920097
 30
0.0
 11
272.5912363285111724
 21
137.4509481432920097
 31
0.0
  0
LINE
  5
69EE
  8
0
 10
272.5912363285111724
 20
141.4009481432919983
 30
0.0
 11
272.5912363285111724
 21
137.4509481432920097
 31
0.0
  0
LINE
  5
69EF
  8
0
 10
286.7252109247266958
 20
140.9009481432919983
 30
0.0
 11
285.8591855209422761
 21
141.4009481432919983
 31
0.0
  0
LINE
  5
69F0
  8
0
 10
285.8591855209422761
 20
141.4009481432919983
 30
0.0
 11
285.8591855209422761
 21
137.4509481432920097
 31
0.0
  0
LINE
  5
69F1
  8
0
 10
285.8591855209422761
 20
137.4509481432920097
 30
0.0
 11
286.7252109247266958
 21
137.9509481432920097
 31
0.0
  0
ARC
  5
69F4
  8
0
 10
286.1752109247267981
 20
166.1259481432921064
 30
0.0
 40
0.3000000000000007
 50
0.0
 51
90.0
  0
ARC
  5
69F7
  8
0
 10
286.1752109247267981
 20
142.2259481432921007
 30
0.0
 40
0.2999999999999989
 50
270.0
 51
0.0
  0
LINE
  5
69F8
  8
0
 10
271.9752109247266958
 20
166.1259481432921064
 30
0.0
 11
271.9752109247266958
 21
142.2259481432921007
 31
0.0
  0
LINE
  5
69F9
  8
0
 10
286.4752109247266958
 20
142.2259481432921007
 30
0.0
 11
286.4752109247266958
 21
166.1259481432921064
 31
0.0
  0
LINE
  5
69FA
  8
0
 10
321.7252109247266958
 20
166.9509481432920097
 30
0.0
 11
321.7252109247266958
 21
166.425948143292004
 31
0.0
  0
LINE
  5
69FB
  8
0
 10
326.7252109247268095
 20
166.425948143292004
 30
0.0
 11
326.7252109247268095
 21
166.9509481432920097
 31
0.0
  0
LINE
  5
69FC
  8
0
 10
325.7252109247266958
 20
137.0009481432921064
 30
0.0
 11
326.7252109247268095
 21
137.4509481432920097
 31
0.0
  0
LINE
  5
69FD
  8
0
 10
321.7252109247266958
 20
137.4509481432920097
 30
0.0
 11
322.7252109247268095
 21
137.0009481432921064
 31
0.0
  0
LINE
  5
69FE
  8
0
 10
322.7252109247268095
 20
137.0009481432921064
 30
0.0
 11
325.7252109247266958
 21
137.0009481432921064
 31
0.0
  0
LINE
  5
69FF
  8
0
 10
321.7252109247266958
 20
141.925948143292004
 30
0.0
 11
321.7252109247266958
 21
141.4009481432919983
 31
0.0
  0
LINE
  5
6A00
  8
0
 10
326.7252109247268095
 20
141.4009481432919983
 30
0.0
 11
326.7252109247268095
 21
141.925948143292004
 31
0.0
  0
LINE
  5
6A01
  8
0
 10
317.5912363285111724
 20
170.9009481432919983
 30
0.0
 11
316.7252109247268095
 21
170.4009481432919983
 31
0.0
  0
LINE
  5
6A02
  8
0
 10
316.7252109247268095
 20
167.4509481432920097
 30
0.0
 11
316.7252109247268095
 21
170.4009481432919983
 31
0.0
  0
LINE
  5
6A03
  8
0
 10
316.7252109247268095
 20
167.4509481432920097
 30
0.0
 11
317.5912363285111724
 21
166.9509481432920097
 31
0.0
  0
LINE
  5
6A04
  8
0
 10
330.8591855209423898
 20
166.9509481432920097
 30
0.0
 11
331.7252109247266958
 21
167.4509481432920097
 31
0.0
  0
LINE
  5
6A05
  8
0
 10
331.7252109247266958
 20
170.4009481432919983
 30
0.0
 11
330.8591855209423898
 21
170.9009481432919983
 31
0.0
  0
LINE
  5
6A06
  8
0
 10
317.5912363285111724
 20
170.9009481432919983
 30
0.0
 11
330.8591855209423898
 21
170.9009481432919983
 31
0.0
  0
LINE
  5
6A07
  8
0
 10
317.5912363285111724
 20
166.9509481432920097
 30
0.0
 11
317.5912363285111724
 21
170.9009481432919983
 31
0.0
  0
LINE
  5
6A08
  8
0
 10
317.5912363285111724
 20
166.9509481432920097
 30
0.0
 11
330.8591855209423898
 21
166.9509481432920097
 31
0.0
  0
LINE
  5
6A09
  8
0
 10
330.8591855209423898
 20
166.9509481432920097
 30
0.0
 11
330.8591855209423898
 21
170.9009481432919983
 31
0.0
  0
LINE
  5
6A0A
  8
0
 10
317.5912363285111724
 20
137.4509481432920097
 30
0.0
 11
330.8591855209423898
 21
137.4509481432920097
 31
0.0
  0
LINE
  5
6A0B
  8
0
 10
317.5912363285111724
 20
141.4009481432919983
 30
0.0
 11
330.8591855209423898
 21
141.4009481432919983
 31
0.0
  0
LINE
  5
6A0C
  8
0
 10
331.7252109247266958
 20
137.9509481432920097
 30
0.0
 11
330.8591855209423898
 21
137.4509481432920097
 31
0.0
  0
LINE
  5
6A0D
  8
0
 10
330.8591855209423898
 20
141.4009481432919983
 30
0.0
 11
331.7252109247266958
 21
140.9009481432919983
 31
0.0
  0
LINE
  5
6A0E
  8
0
 10
330.8591855209423898
 20
141.4009481432919983
 30
0.0
 11
330.8591855209423898
 21
137.4509481432920097
 31
0.0
  0
LINE
  5
6A0F
  8
0
 10
316.7252109247268095
 20
140.9009481432919983
 30
0.0
 11
317.5912363285111724
 21
141.4009481432919983
 31
0.0
  0
LINE
  5
6A10
  8
0
 10
316.7252109247268095
 20
140.9009481432919983
 30
0.0
 11
316.7252109247268095
 21
137.9509481432920097
 31
0.0
  0
LINE
  5
6A11
  8
0
 10
317.5912363285111724
 20
137.4509481432920097
 30
0.0
 11
316.7252109247268095
 21
137.9509481432920097
 31
0.0
  0
LINE
  5
6A12
  8
0
 10
317.5912363285111724
 20
141.4009481432919983
 30
0.0
 11
317.5912363285111724
 21
137.4509481432920097
 31
0.0
  0
LINE
  5
6A13
  8
0
 10
317.2752109247267072
 20
166.4259481432920893
 30
0.0
 11
331.1752109247267981
 21
166.425948143292004
 31
0.0
  0
ARC
  5
6A14
  8
0
 10
331.1752109247267981
 20
166.1259481432921064
 30
0.0
 40
0.3000000000000007
 50
0.0
 51
90.0
  0
ARC
  5
6A15
  8
0
 10
317.2752109247267072
 20
166.1259481432921064
 30
0.0
 40
0.3000000000000043
 50
90.0
 51
180.0
  0
LINE
  5
6A16
  8
0
 10
331.4752109247268095
 20
142.2259481432921007
 30
0.0
 11
331.4752109247268095
 21
166.1259481432921064
 31
0.0
  0
LINE
  5
6A17
  8
0
 10
316.9752109247268095
 20
166.1259481432921064
 30
0.0
 11
316.9752109247268095
 21
142.2259481432921007
 31
0.0
  0
LINE
  5
6A18
  8
0
 10
317.2752109247267072
 20
141.925948143292004
 30
0.0
 11
331.1752109247267981
 21
141.925948143292004
 31
0.0
  0
ARC
  5
6A19
  8
0
 10
331.1752109247267981
 20
142.2259481432921007
 30
0.0
 40
0.3000000000000025
 50
270.0
 51
0.0
  0
ARC
  5
6A1A
  8
0
 10
317.2752109247267072
 20
142.2259481432921007
 30
0.0
 40
0.3000000000000016
 50
180.0
 51
270.0
  0
LINE
  5
6A1B
  8
0
 10
311.7252109247268095
 20
166.425948143292004
 30
0.0
 11
311.7252109247268095
 21
166.9509481432920097
 31
0.0
  0
LINE
  5
6A1C
  8
0
 10
306.7252109247266958
 20
166.9509481432920097
 30
0.0
 11
306.7252109247266958
 21
166.425948143292004
 31
0.0
  0
LINE
  5
6A1D
  8
0
 10
310.7252109247268095
 20
171.3509481432921007
 30
0.0
 11
307.7252109247268095
 21
171.3509481432921007
 31
0.0
  0
LINE
  5
6A1E
  8
0
 10
307.7252109247268095
 20
171.3509481432921007
 30
0.0
 11
306.7252109247266958
 21
170.9009481432919983
 31
0.0
  0
LINE
  5
6A1F
  8
0
 10
311.7252109247268095
 20
170.9009481432919983
 30
0.0
 11
310.7252109247268095
 21
171.3509481432921007
 31
0.0
  0
LINE
  5
6A20
  8
0
 10
311.7252109247268095
 20
141.4009481432919983
 30
0.0
 11
311.7252109247268095
 21
141.925948143292004
 31
0.0
  0
LINE
  5
6A21
  8
0
 10
306.7252109247266958
 20
141.925948143292004
 30
0.0
 11
306.7252109247266958
 21
141.4009481432919983
 31
0.0
  0
LINE
  5
6A22
  8
0
 10
302.5912363285111724
 20
166.9509481432920097
 30
0.0
 11
301.7252109247268095
 21
167.4509481432920097
 31
0.0
  0
LINE
  5
6A23
  8
0
 10
301.7252109247268095
 20
170.4009481432919983
 30
0.0
 11
302.5912363285111724
 21
170.9009481432919983
 31
0.0
  0
LINE
  5
6A24
  8
0
 10
301.7252109247268095
 20
167.4509481432920097
 30
0.0
 11
301.7252109247268095
 21
170.4009481432919983
 31
0.0
  0
LINE
  5
6A25
  8
0
 10
315.8591855209422761
 20
170.9009481432919983
 30
0.0
 11
302.5912363285111724
 21
170.9009481432919983
 31
0.0
  0
LINE
  5
6A26
  8
0
 10
302.5912363285111724
 20
166.9509481432920097
 30
0.0
 11
302.5912363285111724
 21
170.9009481432919983
 31
0.0
  0
LINE
  5
6A27
  8
0
 10
315.8591855209422761
 20
166.9509481432920097
 30
0.0
 11
302.5912363285111724
 21
166.9509481432920097
 31
0.0
  0
LINE
  5
6A28
  8
0
 10
315.8591855209422761
 20
170.9009481432919983
 30
0.0
 11
316.7252109247268095
 21
170.4009481432919983
 31
0.0
  0
LINE
  5
6A29
  8
0
 10
315.8591855209422761
 20
166.9509481432920097
 30
0.0
 11
315.8591855209422761
 21
170.9009481432919983
 31
0.0
  0
LINE
  5
6A2A
  8
0
 10
316.7252109247268095
 20
167.4509481432920097
 30
0.0
 11
315.8591855209422761
 21
166.9509481432920097
 31
0.0
  0
LINE
  5
6A2B
  8
0
 10
301.7252109247268095
 20
137.9509481432920097
 30
0.0
 11
302.5912363285111724
 21
137.4509481432920097
 31
0.0
  0
LINE
  5
6A2C
  8
0
 10
302.5912363285111724
 20
141.4009481432919983
 30
0.0
 11
301.7252109247268095
 21
140.9009481432919983
 31
0.0
  0
LINE
  5
6A2D
  8
0
 10
301.7252109247268095
 20
140.9009481432919983
 30
0.0
 11
301.7252109247268095
 21
137.9509481432920097
 31
0.0
  0
LINE
  5
6A2E
  8
0
 10
315.8591855209422761
 20
141.4009481432919983
 30
0.0
 11
302.5912363285111724
 21
141.4009481432919983
 31
0.0
  0
LINE
  5
6A2F
  8
0
 10
315.8591855209422761
 20
137.4509481432920097
 30
0.0
 11
302.5912363285111724
 21
137.4509481432920097
 31
0.0
  0
LINE
  5
6A30
  8
0
 10
302.5912363285111724
 20
141.4009481432919983
 30
0.0
 11
302.5912363285111724
 21
137.4509481432920097
 31
0.0
  0
LINE
  5
6A31
  8
0
 10
316.7252109247268095
 20
140.9009481432919983
 30
0.0
 11
315.8591855209422761
 21
141.4009481432919983
 31
0.0
  0
LINE
  5
6A32
  8
0
 10
315.8591855209422761
 20
141.4009481432919983
 30
0.0
 11
315.8591855209422761
 21
137.4509481432920097
 31
0.0
  0
LINE
  5
6A33
  8
0
 10
315.8591855209422761
 20
137.4509481432920097
 30
0.0
 11
316.7252109247268095
 21
137.9509481432920097
 31
0.0
  0
ARC
  5
6A36
  8
0
 10
316.1752109247267981
 20
166.1259481432921064
 30
0.0
 40
0.3000000000000007
 50
0.0
 51
90.0
  0
ARC
  5
6A39
  8
0
 10
316.1752109247267981
 20
142.2259481432921007
 30
0.0
 40
0.2999999999999989
 50
270.0
 51
0.0
  0
LINE
  5
6A3A
  8
0
 10
301.9752109247268095
 20
166.1259481432921064
 30
0.0
 11
301.9752109247268095
 21
142.2259481432921007
 31
0.0
  0
LINE
  5
6A3B
  8
0
 10
316.4752109247268095
 20
142.2259481432921007
 30
0.0
 11
316.4752109247268095
 21
166.1259481432921064
 31
0.0
  0
LINE
  5
6A3C
  8
0
 10
351.7252109247268095
 20
166.9509481432920097
 30
0.0
 11
351.7252109247268095
 21
166.425948143292004
 31
0.0
  0
LINE
  5
6A3D
  8
0
 10
356.7252109247266958
 20
166.425948143292004
 30
0.0
 11
356.7252109247266958
 21
166.9509481432920097
 31
0.0
  0
LINE
  5
6A3E
  8
0
 10
355.7252109247268095
 20
137.0009481432921064
 30
0.0
 11
356.7252109247266958
 21
137.4509481432920097
 31
0.0
  0
LINE
  5
6A3F
  8
0
 10
351.7252109247268095
 20
137.4509481432920097
 30
0.0
 11
352.7252109247266958
 21
137.0009481432921064
 31
0.0
  0
LINE
  5
6A40
  8
0
 10
352.7252109247266958
 20
137.0009481432921064
 30
0.0
 11
355.7252109247268095
 21
137.0009481432921064
 31
0.0
  0
LINE
  5
6A41
  8
0
 10
351.7252109247268095
 20
141.925948143292004
 30
0.0
 11
351.7252109247268095
 21
141.4009481432919983
 31
0.0
  0
LINE
  5
6A42
  8
0
 10
356.7252109247266958
 20
141.4009481432919983
 30
0.0
 11
356.7252109247266958
 21
141.925948143292004
 31
0.0
  0
LINE
  5
6A43
  8
0
 10
347.5912363285111724
 20
170.9009481432919983
 30
0.0
 11
346.7252109247266958
 21
170.4009481432919983
 31
0.0
  0
LINE
  5
6A44
  8
0
 10
346.7252109247266958
 20
167.4509481432920097
 30
0.0
 11
346.7252109247266958
 21
170.4009481432919983
 31
0.0
  0
LINE
  5
6A45
  8
0
 10
346.7252109247266958
 20
167.4509481432920097
 30
0.0
 11
347.5912363285111724
 21
166.9509481432920097
 31
0.0
  0
LINE
  5
6A46
  8
0
 10
360.8591855209422761
 20
166.9509481432920097
 30
0.0
 11
361.7252109247268095
 21
167.4509481432920097
 31
0.0
  0
LINE
  5
6A47
  8
0
 10
361.7252109247268095
 20
170.4009481432919983
 30
0.0
 11
360.8591855209422761
 21
170.9009481432919983
 31
0.0
  0
LINE
  5
6A48
  8
0
 10
347.5912363285111724
 20
170.9009481432919983
 30
0.0
 11
360.8591855209422761
 21
170.9009481432919983
 31
0.0
  0
LINE
  5
6A49
  8
0
 10
347.5912363285111724
 20
166.9509481432920097
 30
0.0
 11
347.5912363285111724
 21
170.9009481432919983
 31
0.0
  0
LINE
  5
6A4A
  8
0
 10
347.5912363285111724
 20
166.9509481432920097
 30
0.0
 11
360.8591855209422761
 21
166.9509481432920097
 31
0.0
  0
LINE
  5
6A4B
  8
0
 10
360.8591855209422761
 20
166.9509481432920097
 30
0.0
 11
360.8591855209422761
 21
170.9009481432919983
 31
0.0
  0
LINE
  5
6A4C
  8
0
 10
347.5912363285111724
 20
137.4509481432920097
 30
0.0
 11
360.8591855209422761
 21
137.4509481432920097
 31
0.0
  0
LINE
  5
6A4D
  8
0
 10
347.5912363285111724
 20
141.4009481432919983
 30
0.0
 11
360.8591855209422761
 21
141.4009481432919983
 31
0.0
  0
LINE
  5
6A4E
  8
0
 10
361.7252109247268095
 20
137.9509481432920097
 30
0.0
 11
360.8591855209422761
 21
137.4509481432920097
 31
0.0
  0
LINE
  5
6A4F
  8
0
 10
360.8591855209422761
 20
141.4009481432919983
 30
0.0
 11
361.7252109247268095
 21
140.9009481432919983
 31
0.0
  0
LINE
  5
6A50
  8
0
 10
360.8591855209422761
 20
141.4009481432919983
 30
0.0
 11
360.8591855209422761
 21
137.4509481432920097
 31
0.0
  0
LINE
  5
6A51
  8
0
 10
346.7252109247266958
 20
140.9009481432919983
 30
0.0
 11
347.5912363285111724
 21
141.4009481432919983
 31
0.0
  0
LINE
  5
6A52
  8
0
 10
346.7252109247266958
 20
140.9009481432919983
 30
0.0
 11
346.7252109247266958
 21
137.9509481432920097
 31
0.0
  0
LINE
  5
6A53
  8
0
 10
347.5912363285111724
 20
137.4509481432920097
 30
0.0
 11
346.7252109247266958
 21
137.9509481432920097
 31
0.0
  0
LINE
  5
6A54
  8
0
 10
347.5912363285111724
 20
141.4009481432919983
 30
0.0
 11
347.5912363285111724
 21
137.4509481432920097
 31
0.0
  0
LINE
  5
6A55
  8
0
 10
347.2752109247267072
 20
166.4259481432920893
 30
0.0
 11
361.1752109247267981
 21
166.425948143292004
 31
0.0
  0
ARC
  5
6A56
  8
0
 10
361.1752109247267981
 20
166.1259481432921064
 30
0.0
 40
0.3000000000000007
 50
0.0
 51
90.0
  0
ARC
  5
6A57
  8
0
 10
347.2752109247267072
 20
166.1259481432921064
 30
0.0
 40
0.3000000000000043
 50
90.0
 51
180.0
  0
LINE
  5
6A58
  8
0
 10
361.4752109247266958
 20
142.2259481432921007
 30
0.0
 11
361.4752109247266958
 21
166.1259481432921064
 31
0.0
  0
LINE
  5
6A59
  8
0
 10
346.9752109247266958
 20
166.1259481432921064
 30
0.0
 11
346.9752109247266958
 21
142.2259481432921007
 31
0.0
  0
LINE
  5
6A5A
  8
0
 10
347.2752109247267072
 20
141.925948143292004
 30
0.0
 11
361.1752109247267981
 21
141.925948143292004
 31
0.0
  0
ARC
  5
6A5B
  8
0
 10
361.1752109247267981
 20
142.2259481432921007
 30
0.0
 40
0.3000000000000025
 50
270.0
 51
0.0
  0
ARC
  5
6A5C
  8
0
 10
347.2752109247267072
 20
142.2259481432921007
 30
0.0
 40
0.3000000000000016
 50
180.0
 51
270.0
  0
LINE
  5
6A5D
  8
0
 10
341.7252109247268095
 20
166.425948143292004
 30
0.0
 11
341.7252109247268095
 21
166.9509481432920097
 31
0.0
  0
LINE
  5
6A5E
  8
0
 10
336.7252109247268095
 20
166.9509481432920097
 30
0.0
 11
336.7252109247268095
 21
166.425948143292004
 31
0.0
  0
LINE
  5
6A5F
  8
0
 10
340.7252109247266958
 20
171.3509481432921007
 30
0.0
 11
337.7252109247268095
 21
171.3509481432921007
 31
0.0
  0
LINE
  5
6A60
  8
0
 10
337.7252109247268095
 20
171.3509481432921007
 30
0.0
 11
336.7252109247268095
 21
170.9009481432919983
 31
0.0
  0
LINE
  5
6A61
  8
0
 10
341.7252109247268095
 20
170.9009481432919983
 30
0.0
 11
340.7252109247266958
 21
171.3509481432921007
 31
0.0
  0
LINE
  5
6A62
  8
0
 10
341.7252109247268095
 20
141.4009481432919983
 30
0.0
 11
341.7252109247268095
 21
141.925948143292004
 31
0.0
  0
LINE
  5
6A63
  8
0
 10
336.7252109247268095
 20
141.925948143292004
 30
0.0
 11
336.7252109247268095
 21
141.4009481432919983
 31
0.0
  0
LINE
  5
6A64
  8
0
 10
332.5912363285111724
 20
166.9509481432920097
 30
0.0
 11
331.7252109247266958
 21
167.4509481432920097
 31
0.0
  0
LINE
  5
6A65
  8
0
 10
331.7252109247266958
 20
170.4009481432919983
 30
0.0
 11
332.5912363285111724
 21
170.9009481432919983
 31
0.0
  0
LINE
  5
6A66
  8
0
 10
331.7252109247266958
 20
167.4509481432920097
 30
0.0
 11
331.7252109247266958
 21
170.4009481432919983
 31
0.0
  0
LINE
  5
6A67
  8
0
 10
345.8591855209422761
 20
170.9009481432919983
 30
0.0
 11
332.5912363285111724
 21
170.9009481432919983
 31
0.0
  0
LINE
  5
6A68
  8
0
 10
332.5912363285111724
 20
166.9509481432920097
 30
0.0
 11
332.5912363285111724
 21
170.9009481432919983
 31
0.0
  0
LINE
  5
6A69
  8
0
 10
345.8591855209422761
 20
166.9509481432920097
 30
0.0
 11
332.5912363285111724
 21
166.9509481432920097
 31
0.0
  0
LINE
  5
6A6A
  8
0
 10
345.8591855209422761
 20
170.9009481432919983
 30
0.0
 11
346.7252109247266958
 21
170.4009481432919983
 31
0.0
  0
LINE
  5
6A6B
  8
0
 10
345.8591855209422761
 20
166.9509481432920097
 30
0.0
 11
345.8591855209422761
 21
170.9009481432919983
 31
0.0
  0
LINE
  5
6A6C
  8
0
 10
346.7252109247266958
 20
167.4509481432920097
 30
0.0
 11
345.8591855209422761
 21
166.9509481432920097
 31
0.0
  0
LINE
  5
6A6D
  8
0
 10
331.7252109247266958
 20
137.9509481432920097
 30
0.0
 11
332.5912363285111724
 21
137.4509481432920097
 31
0.0
  0
LINE
  5
6A6E
  8
0
 10
332.5912363285111724
 20
141.4009481432919983
 30
0.0
 11
331.7252109247266958
 21
140.9009481432919983
 31
0.0
  0
LINE
  5
6A6F
  8
0
 10
331.7252109247266958
 20
140.9009481432919983
 30
0.0
 11
331.7252109247266958
 21
137.9509481432920097
 31
0.0
  0
LINE
  5
6A70
  8
0
 10
345.8591855209422761
 20
141.4009481432919983
 30
0.0
 11
332.5912363285111724
 21
141.4009481432919983
 31
0.0
  0
LINE
  5
6A71
  8
0
 10
345.8591855209422761
 20
137.4509481432920097
 30
0.0
 11
332.5912363285111724
 21
137.4509481432920097
 31
0.0
  0
LINE
  5
6A72
  8
0
 10
332.5912363285111724
 20
141.4009481432919983
 30
0.0
 11
332.5912363285111724
 21
137.4509481432920097
 31
0.0
  0
LINE
  5
6A73
  8
0
 10
346.7252109247266958
 20
140.9009481432919983
 30
0.0
 11
345.8591855209422761
 21
141.4009481432919983
 31
0.0
  0
LINE
  5
6A74
  8
0
 10
345.8591855209422761
 20
141.4009481432919983
 30
0.0
 11
345.8591855209422761
 21
137.4509481432920097
 31
0.0
  0
LINE
  5
6A75
  8
0
 10
345.8591855209422761
 20
137.4509481432920097
 30
0.0
 11
346.7252109247266958
 21
137.9509481432920097
 31
0.0
  0
ARC
  5
6A78
  8
0
 10
346.1752109247267981
 20
166.1259481432921064
 30
0.0
 40
0.3000000000000007
 50
0.0
 51
90.0
  0
ARC
  5
6A7B
  8
0
 10
346.1752109247267981
 20
142.2259481432921007
 30
0.0
 40
0.2999999999999989
 50
270.0
 51
0.0
  0
LINE
  5
6A7C
  8
0
 10
331.9752109247266958
 20
166.1259481432921064
 30
0.0
 11
331.9752109247266958
 21
142.2259481432921007
 31
0.0
  0
LINE
  5
6A7D
  8
0
 10
346.4752109247266958
 20
142.2259481432921007
 30
0.0
 11
346.4752109247266958
 21
166.1259481432921064
 31
0.0
  0
LINE
  5
6A7E
  8
0
 10
381.7252109247266958
 20
166.9509481432920097
 30
0.0
 11
381.7252109247266958
 21
166.425948143292004
 31
0.0
  0
LINE
  5
6A7F
  8
0
 10
386.7252109247268095
 20
166.425948143292004
 30
0.0
 11
386.7252109247268095
 21
166.9509481432920097
 31
0.0
  0
LINE
  5
6A80
  8
0
 10
385.7252109247268095
 20
137.0009481432921064
 30
0.0
 11
386.7252109247268095
 21
137.4509481432920097
 31
0.0
  0
LINE
  5
6A81
  8
0
 10
381.7252109247266958
 20
137.4509481432920097
 30
0.0
 11
382.7252109247268095
 21
137.0009481432921064
 31
0.0
  0
LINE
  5
6A82
  8
0
 10
382.7252109247268095
 20
137.0009481432921064
 30
0.0
 11
385.7252109247268095
 21
137.0009481432921064
 31
0.0
  0
LINE
  5
6A83
  8
0
 10
381.7252109247266958
 20
141.925948143292004
 30
0.0
 11
381.7252109247266958
 21
141.4009481432919983
 31
0.0
  0
LINE
  5
6A84
  8
0
 10
386.7252109247268095
 20
141.4009481432919983
 30
0.0
 11
386.7252109247268095
 21
141.925948143292004
 31
0.0
  0
LINE
  5
6A85
  8
0
 10
377.5912363285111724
 20
170.9009481432919983
 30
0.0
 11
376.7252109247268095
 21
170.4009481432919983
 31
0.0
  0
LINE
  5
6A86
  8
0
 10
376.7252109247268095
 20
167.4509481432920097
 30
0.0
 11
376.7252109247268095
 21
170.4009481432919983
 31
0.0
  0
LINE
  5
6A87
  8
0
 10
376.7252109247268095
 20
167.4509481432920097
 30
0.0
 11
377.5912363285111724
 21
166.9509481432920097
 31
0.0
  0
LINE
  5
6A88
  8
0
 10
390.8591855209422761
 20
166.9509481432920097
 30
0.0
 11
391.7252109247268095
 21
167.4509481432920097
 31
0.0
  0
LINE
  5
6A89
  8
0
 10
391.7252109247268095
 20
170.4009481432919983
 30
0.0
 11
390.8591855209422761
 21
170.9009481432919983
 31
0.0
  0
LINE
  5
6A8A
  8
0
 10
377.5912363285111724
 20
170.9009481432919983
 30
0.0
 11
390.8591855209422761
 21
170.9009481432919983
 31
0.0
  0
LINE
  5
6A8B
  8
0
 10
377.5912363285111724
 20
166.9509481432920097
 30
0.0
 11
377.5912363285111724
 21
170.9009481432919983
 31
0.0
  0
LINE
  5
6A8C
  8
0
 10
377.5912363285111724
 20
166.9509481432920097
 30
0.0
 11
390.8591855209422761
 21
166.9509481432920097
 31
0.0
  0
LINE
  5
6A8D
  8
0
 10
390.8591855209422761
 20
166.9509481432920097
 30
0.0
 11
390.8591855209422761
 21
170.9009481432919983
 31
0.0
  0
LINE
  5
6A8E
  8
0
 10
377.5912363285111724
 20
137.4509481432920097
 30
0.0
 11
390.8591855209422761
 21
137.4509481432920097
 31
0.0
  0
LINE
  5
6A8F
  8
0
 10
377.5912363285111724
 20
141.4009481432919983
 30
0.0
 11
390.8591855209422761
 21
141.4009481432919983
 31
0.0
  0
LINE
  5
6A90
  8
0
 10
391.7252109247268095
 20
137.9509481432920097
 30
0.0
 11
390.8591855209422761
 21
137.4509481432920097
 31
0.0
  0
LINE
  5
6A91
  8
0
 10
390.8591855209422761
 20
141.4009481432919983
 30
0.0
 11
391.7252109247268095
 21
140.9009481432919983
 31
0.0
  0
LINE
  5
6A92
  8
0
 10
390.8591855209422761
 20
141.4009481432919983
 30
0.0
 11
390.8591855209422761
 21
137.4509481432920097
 31
0.0
  0
LINE
  5
6A93
  8
0
 10
376.7252109247268095
 20
140.9009481432919983
 30
0.0
 11
377.5912363285111724
 21
141.4009481432919983
 31
0.0
  0
LINE
  5
6A94
  8
0
 10
376.7252109247268095
 20
140.9009481432919983
 30
0.0
 11
376.7252109247268095
 21
137.9509481432920097
 31
0.0
  0
LINE
  5
6A95
  8
0
 10
377.5912363285111724
 20
137.4509481432920097
 30
0.0
 11
376.7252109247268095
 21
137.9509481432920097
 31
0.0
  0
LINE
  5
6A96
  8
0
 10
377.5912363285111724
 20
141.4009481432919983
 30
0.0
 11
377.5912363285111724
 21
137.4509481432920097
 31
0.0
  0
LINE
  5
6A97
  8
0
 10
377.2752109247267072
 20
166.4259481432920893
 30
0.0
 11
391.1752109247267981
 21
166.425948143292004
 31
0.0
  0
ARC
  5
6A98
  8
0
 10
391.1752109247267981
 20
166.1259481432921064
 30
0.0
 40
0.3000000000000007
 50
0.0
 51
90.0
  0
ARC
  5
6A99
  8
0
 10
377.2752109247267072
 20
166.1259481432921064
 30
0.0
 40
0.3000000000000043
 50
90.0
 51
180.0
  0
LINE
  5
6A9A
  8
0
 10
391.4752109247268095
 20
142.2259481432921007
 30
0.0
 11
391.4752109247268095
 21
166.1259481432921064
 31
0.0
  0
LINE
  5
6A9B
  8
0
 10
376.9752109247268095
 20
166.1259481432921064
 30
0.0
 11
376.9752109247268095
 21
142.2259481432921007
 31
0.0
  0
LINE
  5
6A9C
  8
0
 10
377.2752109247267072
 20
141.925948143292004
 30
0.0
 11
391.1752109247267981
 21
141.925948143292004
 31
0.0
  0
ARC
  5
6A9D
  8
0
 10
391.1752109247267981
 20
142.2259481432921007
 30
0.0
 40
0.3000000000000025
 50
270.0
 51
0.0
  0
ARC
  5
6A9E
  8
0
 10
377.2752109247267072
 20
142.2259481432921007
 30
0.0
 40
0.3000000000000016
 50
180.0
 51
270.0
  0
LINE
  5
6A9F
  8
0
 10
371.7252109247266958
 20
166.425948143292004
 30
0.0
 11
371.7252109247266958
 21
166.9509481432920097
 31
0.0
  0
LINE
  5
6AA0
  8
0
 10
366.7252109247268095
 20
166.9509481432920097
 30
0.0
 11
366.7252109247268095
 21
166.425948143292004
 31
0.0
  0
LINE
  5
6AA1
  8
0
 10
370.7252109247268095
 20
171.3509481432921007
 30
0.0
 11
367.7252109247266958
 21
171.3509481432921007
 31
0.0
  0
LINE
  5
6AA2
  8
0
 10
367.7252109247266958
 20
171.3509481432921007
 30
0.0
 11
366.7252109247268095
 21
170.9009481432919983
 31
0.0
  0
LINE
  5
6AA3
  8
0
 10
371.7252109247266958
 20
170.9009481432919983
 30
0.0
 11
370.7252109247268095
 21
171.3509481432921007
 31
0.0
  0
LINE
  5
6AA4
  8
0
 10
371.7252109247266958
 20
141.4009481432919983
 30
0.0
 11
371.7252109247266958
 21
141.925948143292004
 31
0.0
  0
LINE
  5
6AA5
  8
0
 10
366.7252109247268095
 20
141.925948143292004
 30
0.0
 11
366.7252109247268095
 21
141.4009481432919983
 31
0.0
  0
LINE
  5
6AA6
  8
0
 10
362.5912363285111724
 20
166.9509481432920097
 30
0.0
 11
361.7252109247268095
 21
167.4509481432920097
 31
0.0
  0
LINE
  5
6AA7
  8
0
 10
361.7252109247268095
 20
170.4009481432919983
 30
0.0
 11
362.5912363285111724
 21
170.9009481432919983
 31
0.0
  0
LINE
  5
6AA8
  8
0
 10
361.7252109247268095
 20
167.4509481432920097
 30
0.0
 11
361.7252109247268095
 21
170.4009481432919983
 31
0.0
  0
LINE
  5
6AA9
  8
0
 10
375.8591855209422761
 20
170.9009481432919983
 30
0.0
 11
362.5912363285111724
 21
170.9009481432919983
 31
0.0
  0
LINE
  5
6AAA
  8
0
 10
362.5912363285111724
 20
166.9509481432920097
 30
0.0
 11
362.5912363285111724
 21
170.9009481432919983
 31
0.0
  0
LINE
  5
6AAB
  8
0
 10
375.8591855209422761
 20
166.9509481432920097
 30
0.0
 11
362.5912363285111724
 21
166.9509481432920097
 31
0.0
  0
LINE
  5
6AAC
  8
0
 10
375.8591855209422761
 20
170.9009481432919983
 30
0.0
 11
376.7252109247268095
 21
170.4009481432919983
 31
0.0
  0
LINE
  5
6AAD
  8
0
 10
375.8591855209422761
 20
166.9509481432920097
 30
0.0
 11
375.8591855209422761
 21
170.9009481432919983
 31
0.0
  0
LINE
  5
6AAE
  8
0
 10
376.7252109247268095
 20
167.4509481432920097
 30
0.0
 11
375.8591855209422761
 21
166.9509481432920097
 31
0.0
  0
LINE
  5
6AAF
  8
0
 10
361.7252109247268095
 20
137.9509481432920097
 30
0.0
 11
362.5912363285111724
 21
137.4509481432920097
 31
0.0
  0
LINE
  5
6AB0
  8
0
 10
362.5912363285111724
 20
141.4009481432919983
 30
0.0
 11
361.7252109247268095
 21
140.9009481432919983
 31
0.0
  0
LINE
  5
6AB1
  8
0
 10
361.7252109247268095
 20
140.9009481432919983
 30
0.0
 11
361.7252109247268095
 21
137.9509481432920097
 31
0.0
  0
LINE
  5
6AB2
  8
0
 10
375.8591855209422761
 20
141.4009481432919983
 30
0.0
 11
362.5912363285111724
 21
141.4009481432919983
 31
0.0
  0
LINE
  5
6AB3
  8
0
 10
375.8591855209422761
 20
137.4509481432920097
 30
0.0
 11
362.5912363285111724
 21
137.4509481432920097
 31
0.0
  0
LINE
  5
6AB4
  8
0
 10
362.5912363285111724
 20
141.4009481432919983
 30
0.0
 11
362.5912363285111724
 21
137.4509481432920097
 31
0.0
  0
LINE
  5
6AB5
  8
0
 10
376.7252109247268095
 20
140.9009481432919983
 30
0.0
 11
375.8591855209422761
 21
141.4009481432919983
 31
0.0
  0
LINE
  5
6AB6
  8
0
 10
375.8591855209422761
 20
141.4009481432919983
 30
0.0
 11
375.8591855209422761
 21
137.4509481432920097
 31
0.0
  0
LINE
  5
6AB7
  8
0
 10
375.8591855209422761
 20
137.4509481432920097
 30
0.0
 11
376.7252109247268095
 21
137.9509481432920097
 31
0.0
  0
ARC
  5
6ABA
  8
0
 10
376.1752109247267981
 20
166.1259481432921064
 30
0.0
 40
0.3000000000000007
 50
0.0
 51
90.0
  0
ARC
  5
6ABD
  8
0
 10
376.1752109247267981
 20
142.2259481432921007
 30
0.0
 40
0.2999999999999989
 50
270.0
 51
0.0
  0
LINE
  5
6ABE
  8
0
 10
361.9752109247268095
 20
166.1259481432921064
 30
0.0
 11
361.9752109247268095
 21
142.2259481432921007
 31
0.0
  0
LINE
  5
6ABF
  8
0
 10
376.4752109247268095
 20
142.2259481432921007
 30
0.0
 11
376.4752109247268095
 21
166.1259481432921064
 31
0.0
  0
LINE
  5
6AC0
  8
0
 10
391.7252109247268095
 20
167.4509481432920097
 30
0.0
 11
391.7252109247268095
 21
170.4009481432919983
 31
0.0
  0
LINE
  5
6AC1
  8
0
 10
391.7252109247268095
 20
140.9009481432919983
 30
0.0
 11
391.7252109247268095
 21
137.9509481432920097
 31
0.0
  0
LINE
  5
6B15
  8
0
 10
196.1752109247269971
 20
166.425948143292004
 30
0.0
 11
182.2752109247269061
 21
166.4259481432920893
 31
0.0
  0
ARC
  5
6B16
  8
0
 10
182.2752109247269061
 20
166.1259481432921064
 30
0.0
 40
0.3000000000000007
 50
90.0
 51
180.0
  0
LINE
  5
6B17
  8
0
 10
196.1752109247269971
 20
141.925948143292004
 30
0.0
 11
182.2752109247269061
 21
141.9259481432920893
 31
0.0
  0
ARC
  5
6B18
  8
0
 10
182.2752109247269061
 20
142.2259481432921007
 30
0.0
 40
0.2999999999999989
 50
180.0
 51
270.0
  0
LINE
  5
6B19
  8
0
 10
226.1752109247267981
 20
166.425948143292004
 30
0.0
 11
212.2752109247267072
 21
166.4259481432920893
 31
0.0
  0
ARC
  5
6B1A
  8
0
 10
212.2752109247267072
 20
166.1259481432921064
 30
0.0
 40
0.3000000000000007
 50
90.0
 51
180.0
  0
LINE
  5
6B1B
  8
0
 10
226.1752109247267981
 20
141.925948143292004
 30
0.0
 11
212.2752109247267072
 21
141.9259481432920893
 31
0.0
  0
ARC
  5
6B1C
  8
0
 10
212.2752109247267072
 20
142.2259481432921007
 30
0.0
 40
0.2999999999999989
 50
180.0
 51
270.0
  0
LINE
  5
6B1D
  8
0
 10
256.1752109247270255
 20
166.425948143292004
 30
0.0
 11
242.2752109247269061
 21
166.4259481432920893
 31
0.0
  0
ARC
  5
6B1E
  8
0
 10
242.2752109247269061
 20
166.1259481432921064
 30
0.0
 40
0.3000000000000007
 50
90.0
 51
180.0
  0
LINE
  5
6B1F
  8
0
 10
256.1752109247270255
 20
141.925948143292004
 30
0.0
 11
242.2752109247269061
 21
141.9259481432920893
 31
0.0
  0
ARC
  5
6B20
  8
0
 10
242.2752109247269061
 20
142.2259481432921007
 30
0.0
 40
0.2999999999999989
 50
180.0
 51
270.0
  0
LINE
  5
6B21
  8
0
 10
286.1752109247270255
 20
166.425948143292004
 30
0.0
 11
272.2752109247268777
 21
166.4259481432920893
 31
0.0
  0
ARC
  5
6B22
  8
0
 10
272.2752109247268777
 20
166.1259481432921064
 30
0.0
 40
0.3000000000000007
 50
90.0
 51
180.0
  0
LINE
  5
6B23
  8
0
 10
286.1752109247270255
 20
141.925948143292004
 30
0.0
 11
272.2752109247268777
 21
141.9259481432920893
 31
0.0
  0
ARC
  5
6B24
  8
0
 10
272.2752109247268777
 20
142.2259481432921007
 30
0.0
 40
0.2999999999999989
 50
180.0
 51
270.0
  0
LINE
  5
6B25
  8
0
 10
316.1752109247267981
 20
166.425948143292004
 30
0.0
 11
302.2752109247267072
 21
166.4259481432920893
 31
0.0
  0
ARC
  5
6B26
  8
0
 10
302.2752109247267072
 20
166.1259481432921064
 30
0.0
 40
0.3000000000000007
 50
90.0
 51
180.0
  0
LINE
  5
6B27
  8
0
 10
316.1752109247267981
 20
141.925948143292004
 30
0.0
 11
302.2752109247267072
 21
141.9259481432920893
 31
0.0
  0
ARC
  5
6B28
  8
0
 10
302.2752109247267072
 20
142.2259481432921007
 30
0.0
 40
0.2999999999999989
 50
180.0
 51
270.0
  0
LINE
  5
6B29
  8
0
 10
346.1752109247270255
 20
166.425948143292004
 30
0.0
 11
332.2752109247268777
 21
166.4259481432920893
 31
0.0
  0
ARC
  5
6B2A
  8
0
 10
332.2752109247268777
 20
166.1259481432921064
 30
0.0
 40
0.3000000000000007
 50
90.0
 51
180.0
  0
LINE
  5
6B2B
  8
0
 10
346.1752109247270255
 20
141.925948143292004
 30
0.0
 11
332.2752109247268777
 21
141.9259481432920893
 31
0.0
  0
ARC
  5
6B2C
  8
0
 10
332.2752109247268777
 20
142.2259481432921007
 30
0.0
 40
0.2999999999999989
 50
180.0
 51
270.0
  0
LINE
  5
6B2D
  8
0
 10
376.175210924727196
 20
166.425948143292004
 30
0.0
 11
362.2752109247269914
 21
166.4259481432920893
 31
0.0
  0
ARC
  5
6B2E
  8
0
 10
362.2752109247269914
 20
166.1259481432921064
 30
0.0
 40
0.3000000000000007
 50
90.0
 51
180.0
  0
LINE
  5
6B2F
  8
0
 10
376.175210924727196
 20
141.925948143292004
 30
0.0
 11
362.2752109247269914
 21
141.9259481432920893
 31
0.0
  0
ARC
  5
6B30
  8
0
 10
362.2752109247269914
 20
142.2259481432921007
 30
0.0
 40
0.2999999999999989
 50
180.0
 51
270.0
  0
ENDSEC
  0
EOF
