  0
SECTION
  2
HEADER
  9
$ACADVER
  1
AC1009
  9
$INSBASE
 10
0.0
 20
0.0
 30
0.0
  9
$EXTMIN
 10
0.0
 20
-2.960436562073669
 30
0.0
  9
$EXTMAX
 10
295.02990979765019
 20
251.2963253926039
 30
0.0
  9
$LIMMIN
 10
0.0
 20
0.0
  9
$LIMMAX
 10
375.0
 20
270.0
  9
$ORTHOMODE
 70
     1
  9
$REGENMODE
 70
     1
  9
$FILLMODE
 70
     1
  9
$QTEXTMODE
 70
     0
  9
$MIRRTEXT
 70
     0
  9
$DRAGMODE
 70
     2
  9
$LTSCALE
 40
5.0
  9
$OSMODE
 70
    55
  9
$ATTMODE
 70
     1
  9
$TEXTSIZE
 40
4.000000000000048
  9
$TRACEWID
 40
0.05
  9
$TEXTSTYLE
  7
STANDARD
  9
$CLAYER
  8
0
  9
$CELTYPE
  6
BYLAYER
  9
$CECOLOR
 62
   256
  9
$DIMSCALE
 40
1.0
  9
$DIMASZ
 40
3.0
  9
$DIMEXO
 40
2.0
  9
$DIMDLI
 40
0.38
  9
$DIMRND
 40
0.0
  9
$DIMDLE
 40
0.0
  9
$DIMEXE
 40
2.0
  9
$DIMTP
 40
0.0
  9
$DIMTM
 40
0.0
  9
$DIMTXT
 40
3.2000000000000002
  9
$DIMCEN
 40
0.0
  9
$DIMTSZ
 40
0.0
  9
$DIMTOL
 70
     0
  9
$DIMLIM
 70
     0
  9
$DIMTIH
 70
     0
  9
$DIMTOH
 70
     0
  9
$DIMSE1
 70
     0
  9
$DIMSE2
 70
     0
  9
$DIMTAD
 70
     1
  9
$DIMZIN
 70
     0
  9
$DIMBLK
  1

  9
$DIMASO
 70
     0
  9
$DIMSHO
 70
     0
  9
$DIMPOST
  1

  9
$DIMAPOST
  1

  9
$DIMALT
 70
     0
  9
$DIMALTD
 70
     2
  9
$DIMALTF
 40
25.399999999999999
  9
$DIMLFAC
 40
1.0
  9
$DIMTOFL
 70
     0
  9
$DIMTVP
 40
1.6000000000000001
  9
$DIMTIX
 70
     1
  9
$DIMSOXD
 70
     0
  9
$DIMSAH
 70
     0
  9
$DIMBLK1
  1

  9
$DIMBLK2
  1

  9
$DIMSTYLE
  2
STANDARD
  9
$DIMCLRD
 70
     4
  9
$DIMCLRE
 70
     4
  9
$DIMCLRT
 70
     4
  9
$DIMTFAC
 40
1.0
  9
$DIMGAP
 40
0.09
  9
$LUNITS
 70
     2
  9
$LUPREC
 70
     1
  9
$SKETCHINC
 40
0.1
  9
$FILLETRAD
 40
0.0
  9
$AUNITS
 70
     0
  9
$AUPREC
 70
     0
  9
$MENU
  1
E:\r13\win\SUPPORT\ACAD
  9
$ELEVATION
 40
0.0
  9
$PELEVATION
 40
0.0
  9
$THICKNESS
 40
0.0
  9
$LIMCHECK
 70
     0
  9
$BLIPMODE
 70
     0
  9
$CHAMFERA
 40
1.1999999999999991
  9
$CHAMFERB
 40
1.1999999999999991
  9
$SKPOLY
 70
     0
  9
$TDCREATE
 40
2450759.691691204
  9
$TDUPDATE
 40
2456598.6029011002
  9
$TDINDWG
 40
0.0002783333
  9
$TDUSRTIMER
 40
0.0002783333
  9
$USRTIMER
 70
     1
  9
$ANGBASE
 50
0.0
  9
$ANGDIR
 70
     0
  9
$PDMODE
 70
     0
  9
$PDSIZE
 40
0.0
  9
$PLINEWID
 40
0.0
  9
$COORDS
 70
     1
  9
$SPLFRAME
 70
     0
  9
$SPLINETYPE
 70
     6
  9
$SPLINESEGS
 70
     8
  9
$ATTDIA
 70
     0
  9
$ATTREQ
 70
     1
  9
$HANDLING
 70
     1
  9
$HANDSEED
  5
27C
  9
$SURFTAB1
 70
     6
  9
$SURFTAB2
 70
     6
  9
$SURFTYPE
 70
     6
  9
$SURFU
 70
     6
  9
$SURFV
 70
     6
  9
$UCSNAME
  2

  9
$UCSORG
 10
0.0
 20
0.0
 30
0.0
  9
$UCSXDIR
 10
1.0
 20
0.0
 30
0.0
  9
$UCSYDIR
 10
0.0
 20
1.0
 30
0.0
  9
$PUCSNAME
  2

  9
$PUCSORG
 10
0.0
 20
0.0
 30
0.0
  9
$PUCSXDIR
 10
1.0
 20
0.0
 30
0.0
  9
$PUCSYDIR
 10
0.0
 20
1.0
 30
0.0
  9
$USERI1
 70
     0
  9
$USERI2
 70
     1
  9
$USERI3
 70
     0
  9
$USERI4
 70
     0
  9
$USERI5
 70
     0
  9
$USERR1
 40
0.0
  9
$USERR2
 40
0.0
  9
$USERR3
 40
0.0
  9
$USERR4
 40
0.0
  9
$USERR5
 40
0.0
  9
$WORLDVIEW
 70
     1
  9
$SHADEDGE
 70
     3
  9
$SHADEDIF
 70
    70
  9
$TILEMODE
 70
     1
  9
$MAXACTVP
 70
    16
  9
$PLIMCHECK
 70
     0
  9
$PEXTMIN
 10
1.0000000000000000E+020
 20
1.0000000000000000E+020
 30
1.0000000000000000E+020
  9
$PEXTMAX
 10
-1.0000000000000000E+020
 20
-1.0000000000000000E+020
 30
-1.0000000000000000E+020
  9
$PLIMMIN
 10
0.0
 20
0.0
  9
$PLIMMAX
 10
12.0
 20
9.0
  9
$UNITMODE
 70
     0
  9
$VISRETAIN
 70
     0
  9
$PLINEGEN
 70
     0
  9
$PSLTSCALE
 70
     0
  0
ENDSEC
  0
SECTION
  2
TABLES
  0
TABLE
  2
VPORT
 70
     1
  0
VPORT
  2
*ACTIVE
 70
     0
 10
0.0
 20
0.0
 11
1.0
 21
1.0
 12
187.49427839065231
 22
194.785247995265
 13
0.0
 23
0.0
 14
10.0
 24
10.0
 15
10.0
 25
10.0
 16
0.0
 26
0.0
 36
1.0
 17
0.0
 27
0.0
 37
0.0
 40
399.3463374158577
 41
1.7807262569832401
 42
50.0
 43
0.0
 44
0.0
 50
0.0
 51
0.0
 71
     0
 72
   500
 73
     1
 74
     0
 75
     0
 76
     0
 77
     0
 78
     2
  0
ENDTAB
  0
TABLE
  2
LTYPE
 70
     3
  0
LTYPE
  2
CONTINUOUS
 70
     0
  3
Solid Line
 72
    65
 73
     0
 40
0.0
  0
LTYPE
  2
CENTER
 70
     0
  3
____ _ ____ _ ____ _ ____ _ ____ _ ____ _ ____
 72
    65
 73
     4
 40
2.0
 49
1.25
 49
-0.25
 49
0.25
 49
-0.25
  0
LTYPE
  2
PHANTOM2
 70
     0
  3
___ _ _ ___ _ _ ___ _ _ ___ _ _
 72
    65
 73
     6
 40
1.25
 49
0.625
 49
-0.125
 49
0.125
 49
-0.125
 49
0.125
 49
-0.125
  0
ENDTAB
  0
TABLE
  2
LAYER
 70
     1
  0
LAYER
  2
0
 70
     0
 62
     7
  6
CONTINUOUS
  0
ENDTAB
  0
TABLE
  2
STYLE
 70
     2
  0
STYLE
  2
STANDARD
 70
     0
 40
0.0
 41
1.0
 50
0.0
 71
     0
 42
4.000000000000048
  3
SIMPLEX
  4
BIGFONT
  0
STYLE
  2
STANDARD1
 70
     0
 40
0.0
 41
1.0
 50
0.0
 71
     0
 42
3.0
  3
txt
  4

  0
ENDTAB
  0
TABLE
  2
VIEW
 70
     1
  0
VIEW
  2
ALL
 70
     0
 40
270.0
 10
220.78595317725751
 20
135.0
 41
441.57190635451502
 11
0.0
 21
0.0
 31
1.0
 12
0.0
 22
0.0
 32
0.0
 42
50.0
 43
0.0
 44
0.0
 50
0.0
 71
     0
  0
ENDTAB
  0
TABLE
  2
UCS
 70
     0
  0
ENDTAB
  0
TABLE
  2
APPID
 70
     3
  0
APPID
  2
ACAD
 70
     0
  0
APPID
  2
ACAD_MLEADERVER
 70
     0
  0
APPID
  2
ACAD_NAV_VCDISPLAY
 70
     0
  0
ENDTAB
  0
TABLE
  2
DIMSTYLE
 70
     1
  0
DIMSTYLE
  2
STANDARD
 70
     0
  3

  4

  5

  6

  7

 40
1.0
 41
0.18
 42
0.0625
 43
0.38
 44
0.18
 45
0.0
 46
0.0
 47
0.0
 48
0.0
140
0.18
141
0.09
142
0.0
143
25.399999999999999
144
1.0
145
0.0
146
1.0
147
0.09
 71
     0
 72
     0
 73
     1
 74
     1
 75
     0
 76
     0
 77
     0
 78
     0
170
     0
171
     2
172
     0
173
     0
174
     0
175
     0
176
     0
177
     0
178
     0
  0
ENDTAB
  0
ENDSEC
  0
SECTION
  2
BLOCKS
  0
BLOCK
  8
0
  2
$MODEL_SPACE
 70
     0
 10
0.0
 20
0.0
 30
0.0
  3
$MODEL_SPACE
  1

  0
ENDBLK
  5
13D
  8
0
  0
BLOCK
 67
     1
  8
0
  2
$PAPER_SPACE
 70
     0
 10
0.0
 20
0.0
 30
0.0
  3
$PAPER_SPACE
  1

  0
ENDBLK
  5
13B
 67
     1
  8
0
  0
BLOCK
  8
0
  2
STDGX5
 70
     0
 10
0.0
 20
0.0
 30
0.0
  3
STDGX5
  1

  0
ENDBLK
  5
30
  8
0
  0
ENDSEC
  0
SECTION
  2
ENTITIES
  0
LINE
  5
3F
  8
0
  6
CONTINUOUS
 62
     7
 10
240.02990979765019
 20
173.92498623640341
 30
0.0
 11
290.02990979765019
 21
173.92498623640341
 31
0.0
  0
LINE
  5
40
  8
0
  6
CONTINUOUS
 62
     7
 10
290.02990979765019
 20
173.92498623640341
 30
0.0
 11
290.02990979765019
 21
106.2274732364035
 31
0.0
  0
LINE
  5
41
  8
0
  6
CONTINUOUS
 62
     7
 10
240.02990979765019
 20
106.2274732364035
 30
0.0
 11
290.02990979765019
 21
106.2274732364035
 31
0.0
  0
LINE
  5
42
  8
0
  6
CONTINUOUS
 62
     7
 10
240.02990979765019
 20
173.92498623640341
 30
0.0
 11
240.02990979765019
 21
106.2274732364035
 31
0.0
  0
LINE
  5
43
  8
0
  6
CONTINUOUS
 62
     7
 10
79.913959598531591
 20
154.17213523640339
 30
0.0
 11
129.91395959853159
 21
154.17213523640339
 31
0.0
  0
LINE
  5
44
  8
0
  6
CONTINUOUS
 62
     7
 10
79.913959598531591
 20
159.76654523640349
 30
0.0
 11
129.91395959853159
 21
159.76654523640349
 31
0.0
  0
LINE
  5
45
  8
0
  6
CONTINUOUS
 62
     7
 10
79.913959598531591
 20
173.92498623640341
 30
0.0
 11
79.913959598531591
 21
106.2274732364035
 31
0.0
  0
LINE
  5
46
  8
0
  6
CONTINUOUS
 62
     7
 10
79.913959598531591
 20
106.2274732364035
 30
0.0
 11
129.91395959853159
 21
106.2274732364035
 31
0.0
  0
LINE
  5
47
  8
0
  6
CONTINUOUS
 62
     7
 10
129.91395959853159
 20
173.92498623640341
 30
0.0
 11
129.91395959853159
 21
106.2274732364035
 31
0.0
  0
LINE
  5
48
  8
0
  6
CONTINUOUS
 62
     7
 10
79.913959598531591
 20
173.92498623640341
 30
0.0
 11
129.91395959853159
 21
173.92498623640341
 31
0.0
  0
LINE
  5
49
  8
0
  6
CONTINUOUS
 62
     7
 10
196.48558516813941
 20
30.99237316187298
 30
0.0
 11
196.48558516813941
 21
80.992373161872976
 31
0.0
  0
LINE
  5
4A
  8
0
  6
CONTINUOUS
 62
     7
 10
188.48558516813941
 20
30.99237316187298
 30
0.0
 11
188.48558516813941
 21
80.992373161872976
 31
0.0
  0
LINE
  5
4B
  8
0
  6
CONTINUOUS
 62
     7
 10
153.8753011681394
 20
80.992373161872976
 30
0.0
 11
212.37455216813939
 21
80.992373161872976
 31
0.0
  0
LINE
  5
4C
  8
0
  6
CONTINUOUS
 62
     7
 10
212.37455216813939
 20
80.992373161872976
 30
0.0
 11
212.37455216813939
 21
30.99237316187298
 31
0.0
  0
LINE
  5
4D
  8
0
  6
CONTINUOUS
 62
     7
 10
153.8753011681394
 20
30.99237316187298
 30
0.0
 11
212.37455216813939
 21
30.99237316187298
 31
0.0
  0
LINE
  5
4E
  8
0
  6
CONTINUOUS
 62
     7
 10
153.8753011681394
 20
80.992373161872976
 30
0.0
 11
153.8753011681394
 21
30.99237316187298
 31
0.0
  0
LINE
  5
4F
  8
0
  6
CONTINUOUS
 62
     7
 10
153.8753011681394
 20
246.2963253926039
 30
0.0
 11
153.8753011681394
 21
196.2963253926039
 31
0.0
  0
LINE
  5
50
  8
0
  6
CONTINUOUS
 62
     7
 10
165.0360901681394
 20
246.2963253926039
 30
0.0
 11
165.0360901681394
 21
196.2963253926039
 31
0.0
  0
LINE
  5
51
  8
0
  6
CONTINUOUS
 62
     7
 10
153.8753011681394
 20
196.2963253926039
 30
0.0
 11
212.37455216813939
 21
196.2963253926039
 31
0.0
  0
LINE
  5
52
  8
0
  6
CONTINUOUS
 62
     7
 10
212.37455216813939
 20
246.2963253926039
 30
0.0
 11
212.37455216813939
 21
196.2963253926039
 31
0.0
  0
LINE
  5
53
  8
0
  6
CONTINUOUS
 62
     7
 10
153.8753011681394
 20
246.2963253926039
 30
0.0
 11
212.37455216813939
 21
246.2963253926039
 31
0.0
  0
CIRCLE
  5
54
  8
0
  6
CONTINUOUS
 62
     7
 10
184.4618801681394
 20
136.20659823640349
 30
0.0
 40
3.399999999999999
  0
ARC
  5
55
  8
0
  6
CONTINUOUS
 62
     7
 10
166.55086124015509
 20
162.18041447883849
 30
0.0
 40
1.499999654444363
 50
149.9901668753576
 51
240.00003330937079
  0
LINE
  5
56
  8
0
  6
CONTINUOUS
 62
     7
 10
165.8008611657329
 20
160.8813768151434
 30
0.0
 11
167.53144516813941
 21
159.88222323640349
 31
0.0
  0
ARC
  5
57
  8
0
  6
CONTINUOUS
 62
     7
 10
168.03144494158829
 20
160.7482477158801
 30
0.0
 40
0.9999990862504393
 50
239.9999847618906
 51
330.00007037046532
  0
LINE
  5
58
  8
0
  6
CONTINUOUS
 62
     7
 10
168.89747016813939
 20
160.2482492364035
 30
0.0
 11
170.83517616813941
 21
163.60445323640349
 31
0.0
  0
ARC
  5
59
  8
0
  6
CONTINUOUS
 62
     7
 10
171.80909781217639
 20
163.04216164888049
 30
0.0
 40
1.1245866787948531
 50
23.431444698899551
 51
150.00010306277269
  0
ARC
  5
5A
  8
0
  6
CONTINUOUS
 62
     7
 10
149.902700353726
 20
153.54810334888131
 30
0.0
 40
24.999833119645249
 50
6.641872391540705
 51
23.431521067203111
  0
ARC
  5
5B
  8
0
  6
CONTINUOUS
 62
     7
 10
170.7615957184947
 20
155.97700483422
 30
0.0
 40
3.9999979235363079
 50
329.99998947983818
 51
6.641934286019195
  0
LINE
  5
5C
  8
0
  6
CONTINUOUS
 62
     7
 10
174.2256951681394
 20
153.9770052364035
 30
0.0
 11
171.99263916813939
 21
150.10923823640351
 31
0.0
  0
ARC
  5
5D
  8
0
  6
CONTINUOUS
 62
     7
 10
168.5285387578495
 20
152.1092370623077
 30
0.0
 40
3.9999983695232708
 50
293.35806112927429
 51
330.00000593545531
  0
ARC
  5
5E
  8
0
  6
CONTINUOUS
 62
     7
 10
160.2025817004841
 20
171.3880202797892
 30
0.0
 40
24.999832732384441
 50
276.56847843624371
 51
293.35812711190692
  0
ARC
  5
5F
  8
0
  6
CONTINUOUS
 62
     7
 10
162.93368473387309
 20
147.669494891759
 30
0.0
 40
1.124586757492664
 50
149.99988434609341
 51
276.56854270996672
  0
LINE
  5
60
  8
0
  6
CONTINUOUS
 62
     7
 10
161.9597651681394
 20
148.2317902364035
 30
0.0
 11
163.89747016813939
 21
151.58799523640349
 31
0.0
  0
ARC
  5
61
  8
0
  6
CONTINUOUS
 62
     7
 10
163.03144618866281
 20
152.08799550985171
 30
0.0
 40
0.9999989032377976
 50
329.99994562813509
 51
60.000031236709908
  0
LINE
  5
62
  8
0
  6
CONTINUOUS
 62
     7
 10
163.53144516813941
 20
152.95402023640349
 30
0.0
 11
161.79922672192441
 21
153.95411691667559
 31
0.0
  0
ARC
  5
63
  8
0
  6
CONTINUOUS
 62
     7
 10
161.0492265442455
 20
152.6550783656362
 30
0.0
 40
1.5000004745349931
 50
60.000027053633538
 51
149.990135864005
  0
LINE
  5
64
  8
0
  6
CONTINUOUS
 62
     7
 10
159.7503168444849
 20
153.4053016760397
 30
0.0
 11
154.44577316813931
 21
144.22120523640351
 31
0.0
  0
ARC
  5
65
  8
0
  6
CONTINUOUS
 62
     7
 10
157.87110896700551
 20
142.15551749170979
 30
0.0
 40
3.99999889919633
 50
148.907443867322
 51
234.78769056602559
  0
ARC
  5
66
  8
0
  6
CONTINUOUS
 62
     7
 10
132.5004300618271
 20
106.2066412602133
 30
0.0
 40
39.999922128200772
 50
5.2122721894090862
 51
54.787727958474292
  0
ARC
  5
67
  8
0
  6
CONTINUOUS
 62
     7
 10
176.31839262217829
 20
110.2038515344349
 30
0.0
 40
3.9999816548384111
 50
185.2122925820768
 51
207.47044092675461
  0
ARC
  5
68
  8
0
  6
CONTINUOUS
 62
     7
 10
176.31841217068779
 20
110.203856238998
 30
0.0
 40
4.0000011694077733
 50
207.4703715497256
 51
271.09252447683662
  0
LINE
  5
69
  8
0
  6
CONTINUOUS
 62
     7
 10
176.2435174990724
 20
106.2045562823271
 30
0.0
 11
187.00061416813941
 21
106.2064032364035
 31
0.0
  0
ARC
  5
6A
  8
0
  6
CONTINUOUS
 62
     7
 10
187.00035568159271
 20
107.70640370067839
 30
0.0
 40
1.5000004865467189
 50
270.0098734556363
 51
359.99998226600849
  0
LINE
  5
6B
  8
0
  6
CONTINUOUS
 62
     7
 10
188.5003561681394
 20
107.7064032364035
 30
0.0
 11
188.5003561681394
 21
109.70659823640349
 31
0.0
  0
ARC
  5
6C
  8
0
  6
CONTINUOUS
 62
     7
 10
187.50035691521461
 20
109.7065989834786
 30
0.0
 40
0.9999992529251022
 50
359.99995719571342
 51
90.000042804286593
  0
LINE
  5
6D
  8
0
  6
CONTINUOUS
 62
     7
 10
187.5003561681394
 20
110.70659823640349
 30
0.0
 11
183.62494516813939
 21
110.70659823640349
 31
0.0
  0
ARC
  5
6E
  8
0
  6
CONTINUOUS
 62
     7
 10
183.62494308983611
 20
111.8311851685709
 30
0.0
 40
1.124586932169366
 50
143.4314475221226
 51
270.00010588599531
  0
ARC
  5
6F
  8
0
  6
CONTINUOUS
 62
     7
 10
202.80023412678639
 20
97.606717580539964
 30
0.0
 40
24.999830690394131
 50
126.6418678618336
 51
143.4315165374968
  0
ARC
  5
70
  8
0
  6
CONTINUOUS
 62
     7
 10
190.26730071750021
 20
114.4565993126827
 30
0.0
 40
3.9999989237208431
 50
90.000007869016812
 51
126.6419526751979
  0
LINE
  5
71
  8
0
  6
CONTINUOUS
 62
     7
 10
190.26730016813929
 20
118.45659823640349
 30
0.0
 11
194.7334121681393
 21
118.45659823640349
 31
0.0
  0
ARC
  5
72
  8
0
  6
CONTINUOUS
 62
     7
 10
194.7334116187786
 20
114.4565993126825
 30
0.0
 40
3.9999989237210172
 50
53.358047324802868
 51
89.999992130983983
  0
ARC
  5
73
  8
0
  6
CONTINUOUS
 62
     7
 10
182.20047820949239
 20
97.606717580540163
 30
0.0
 40
24.999830690393999
 50
36.568483462502883
 51
53.35813213816607
  0
ARC
  5
74
  8
0
  6
CONTINUOUS
 62
     7
 10
201.3757692464427
 20
111.8311851685709
 30
0.0
 40
1.124586932169366
 50
269.99989411400611
 51
36.568552477878811
  0
LINE
  5
75
  8
0
  6
CONTINUOUS
 62
     7
 10
201.37576716813939
 20
110.70659823640349
 30
0.0
 11
197.5003561681394
 21
110.70659823640349
 31
0.0
  0
ARC
  5
76
  8
0
  6
CONTINUOUS
 62
     7
 10
197.5003554210642
 20
109.7065989834786
 30
0.0
 40
0.9999992529251022
 50
89.999957195713407
 51
180.00004280428661
  0
LINE
  5
77
  8
0
  6
CONTINUOUS
 62
     7
 10
196.5003561681394
 20
109.70659823640349
 30
0.0
 11
196.5003561681394
 21
107.70829223640349
 31
0.0
  0
ARC
  5
78
  8
0
  6
CONTINUOUS
 62
     7
 10
198.00035602793889
 20
107.7082920739909
 30
0.0
 40
1.4999998597995809
 50
179.99999379629699
 51
270.00986023030953
  0
LINE
  5
79
  8
0
  6
CONTINUOUS
 62
     7
 10
198.00061416813941
 20
106.20829223640349
 30
0.0
 11
208.31860616813941
 21
106.2100642364035
 31
0.0
  0
ARC
  5
7A
  8
0
  6
CONTINUOUS
 62
     7
 10
208.39487334269151
 20
110.2093393784014
 30
0.0
 40
4.0000022929139734
 50
268.90748761936959
 51
3.0189898363285219
  0
ARC
  5
7B
  8
0
  6
CONTINUOUS
 62
     7
 10
132.5003180017803
 20
106.20657537937279
 30
0.0
 40
80.000039464130325
 50
3.0190436499546438
 51
56.980953866875481
  0
ARC
  5
7C
  8
0
  6
CONTINUOUS
 62
     7
 10
173.9140905062892
 20
169.93180643379119
 30
0.0
 40
4.0000024510207908
 50
56.981002541563292
 51
151.0925047585221
  0
LINE
  5
7D
  8
0
  6
CONTINUOUS
 62
     7
 10
170.48945951004069
 20
171.99866930967499
 30
0.0
 11
165.25195225284111
 21
162.9306373830529
 31
0.0
  0
LINE
  5
7E
  8
0
  6
CONTINUOUS
 62
     7
 10
174.3232691681394
 20
146.14600723640339
 30
0.0
 11
179.44553016813941
 21
143.18866823640349
 31
0.0
  0
ARC
  5
7F
  8
0
  6
CONTINUOUS
 62
     7
 10
179.94553044158829
 20
144.0546932158793
 30
0.0
 40
0.9999997692625651
 50
239.9999742760221
 51
330.00005988459611
  0
LINE
  5
80
  8
0
  6
CONTINUOUS
 62
     7
 10
180.81155616813939
 20
143.55469423640349
 30
0.0
 11
183.65688716813941
 21
148.48295123640349
 31
0.0
  0
ARC
  5
81
  8
0
  6
CONTINUOUS
 62
     7
 10
187.1209899120347
 20
146.48294928133851
 30
0.0
 40
4.0000019550653061
 50
90.000024979447886
 51
149.99998383175279
  0
LINE
  5
82
  8
0
  6
CONTINUOUS
 62
     7
 10
187.12098816813941
 20
150.48295123640349
 30
0.0
 11
193.5417501681394
 21
150.48295123640349
 31
0.0
  0
ARC
  5
83
  8
0
  6
CONTINUOUS
 62
     7
 10
193.54175060878691
 20
151.48295121276999
 30
0.0
 40
0.9999999763665929
 50
269.99997475275512
 51
36.565477043141009
  0
ARC
  5
84
  8
0
  6
CONTINUOUS
 62
     7
 10
132.5001129146379
 20
106.20633846537029
 30
0.0
 40
77.000349937808139
 50
36.565556156656072
 51
56.984513761821383
  0
ARC
  5
85
  8
0
  6
CONTINUOUS
 62
     7
 10
173.9100973145118
 20
169.934405201099
 30
0.0
 40
0.9999992947271373
 50
56.984545056328287
 51
150.00004049352469
  0
LINE
  5
86
  8
0
  6
CONTINUOUS
 62
     7
 10
173.04407216813939
 20
170.43440423640351
 30
0.0
 11
172.0966871681394
 21
168.79348523640351
 31
0.0
  0
ARC
  5
87
  8
0
  6
CONTINUOUS
 62
     7
 10
172.96271114761601
 20
168.2934849629552
 30
0.0
 40
0.9999989032377976
 50
149.99994562813509
 51
240.0000312367099
  0
LINE
  5
88
  8
0
  6
CONTINUOUS
 62
     7
 10
172.4627121681394
 20
167.42746023640339
 30
0.0
 11
173.87139116813941
 21
166.61415823640351
 31
0.0
  0
ARC
  5
89
  8
0
  6
CONTINUOUS
 62
     7
 10
171.80909170542449
 20
163.0421536739363
 30
0.0
 40
4.1245964248881881
 50
23.431529156362881
 51
59.999979945368779
  0
ARC
  5
8A
  8
0
  6
CONTINUOUS
 62
     7
 10
149.90239179660591
 20
153.5480212943408
 30
0.0
 40
28.000149832838389
 50
6.6410857657381008
 51
23.431418307239721
  0
ARC
  5
8B
  8
0
  6
CONTINUOUS
 62
     7
 10
170.76159227198849
 20
155.9770056500665
 30
0.0
 40
7.0000019992095499
 50
330.0000055379399
 51
6.6383763427009139
  0
LINE
  5
8C
  8
0
  6
CONTINUOUS
 62
     7
 10
176.82377216813941
 20
152.4770052364035
 30
0.0
 11
173.9572431681394
 21
147.51203323640351
 31
0.0
  0
ARC
  5
8D
  8
0
  6
CONTINUOUS
 62
     7
 10
174.82326814761521
 20
147.01203296295449
 30
0.0
 40
0.9999997692625793
 50
149.99997427602059
 51
240.00005988459469
  0
ARC
  5
8E
  8
0
  6
CONTINUOUS
 62
     7
 10
160.20248322206109
 20
171.38841354145029
 30
0.0
 40
28.00023449349144
 50
276.56859306008369
 51
289.58821306375739
  0
ARC
  5
8F
  8
0
  6
CONTINUOUS
 62
     7
 10
162.93368681956809
 20
147.66950538358071
 30
0.0
 40
4.1245967576706644
 50
240.0000437482106
 51
276.56849453721571
  0
LINE
  5
90
  8
0
  6
CONTINUOUS
 62
     7
 10
160.87139116813941
 20
144.09749823640351
 30
0.0
 11
159.4627121681394
 21
144.91079923640351
 31
0.0
  0
ARC
  5
91
  8
0
  6
CONTINUOUS
 62
     7
 10
158.96271189469121
 20
144.0447752569269
 30
0.0
 40
0.9999989032377834
 50
59.999945628136501
 51
150.00003123671129
  0
LINE
  5
92
  8
0
  6
CONTINUOUS
 62
     7
 10
158.0966871681394
 20
144.5447742364035
 30
0.0
 11
157.0056811681394
 21
142.65509623640349
 31
0.0
  0
ARC
  5
93
  8
0
  6
CONTINUOUS
 62
     7
 10
157.87170600802961
 20
142.15509640959499
 30
0.0
 40
0.9999994250575616
 50
149.99999243931151
 51
234.78675694999711
  0
ARC
  5
94
  8
0
  6
CONTINUOUS
 62
     7
 10
132.50048450608861
 20
106.2067219685996
 30
0.0
 40
42.999824500164721
 50
33.257152074416432
 51
54.786770831965171
  0
ARC
  5
95
  8
0
  6
CONTINUOUS
 62
     7
 10
169.29391689393231
 20
130.33612261617
 30
0.0
 40
1.0000009823287961
 50
213.25723597530671
 51
299.99998564623257
  0
LINE
  5
96
  8
0
  6
CONTINUOUS
 62
     7
 10
169.79391716813939
 20
129.47009623640349
 30
0.0
 11
178.14232016813941
 21
134.29004923640349
 31
0.0
  0
ARC
  5
97
  8
0
  6
CONTINUOUS
 62
     7
 10
177.6423211984667
 20
135.15607407168119
 30
0.0
 40
0.9999989924952574
 50
299.99996516205442
 51
8.7573583758868434
  0
ARC
  5
98
  8
0
  6
CONTINUOUS
 62
     7
 10
184.46187049441909
 20
136.20659895137089
 30
0.0
 40
5.8999905091469254
 50
153.83520300576299
 51
188.75735133156729
  0
ARC
  5
99
  8
0
  6
CONTINUOUS
 62
     7
 10
178.26892506974281
 20
139.2491797357749
 30
0.0
 40
1.000000133067853
 50
333.8352697639786
 51
59.999997891981643
  0
LINE
  5
9A
  8
0
  6
CONTINUOUS
 62
     7
 10
178.76892516813939
 20
140.11520523640351
 30
0.0
 11
170.4250371681394
 21
144.9325512364035
 31
0.0
  0
ARC
  5
9B
  8
0
  6
CONTINUOUS
 62
     7
 10
169.92503736158201
 20
144.06652852917199
 30
0.0
 40
0.9999975679960378
 50
59.999932347827539
 51
109.58828890036609
  0
LINE
  5
9C
  8
0
  6
CONTINUOUS
 62
     7
 10
184.28566616813939
 20
143.57203023640349
 30
0.0
 11
186.2549631681394
 21
146.98295123640349
 31
0.0
  0
ARC
  5
9D
  8
0
  6
CONTINUOUS
 62
     7
 10
187.12098872911321
 20
146.48295096414381
 30
0.0
 40
1.000000272259842
 50
90.000032141424171
 51
149.99999099372951
  0
LINE
  5
9E
  8
0
  6
CONTINUOUS
 62
     7
 10
187.12098816813941
 20
147.48295123640349
 30
0.0
 11
196.9504561681394
 21
147.48295123640349
 31
0.0
  0
ARC
  5
9F
  8
0
  6
CONTINUOUS
 62
     7
 10
196.950455307483
 20
146.482950837771
 30
0.0
 40
1.0000003986328361
 50
32.002224378579371
 51
89.999950688038723
  0
ARC
  5
A0
  8
0
  6
CONTINUOUS
 62
     7
 10
132.498896205481
 20
106.20574693504319
 30
0.0
 40
77.001688701595569
 50
27.997836038880429
 51
32.002174314454962
  0
ARC
  5
A1
  8
0
  6
CONTINUOUS
 62
     7
 10
199.60575002366471
 20
141.88384423593871
 30
0.0
 40
1.0000015072499659
 50
330.00004989008568
 51
27.997776199545861
  0
LINE
  5
A2
  8
0
  6
CONTINUOUS
 62
     7
 10
200.4717771681394
 20
141.38384423640349
 30
0.0
 11
195.55704316813939
 21
132.8712762364035
 31
0.0
  0
ARC
  5
A3
  8
0
  6
CONTINUOUS
 62
     7
 10
194.69101710716561
 20
133.3712773746893
 30
0.0
 40
1.000001138285818
 50
270.00000349353928
 51
329.99996234584353
  0
LINE
  5
A4
  8
0
  6
CONTINUOUS
 62
     7
 10
194.69101716813941
 20
132.3712762364035
 30
0.0
 11
190.75242516813941
 21
132.3712762364035
 31
0.0
  0
ARC
  5
A5
  8
0
  6
CONTINUOUS
 62
     7
 10
190.75242531470579
 20
133.37127619572999
 30
0.0
 40
0.9999999593265551
 50
155.73760690700951
 51
269.9999916023616
  0
ARC
  5
A6
  8
0
  6
CONTINUOUS
 62
     7
 10
184.4618783429512
 20
136.20659663265451
 30
0.0
 40
5.900001720665534
 50
335.73761808501217
 51
84.262384757171148
  0
ARC
  5
A7
  8
0
  6
CONTINUOUS
 62
     7
 10
185.1516918178055
 20
143.07203050232451
 30
0.0
 40
1.000000079979392
 50
150.00002023888351
 51
264.26240493423791
  0
LINE
  5
A8
  8
0
  6
CONTINUOUS
 62
     7
 10
189.0003561681394
 20
129.3712762364035
 30
0.0
 11
194.69101716813941
 21
129.3712762364035
 31
0.0
  0
ARC
  5
A9
  8
0
  6
CONTINUOUS
 62
     7
 10
194.69101592424411
 20
133.37127905749449
 30
0.0
 40
4.0000028210912664
 50
270.00001781747511
 51
329.99997666977981
  0
LINE
  5
AA
  8
0
  6
CONTINUOUS
 62
     7
 10
198.15511916813941
 20
131.3712762364035
 30
0.0
 11
201.36550016813939
 21
136.9318192364035
 31
0.0
  0
ARC
  5
AB
  8
0
  6
CONTINUOUS
 62
     7
 10
202.2315256014451
 20
136.43181897250381
 30
0.0
 40
1.0000001575160631
 50
23.43448546074017
 51
149.99998775112741
  0
ARC
  5
AC
  8
0
  6
CONTINUOUS
 62
     7
 10
132.5000126481408
 20
106.2065185376711
 30
0.0
 40
77.000346769440796
 50
3.0154851096389592
 51
23.434442714803481
  0
ARC
  5
AD
  8
0
  6
CONTINUOUS
 62
     7
 10
208.39512648468309
 20
110.2045815581051
 30
0.0
 40
0.9999993217016324
 50
269.99998186336688
 51
3.0154773005644451
  0
LINE
  5
AE
  8
0
  6
CONTINUOUS
 62
     7
 10
208.3951261681394
 20
109.2045822364035
 30
0.0
 11
206.5003561681394
 21
109.2045822364035
 31
0.0
  0
ARC
  5
AF
  8
0
  6
CONTINUOUS
 62
     7
 10
206.5003554210642
 20
110.20458148932831
 30
0.0
 40
0.9999992529251022
 50
179.99995719571339
 51
270.00004280428658
  0
LINE
  5
B0
  8
0
  6
CONTINUOUS
 62
     7
 10
205.5003561681394
 20
110.2045822364035
 30
0.0
 11
205.5003561681394
 21
111.8311852364035
 31
0.0
  0
ARC
  5
B1
  8
0
  6
CONTINUOUS
 62
     7
 10
201.37576055399569
 20
111.8311811384356
 30
0.0
 40
4.1245956141456928
 50
0.0000569258867857
 51
36.568507714891837
  0
ARC
  5
B2
  8
0
  6
CONTINUOUS
 62
     7
 10
182.20024785495789
 20
97.606493208153964
 30
0.0
 40
28.00014867548224
 50
36.568576149317011
 51
53.358908690819391
  0
ARC
  5
B3
  8
0
  6
CONTINUOUS
 62
     7
 10
194.73341125290619
 20
114.4565957534051
 30
0.0
 40
7.0000024829984611
 50
53.361621703955862
 51
89.999992508716858
  0
LINE
  5
B4
  8
0
  6
CONTINUOUS
 62
     7
 10
194.7334121681393
 20
121.45659823640349
 30
0.0
 11
189.0003561681394
 21
121.45659823640349
 31
0.0
  0
ARC
  5
B5
  8
0
  6
CONTINUOUS
 62
     7
 10
189.0003554210642
 20
122.4565974893283
 30
0.0
 40
0.9999992529251022
 50
179.99995719571339
 51
270.00004280428658
  0
LINE
  5
B6
  8
0
  6
CONTINUOUS
 62
     7
 10
188.0003561681394
 20
122.45659823640349
 30
0.0
 11
188.0003561681394
 21
128.3712762364035
 31
0.0
  0
ARC
  5
B7
  8
0
  6
CONTINUOUS
 62
     7
 10
189.0003554210642
 20
128.37127698347859
 30
0.0
 40
0.9999992529251022
 50
89.999957195713407
 51
180.00004280428661
  0
LINE
  5
B8
  8
0
  6
CONTINUOUS
 62
     7
 10
185.0003561681394
 20
129.3220502364035
 30
0.0
 11
185.0003561681394
 21
119.6873582364035
 31
0.0
  0
ARC
  5
B9
  8
0
  6
CONTINUOUS
 62
     7
 10
184.00035855931901
 20
119.6873575611574
 30
0.0
 40
0.9999976088205649
 50
310.41168213630658
 51
0.0000386888449336
  0
ARC
  5
BA
  8
0
  6
CONTINUOUS
 62
     7
 10
202.80052972146621
 20
97.606439359883368
 30
0.0
 40
28.00023315470078
 50
130.41179488670241
 51
143.43141489037609
  0
ARC
  5
BB
  8
0
  6
CONTINUOUS
 62
     7
 10
183.62495178228309
 20
111.8311811384355
 30
0.0
 40
4.1245956141457176
 50
143.43149228510691
 51
179.999943074112
  0
LINE
  5
BC
  8
0
  6
CONTINUOUS
 62
     7
 10
179.5003561681394
 20
111.8311852364035
 30
0.0
 11
179.5003561681394
 21
110.2045822364035
 31
0.0
  0
ARC
  5
BD
  8
0
  6
CONTINUOUS
 62
     7
 10
178.5003569152145
 20
110.20458148932831
 30
0.0
 40
0.9999992529251022
 50
269.99995719571342
 51
0.0000428042865895
  0
LINE
  5
BE
  8
0
  6
CONTINUOUS
 62
     7
 10
178.5003561681394
 20
109.2045822364035
 30
0.0
 11
176.31834516813939
 21
109.2045822364035
 31
0.0
  0
ARC
  5
BF
  8
0
  6
CONTINUOUS
 62
     7
 10
176.31834468328179
 20
110.2045823604556
 30
0.0
 40
1.000000124052224
 50
185.21326326960329
 51
270.00002778028869
  0
ARC
  5
C0
  8
0
  6
CONTINUOUS
 62
     7
 10
132.50052588532651
 20
106.2066469481744
 30
0.0
 40
42.999826373006137
 50
5.2132287692217307
 51
26.742847526770479
  0
ARC
  5
C1
  8
0
  6
CONTINUOUS
 62
     7
 10
171.79391719821709
 20
126.0059936967004
 30
0.0
 40
1.000000132747846
 50
119.9999975986649
 51
206.7427472695893
  0
LINE
  5
C2
  8
0
  6
CONTINUOUS
 62
     7
 10
171.29391716813939
 20
126.8720192364035
 30
0.0
 11
179.64232016813941
 21
131.6919722364035
 31
0.0
  0
ARC
  5
C3
  8
0
  6
CONTINUOUS
 62
     7
 10
180.1423201251327
 20
130.8259479834775
 30
0.0
 40
0.9999989818241436
 50
51.24263762188864
 51
120.0000308357215
  0
ARC
  5
C4
  8
0
  6
CONTINUOUS
 62
     7
 10
184.4618768376676
 20
136.20658897647019
 30
0.0
 40
5.8999914303633307
 50
231.24264609126229
 51
266.16479441707531
  0
ARC
  5
C5
  8
0
  6
CONTINUOUS
 62
     7
 10
184.00035635261051
 20
129.3220499188964
 30
0.0
 40
0.9999998155289778
 50
0.0000181918186088
 51
86.164746319830286
  0
ARC
  5
C6
  8
0
  6
CENTER
 62
     1
 10
132.5004300618271
 20
106.2066412602133
 30
0.0
 40
59.99991429763908
 50
355.21871842189762
 51
64.779554601155709
  0
LINE
  5
C7
  8
0
  6
CENTER
 62
     1
 10
162.8112520605109
 20
123.7066017957181
 30
0.0
 11
206.11251154257539
 21
148.7065950383828
 31
0.0
  0
LINE
  5
C8
  8
0
  6
CONTINUOUS
 62
     7
 10
129.91395959853159
 20
161.6315055578709
 30
0.0
 11
79.913959598531591
 21
161.6315055578709
 31
0.0
  0
LINE
  5
C9
  8
0
  6
CONTINUOUS
 62
     7
 10
164.03144509190059
 20
196.2963253926039
 30
0.0
 11
164.03144509190059
 21
246.2963253926039
 31
0.0
  0
LINE
  5
CA
  8
0
  6
CONTINUOUS
 62
     7
 10
160.50041129551269
 20
196.2963253926039
 30
0.0
 11
160.50041129551269
 21
246.2963253926039
 31
0.0
  0
LINE
  5
CB
  8
0
  6
CONTINUOUS
 62
     7
 10
172.50398049655271
 20
196.2963253926039
 30
0.0
 11
172.50398049655271
 21
246.2963253926039
 31
0.0
  0
LINE
  5
CC
  8
0
  6
CONTINUOUS
 62
     7
 10
172.50035209702571
 20
80.992373161872976
 30
0.0
 11
172.50035209702571
 21
30.99237316187298
 31
0.0
  0
LINE
  5
CD
  8
0
  6
CENTER
 62
     1
 10
235.02990979765019
 20
136.20658897647019
 30
0.0
 11
295.02990979765019
 21
136.20658897647019
 31
0.0
  0
LINE
  5
CE
  8
0
  6
CENTER
 62
     1
 10
134.91395959853151
 20
136.20658897647019
 30
0.0
 11
74.913959598531591
 21
136.20658897647019
 31
0.0
  0
LINE
  5
CF
  8
0
  6
CENTER
 62
     1
 10
184.46187049441909
 20
191.2963253926039
 30
0.0
 11
184.46187049441909
 21
251.2963253926039
 31
0.0
  0
LINE
  5
D0
  8
0
  6
CENTER
 62
     1
 10
184.46187049441909
 20
85.992373161872976
 30
0.0
 11
184.46187049441909
 21
25.99237316187298
 31
0.0
  0
INSERT
  5
D1
  8
0
  6
CONTINUOUS
 62
     7
  2
STDGX5
 10
0.0
 20
0.0
 30
0.0
  0
TEXT
  5
1EA
  8
0
 62
     3
 10
0.0
 20
0.0
 30
0.0
 40
10.0
  1
RPH48D60N-3M
  7
STANDARD1
  0
ENDSEC
  0
EOF
