  0
SECTION
  2
HEADER
  9
$ACADVER
  1
AC1009
  9
$INSBASE
 10
0.0
 20
0.0
 30
0.0
  9
$EXTMIN
 10
0.0
 20
-2.960436562073669
 30
0.0
  9
$EXTMAX
 10
242.90000000000001
 20
152.90000000007609
 30
0.0
  9
$LIMMIN
 10
0.0
 20
0.0
  9
$LIMMAX
 10
375.0
 20
270.0
  9
$ORTHOMODE
 70
     1
  9
$REGENMODE
 70
     1
  9
$FILLMODE
 70
     1
  9
$QTEXTMODE
 70
     0
  9
$MIRRTEXT
 70
     0
  9
$DRAGMODE
 70
     2
  9
$LTSCALE
 40
5.0
  9
$OSMODE
 70
    37
  9
$ATTMODE
 70
     1
  9
$TEXTSIZE
 40
0.2
  9
$TRACEWID
 40
0.05
  9
$TEXTSTYLE
  7
STANDARD
  9
$CLAYER
  8
0
  9
$CELTYPE
  6
BYLAYER
  9
$CECOLOR
 62
   256
  9
$DIMSCALE
 40
1.0
  9
$DIMASZ
 40
3.0
  9
$DIMEXO
 40
2.0
  9
$DIMDLI
 40
0.38
  9
$DIMRND
 40
0.0
  9
$DIMDLE
 40
0.0
  9
$DIMEXE
 40
2.0
  9
$DIMTP
 40
0.0
  9
$DIMTM
 40
0.0
  9
$DIMTXT
 40
3.2000000000000002
  9
$DIMCEN
 40
0.0
  9
$DIMTSZ
 40
0.0
  9
$DIMTOL
 70
     0
  9
$DIMLIM
 70
     0
  9
$DIMTIH
 70
     0
  9
$DIMTOH
 70
     0
  9
$DIMSE1
 70
     0
  9
$DIMSE2
 70
     0
  9
$DIMTAD
 70
     1
  9
$DIMZIN
 70
     0
  9
$DIMBLK
  1

  9
$DIMASO
 70
     0
  9
$DIMSHO
 70
     0
  9
$DIMPOST
  1

  9
$DIMAPOST
  1

  9
$DIMALT
 70
     0
  9
$DIMALTD
 70
     2
  9
$DIMALTF
 40
25.399999999999999
  9
$DIMLFAC
 40
1.0
  9
$DIMTOFL
 70
     0
  9
$DIMTVP
 40
1.6000000000000001
  9
$DIMTIX
 70
     1
  9
$DIMSOXD
 70
     0
  9
$DIMSAH
 70
     0
  9
$DIMBLK1
  1

  9
$DIMBLK2
  1

  9
$DIMSTYLE
  2
STANDARD
  9
$DIMCLRD
 70
     4
  9
$DIMCLRE
 70
     4
  9
$DIMCLRT
 70
     4
  9
$DIMTFAC
 40
1.0
  9
$DIMGAP
 40
0.09
  9
$LUNITS
 70
     2
  9
$LUPREC
 70
     1
  9
$SKETCHINC
 40
0.1
  9
$FILLETRAD
 40
0.0
  9
$AUNITS
 70
     0
  9
$AUPREC
 70
     1
  9
$MENU
  1
E:\r13\win\SUPPORT\ACAD
  9
$ELEVATION
 40
0.0
  9
$PELEVATION
 40
0.0
  9
$THICKNESS
 40
0.0
  9
$LIMCHECK
 70
     0
  9
$BLIPMODE
 70
     0
  9
$CHAMFERA
 40
0.0
  9
$CHAMFERB
 40
0.0
  9
$SKPOLY
 70
     0
  9
$TDCREATE
 40
2449840.6508564819
  9
$TDUPDATE
 40
2457968.4254892478
  9
$TDINDWG
 40
0.1457294676
  9
$TDUSRTIMER
 40
0.1457294676
  9
$USRTIMER
 70
     1
  9
$ANGBASE
 50
0.0
  9
$ANGDIR
 70
     0
  9
$PDMODE
 70
     0
  9
$PDSIZE
 40
0.0
  9
$PLINEWID
 40
0.0
  9
$COORDS
 70
     1
  9
$SPLFRAME
 70
     0
  9
$SPLINETYPE
 70
     6
  9
$SPLINESEGS
 70
     8
  9
$ATTDIA
 70
     0
  9
$ATTREQ
 70
     1
  9
$HANDLING
 70
     1
  9
$HANDSEED
  5
1839
  9
$SURFTAB1
 70
     6
  9
$SURFTAB2
 70
     6
  9
$SURFTYPE
 70
     6
  9
$SURFU
 70
     6
  9
$SURFV
 70
     6
  9
$UCSNAME
  2

  9
$UCSORG
 10
0.0
 20
0.0
 30
0.0
  9
$UCSXDIR
 10
1.0
 20
0.0
 30
0.0
  9
$UCSYDIR
 10
0.0
 20
1.0
 30
0.0
  9
$PUCSNAME
  2

  9
$PUCSORG
 10
0.0
 20
0.0
 30
0.0
  9
$PUCSXDIR
 10
1.0
 20
0.0
 30
0.0
  9
$PUCSYDIR
 10
0.0
 20
1.0
 30
0.0
  9
$USERI1
 70
     0
  9
$USERI2
 70
     1
  9
$USERI3
 70
     1
  9
$USERI4
 70
     0
  9
$USERI5
 70
     0
  9
$USERR1
 40
0.0
  9
$USERR2
 40
0.0
  9
$USERR3
 40
0.0
  9
$USERR4
 40
0.0
  9
$USERR5
 40
0.0
  9
$WORLDVIEW
 70
     1
  9
$SHADEDGE
 70
     3
  9
$SHADEDIF
 70
    70
  9
$TILEMODE
 70
     1
  9
$MAXACTVP
 70
    16
  9
$PLIMCHECK
 70
     0
  9
$PEXTMIN
 10
1.0000000000000000E+020
 20
1.0000000000000000E+020
 30
1.0000000000000000E+020
  9
$PEXTMAX
 10
-1.0000000000000000E+020
 20
-1.0000000000000000E+020
 30
-1.0000000000000000E+020
  9
$PLIMMIN
 10
0.0
 20
0.0
  9
$PLIMMAX
 10
12.0
 20
9.0
  9
$UNITMODE
 70
     0
  9
$VISRETAIN
 70
     0
  9
$PLINEGEN
 70
     0
  9
$PSLTSCALE
 70
     0
  0
ENDSEC
  0
SECTION
  2
TABLES
  0
TABLE
  2
VPORT
 70
     1
  0
VPORT
  2
*ACTIVE
 70
     0
 10
0.0
 20
0.0
 11
1.0
 21
1.0
 12
181.62393162393161
 22
100.0
 13
0.0
 23
0.0
 14
10.0
 24
10.0
 15
10.0
 25
10.0
 16
0.0
 26
0.0
 36
1.0
 17
0.0
 27
0.0
 37
0.0
 40
200.0
 41
1.816239316239316
 42
50.0
 43
0.0
 44
0.0
 50
0.0
 51
0.0
 71
     0
 72
   500
 73
     1
 74
     0
 75
     0
 76
     0
 77
     0
 78
     2
  0
ENDTAB
  0
TABLE
  2
LTYPE
 70
     3
  0
LTYPE
  2
CONTINUOUS
 70
     0
  3
Solid Line
 72
    65
 73
     0
 40
0.0
  0
LTYPE
  2
CENTER
 70
     0
  3
____ _ ____ _ ____ _ ____ _ ____ _ ____ _ ____
 72
    65
 73
     4
 40
2.0
 49
1.25
 49
-0.25
 49
0.25
 49
-0.25
  0
LTYPE
  2
PHANTOM2
 70
     0
  3
___ _ _ ___ _ _ ___ _ _ ___ _ _
 72
    65
 73
     6
 40
1.25
 49
0.625
 49
-0.125
 49
0.125
 49
-0.125
 49
0.125
 49
-0.125
  0
ENDTAB
  0
TABLE
  2
LAYER
 70
     2
  0
LAYER
  2
0
 70
     0
 62
     7
  6
CONTINUOUS
  0
LAYER
  2
1
 70
     0
 62
     1
  6
CENTER
  0
ENDTAB
  0
TABLE
  2
STYLE
 70
     2
  0
STYLE
  2
STANDARD
 70
     0
 40
0.0
 41
1.0
 50
0.0
 71
     0
 42
0.2
  3
TXT
  4
BIGFONT
  0
STYLE
  2
STANDARD1
 70
     0
 40
0.0
 41
1.0
 50
0.0
 71
     0
 42
3.0
  3
txt
  4

  0
ENDTAB
  0
TABLE
  2
VIEW
 70
     1
  0
VIEW
  2
ALL
 70
     0
 40
270.0
 10
220.99159663865549
 20
135.0
 41
0.0
 11
0.0
 21
0.0
 31
1.0
 12
0.0
 22
0.0
 32
0.0
 42
0.0
 43
0.0
 44
0.0
 50
0.0
 71
     0
  0
ENDTAB
  0
TABLE
  2
UCS
 70
     0
  0
ENDTAB
  0
TABLE
  2
APPID
 70
    13
  0
APPID
  2
ACAD
 70
     0
  0
APPID
  2
GENIUS_GENODEF_13
 70
     0
  0
APPID
  2
GENIUS_GENOENT_13
 70
     0
  0
APPID
  2
GENIUS_GENOBJ_13
 70
     0
  0
APPID
  2
GENIUS_GENOLIS_13
 70
     0
  0
APPID
  2
GENIUS_GENOREF_13
 70
     0
  0
APPID
  2
GENIUS_GENOBJ-N-FIL_13
 70
     0
  0
APPID
  2
ACAD_MLEADERVER
 70
     0
  0
APPID
  2
ACAD_DSTYLE_DIMJAG
 70
     0
  0
APPID
  2
ACAD_DSTYLE_DIMTALN
 70
     0
  0
APPID
  2
ACAD_NAV_VCDISPLAY
 70
     0
  0
APPID
  2
ACAD_EXEMPT_FROM_CAD_STANDARDS
 70
     0
  0
APPID
  2
ACADANNOTATIVE
 70
     0
  0
ENDTAB
  0
TABLE
  2
DIMSTYLE
 70
     1
  0
DIMSTYLE
  2
STANDARD
 70
     0
  3

  4

  5

  6

  7

 40
1.0
 41
0.18
 42
0.0625
 43
0.38
 44
0.18
 45
0.0
 46
0.0
 47
0.0
 48
0.0
140
0.18
141
0.09
142
0.0
143
25.399999999999999
144
1.0
145
0.0
146
1.0
147
0.09
 71
     0
 72
     0
 73
     1
 74
     1
 75
     0
 76
     0
 77
     0
 78
     0
170
     0
171
     2
172
     0
173
     0
174
     0
175
     0
176
     0
177
     0
178
     0
  0
ENDTAB
  0
ENDSEC
  0
SECTION
  2
BLOCKS
  0
BLOCK
  8
0
  2
$MODEL_SPACE
 70
     0
 10
0.0
 20
0.0
 30
0.0
  3
$MODEL_SPACE
  1

  0
ENDBLK
  5
DC
  8
0
  0
BLOCK
 67
     1
  8
0
  2
$PAPER_SPACE
 70
     0
 10
0.0
 20
0.0
 30
0.0
  3
$PAPER_SPACE
  1

  0
ENDBLK
  5
DA
 67
     1
  8
0
  0
ENDSEC
  0
SECTION
  2
ENTITIES
  0
TEXT
  5
452
  8
0
 62
     3
 10
0.0
 20
0.0
 30
0.0
 40
10.0
  1
RPT4040
  7
STANDARD1
  0
ARC
  5
14F0
  8
0
 10
72.950000000000003
 20
115.09999999999999
 30
0.0
 40
1.0
 50
0.0
 51
90.0
  0
LINE
  5
14F1
  8
0
 10
73.950000000000003
 20
115.09999999999999
 30
0.0
 11
73.950000000000003
 21
111.65000000000001
 31
0.0
  0
LINE
  5
14F2
  8
0
 10
66.049999999999997
 20
111.65000000000001
 30
0.0
 11
66.049999999999997
 21
115.09999999999999
 31
0.0
  0
ARC
  5
14F3
  8
0
 10
67.049999999999997
 20
115.09999999999999
 30
0.0
 40
1.0
 50
90.0
 51
180.0
  0
LINE
  5
14F4
  8
0
 10
67.049999999999997
 20
116.09999999999999
 30
0.0
 11
72.950000000000003
 21
116.09999999999999
 31
0.0
  0
ARC
  5
14F5
  8
0
 10
67.049999999999997
 20
111.65000000000001
 30
0.0
 40
1.0
 50
180.0
 51
270.0
  0
ARC
  5
14F6
  8
0
 10
72.950000000000003
 20
111.65000000000001
 30
0.0
 40
1.0
 50
270.0
 51
0.0
  0
LINE
  5
14F7
  8
0
 10
72.950000000000003
 20
110.65000000000001
 30
0.0
 11
67.049999999999997
 21
110.65000000000001
 31
0.0
  0
ARC
  5
14F8
  8
0
 10
72.950000000000003
 20
144.15000000000001
 30
0.0
 40
1.0
 50
0.0
 51
90.0
  0
LINE
  5
14F9
  8
0
 10
73.950000000000003
 20
144.15000000000001
 30
0.0
 11
73.950000000000003
 21
140.69999999999999
 31
0.0
  0
ARC
  5
14FA
  8
0
 10
72.950000000000003
 20
140.69999999999999
 30
0.0
 40
1.0
 50
270.0
 51
0.0
  0
ARC
  5
14FB
  8
0
 10
67.049999999999997
 20
140.69999999999999
 30
0.0
 40
1.0
 50
180.0
 51
270.0
  0
LINE
  5
14FC
  8
0
 10
66.049999999999997
 20
140.69999999999999
 30
0.0
 11
66.049999999999997
 21
144.15000000000001
 31
0.0
  0
ARC
  5
14FD
  8
0
 10
67.049999999999997
 20
144.15000000000001
 30
0.0
 40
1.0
 50
90.0
 51
180.0
  0
LINE
  5
14FE
  8
0
 10
67.049999999999997
 20
145.15000000000001
 30
0.0
 11
72.950000000000003
 21
145.15000000000001
 31
0.0
  0
LINE
  5
14FF
  8
0
 10
72.950000000000003
 20
139.69999999999999
 30
0.0
 11
67.049999999999997
 21
139.69999999999999
 31
0.0
  0
CIRCLE
  5
1500
  8
0
 10
80.600000000000023
 20
127.90000000000001
 30
0.0
 40
2.899999999999991
  0
CIRCLE
  5
1501
  8
0
 10
59.39999999999997
 20
127.90000000000001
 30
0.0
 40
2.9000000000000048
  0
CIRCLE
  5
1502
  8
0
 10
70.0
 20
127.90000000000001
 30
0.0
 40
4.1999999999999877
  0
ARC
  5
1503
  8
0
 10
86.0
 20
143.90000000000001
 30
0.0
 40
4.0
 50
0.0
 51
90.0
  0
LINE
  5
1504
  8
0
 10
90.0
 20
143.90000000000001
 30
0.0
 11
90.0
 21
111.90000000000001
 31
0.0
  0
ARC
  5
1505
  8
0
 10
86.0
 20
111.90000000000001
 30
0.0
 40
4.0
 50
270.0
 51
0.0
  0
LINE
  5
1506
  8
0
 10
86.0
 20
107.90000000000001
 30
0.0
 11
54.0
 21
107.90000000000001
 31
0.0
  0
ARC
  5
1507
  8
0
 10
54.0
 20
111.90000000000001
 30
0.0
 40
4.0
 50
180.0
 51
270.0
  0
LINE
  5
1508
  8
0
 10
50.0
 20
111.90000000000001
 30
0.0
 11
50.0
 21
143.90000000000001
 31
0.0
  0
ARC
  5
1509
  8
0
 10
54.0
 20
143.90000000000001
 30
0.0
 40
4.0
 50
90.0
 51
180.0
  0
LINE
  5
150A
  8
0
 10
54.0
 20
147.90000000000001
 30
0.0
 11
86.0
 21
147.90000000000001
 31
0.0
  0
LINE
  5
150E
  8
0
 10
144.0
 20
147.90000000003801
 30
0.0
 11
143.99999999999989
 21
107.9000000000381
 31
0.0
  0
LINE
  5
150F
  8
0
 10
144.0
 20
147.90000000003801
 30
0.0
 11
147.90000000000001
 21
147.90000000003801
 31
0.0
  0
LINE
  5
1510
  8
0
 10
147.90000000000001
 20
107.9000000000381
 30
0.0
 11
147.90000000000001
 21
147.90000000003801
 31
0.0
  0
LINE
  5
1514
  8
0
 10
144.0
 20
107.9000000000381
 30
0.0
 11
147.90000000000001
 21
107.9000000000381
 31
0.0
  0
LINE
  5
1518
  8
0
 10
140.0
 20
110.6500000000381
 30
0.0
 11
140.0
 21
116.10000000003809
 31
0.0
  0
LINE
  5
1519
  8
0
 10
140.0
 20
116.10000000003809
 30
0.0
 11
144.0
 21
116.10000000003809
 31
0.0
  0
LINE
  5
151B
  8
0
 10
140.0
 20
139.7000000000381
 30
0.0
 11
140.0
 21
145.15000000003809
 31
0.0
  0
LINE
  5
151C
  8
0
 10
140.0
 20
145.15000000003809
 30
0.0
 11
144.0
 21
145.15000000003809
 31
0.0
  0
LINE
  5
1521
  8
0
 10
144.0
 20
139.7000000000381
 30
0.0
 11
140.0
 21
139.7000000000381
 31
0.0
  0
LINE
  5
1523
  8
0
 10
144.0
 20
110.6500000000381
 30
0.0
 11
140.0
 21
110.6500000000381
 31
0.0
  0
CIRCLE
  5
1526
  8
0
 10
207.30000000000001
 20
127.9000000000761
 30
0.0
 40
2.8999999999999768
  0
CIRCLE
  5
1527
  8
0
 10
228.49999999999989
 20
127.9000000000761
 30
0.0
 40
2.9000000000000048
  0
CIRCLE
  5
1528
  8
0
 10
217.90000000000001
 20
127.9000000000761
 30
0.0
 40
4.2000000000000171
  0
ARC
  5
1529
  8
0
 10
233.90000000000001
 20
111.9000000000762
 30
0.0
 40
4.0
 50
270.0
 51
0.0
  0
LINE
  5
152A
  8
0
 10
233.90000000000001
 20
107.9000000000762
 30
0.0
 11
201.90000000000001
 21
107.9000000000762
 31
0.0
  0
ARC
  5
152B
  8
0
 10
201.90000000000001
 20
111.9000000000762
 30
0.0
 40
4.0
 50
180.0
 51
270.0
  0
LINE
  5
152C
  8
0
 10
197.90000000000001
 20
111.9000000000762
 30
0.0
 11
197.90000000000001
 21
143.90000000007609
 31
0.0
  0
ARC
  5
152D
  8
0
 10
201.90000000000001
 20
143.90000000007609
 30
0.0
 40
4.0
 50
90.0
 51
180.0
  0
LINE
  5
152E
  8
0
 10
201.90000000000001
 20
147.90000000007609
 30
0.0
 11
233.90000000000001
 21
147.90000000007609
 31
0.0
  0
ARC
  5
152F
  8
0
 10
233.90000000000001
 20
143.90000000007609
 30
0.0
 40
4.0
 50
0.0
 51
90.0
  0
LINE
  5
1530
  8
0
 10
237.90000000000001
 20
143.90000000007609
 30
0.0
 11
237.90000000000001
 21
111.9000000000762
 31
0.0
  0
CIRCLE
  5
1531
  8
0
 10
217.90000000000001
 20
127.9000000000761
 30
0.0
 40
13.499999999999909
  0
CIRCLE
  5
1532
  8
0
 10
217.90000000000001
 20
127.9000000000761
 30
0.0
 40
19.0
  0
LINE
  5
1535
  8
0
 10
50.0
 20
53.899999999999999
 30
0.0
 11
50.0
 21
50.0
 31
0.0
  0
LINE
  5
153C
  8
0
 10
90.0
 20
53.899999999999999
 30
0.0
 11
50.0
 21
53.899999999999999
 31
0.0
  0
LINE
  5
153D
  8
0
 10
90.0
 20
53.899999999999999
 30
0.0
 11
90.0
 21
50.0
 31
0.0
  0
LINE
  5
153E
  8
0
 10
50.0
 20
50.0
 30
0.0
 11
90.0
 21
50.0
 31
0.0
  0
LINE
  5
1540
  8
0
 10
73.950000000000003
 20
57.899999999999999
 30
0.0
 11
66.049999999999997
 21
57.899999999999999
 31
0.0
  0
LINE
  5
1541
  8
0
 10
73.950000000000003
 20
57.899999999999999
 30
0.0
 11
73.950000000000003
 21
53.899999999999999
 31
0.0
  0
LINE
  5
1542
  8
0
 10
66.049999999999997
 20
53.899999999999999
 30
0.0
 11
66.049999999999997
 21
57.899999999999999
 31
0.0
  0
LINE
  5
1547
  8
1
 10
217.90000000000001
 20
152.90000000007609
 30
0.0
 11
217.90000000000001
 21
102.90000000000001
 31
0.0
  0
LINE
  5
1548
  8
1
 10
70.0
 20
152.90000000000001
 30
0.0
 11
70.0
 21
102.90000000000001
 31
0.0
  0
LINE
  5
1549
  8
1
 10
45.0
 20
127.90000000000001
 30
0.0
 11
95.0
 21
127.90000000000001
 31
0.0
  0
LINE
  5
1555
  8
1
 10
70.0
 20
62.899999999999999
 30
0.0
 11
70.0
 21
45.0
 31
0.0
  0
LINE
  5
1556
  8
1
 10
192.90000000000001
 20
127.90000000000001
 30
0.0
 11
242.90000000000001
 21
127.90000000000001
 31
0.0
  0
LINE
  5
1557
  8
1
 10
139.0
 20
127.90000000000001
 30
0.0
 11
152.90000000000001
 21
127.90000000000001
 31
0.0
  0
LINE
  5
159B
  8
1
 10
59.39999999999997
 20
133.80000000000001
 30
0.0
 11
59.39999999999997
 21
122.0
 31
0.0
  0
LINE
  5
159C
  8
1
 10
80.600000000000023
 20
133.7999999999999
 30
0.0
 11
80.600000000000023
 21
122.0
 31
0.0
  0
LINE
  5
159D
  8
1
 10
207.30000000000001
 20
133.8000000000761
 30
0.0
 11
207.30000000000001
 21
122.0000000000762
 31
0.0
  0
LINE
  5
159E
  8
1
 10
228.49999999999989
 20
133.80000000007621
 30
0.0
 11
228.49999999999989
 21
122.0000000000761
 31
0.0
  0
ENDSEC
  0
EOF
