  0
SECTION
  2
HEADER
  9
$ACADVER
  1
AC1009
  9
$INSBASE
 10
0.0
 20
0.0
 30
0.0
  9
$EXTMIN
 10
0.0
 20
-2.960436562073669
 30
0.0
  9
$EXTMAX
 10
526.11742027497235
 20
230.47009791603409
 30
0.0
  9
$LIMMIN
 10
0.0
 20
0.0
  9
$LIMMAX
 10
187.5
 20
135.0
  9
$ORTHOMODE
 70
     1
  9
$REGENMODE
 70
     1
  9
$FILLMODE
 70
     1
  9
$QTEXTMODE
 70
     0
  9
$MIRRTEXT
 70
     0
  9
$DRAGMODE
 70
     2
  9
$LTSCALE
 40
5.0
  9
$OSMODE
 70
    55
  9
$ATTMODE
 70
     1
  9
$TEXTSIZE
 40
2.5
  9
$TRACEWID
 40
0.05
  9
$TEXTSTYLE
  7
STANDARD
  9
$CLAYER
  8
0
  9
$CELTYPE
  6
BYLAYER
  9
$CECOLOR
 62
   256
  9
$DIMSCALE
 40
0.5
  9
$DIMASZ
 40
3.0
  9
$DIMEXO
 40
2.0
  9
$DIMDLI
 40
10.0
  9
$DIMRND
 40
0.0
  9
$DIMDLE
 40
0.0
  9
$DIMEXE
 40
2.0
  9
$DIMTP
 40
0.0
  9
$DIMTM
 40
0.0
  9
$DIMTXT
 40
3.0
  9
$DIMCEN
 40
0.09
  9
$DIMTSZ
 40
0.0
  9
$DIMTOL
 70
     0
  9
$DIMLIM
 70
     0
  9
$DIMTIH
 70
     0
  9
$DIMTOH
 70
     0
  9
$DIMSE1
 70
     0
  9
$DIMSE2
 70
     0
  9
$DIMTAD
 70
     1
  9
$DIMZIN
 70
     0
  9
$DIMBLK
  1

  9
$DIMASO
 70
     0
  9
$DIMSHO
 70
     0
  9
$DIMPOST
  1

  9
$DIMAPOST
  1

  9
$DIMALT
 70
     0
  9
$DIMALTD
 70
     2
  9
$DIMALTF
 40
25.399999999999999
  9
$DIMLFAC
 40
1.0
  9
$DIMTOFL
 70
     1
  9
$DIMTVP
 40
1.6000000000000001
  9
$DIMTIX
 70
     1
  9
$DIMSOXD
 70
     0
  9
$DIMSAH
 70
     0
  9
$DIMBLK1
  1

  9
$DIMBLK2
  1

  9
$DIMSTYLE
  2
STANDARD
  9
$DIMCLRD
 70
     0
  9
$DIMCLRE
 70
     0
  9
$DIMCLRT
 70
     0
  9
$DIMTFAC
 40
1.0
  9
$DIMGAP
 40
0.09
  9
$LUNITS
 70
     2
  9
$LUPREC
 70
     4
  9
$SKETCHINC
 40
0.1
  9
$FILLETRAD
 40
0.0
  9
$AUNITS
 70
     0
  9
$AUPREC
 70
     0
  9
$MENU
  1
E:\r13\win\SUPPORT\ACAD
  9
$ELEVATION
 40
0.0
  9
$PELEVATION
 40
0.0
  9
$THICKNESS
 40
0.0
  9
$LIMCHECK
 70
     0
  9
$BLIPMODE
 70
     0
  9
$CHAMFERA
 40
1.6000000000000001
  9
$CHAMFERB
 40
1.6000000000000001
  9
$SKPOLY
 70
     0
  9
$TDCREATE
 40
2449840.5944097228
  9
$TDUPDATE
 40
2456598.6037419438
  9
$TDINDWG
 40
0.0904042245
  9
$TDUSRTIMER
 40
0.0904042245
  9
$USRTIMER
 70
     1
  9
$ANGBASE
 50
0.0
  9
$ANGDIR
 70
     0
  9
$PDMODE
 70
     0
  9
$PDSIZE
 40
0.0
  9
$PLINEWID
 40
0.0
  9
$COORDS
 70
     1
  9
$SPLFRAME
 70
     0
  9
$SPLINETYPE
 70
     6
  9
$SPLINESEGS
 70
     8
  9
$ATTDIA
 70
     0
  9
$ATTREQ
 70
     1
  9
$HANDLING
 70
     1
  9
$HANDSEED
  5
142C
  9
$SURFTAB1
 70
     6
  9
$SURFTAB2
 70
     6
  9
$SURFTYPE
 70
     6
  9
$SURFU
 70
     6
  9
$SURFV
 70
     6
  9
$UCSNAME
  2

  9
$UCSORG
 10
0.0
 20
0.0
 30
0.0
  9
$UCSXDIR
 10
1.0
 20
0.0
 30
0.0
  9
$UCSYDIR
 10
0.0
 20
1.0
 30
0.0
  9
$PUCSNAME
  2

  9
$PUCSORG
 10
0.0
 20
0.0
 30
0.0
  9
$PUCSXDIR
 10
1.0
 20
0.0
 30
0.0
  9
$PUCSYDIR
 10
0.0
 20
1.0
 30
0.0
  9
$USERI1
 70
     0
  9
$USERI2
 70
     1
  9
$USERI3
 70
     1
  9
$USERI4
 70
     0
  9
$USERI5
 70
     0
  9
$USERR1
 40
0.0
  9
$USERR2
 40
0.0
  9
$USERR3
 40
0.0
  9
$USERR4
 40
0.0
  9
$USERR5
 40
0.0
  9
$WORLDVIEW
 70
     1
  9
$SHADEDGE
 70
     3
  9
$SHADEDIF
 70
    70
  9
$TILEMODE
 70
     1
  9
$MAXACTVP
 70
    16
  9
$PLIMCHECK
 70
     0
  9
$PEXTMIN
 10
1.0000000000000000E+020
 20
1.0000000000000000E+020
 30
1.0000000000000000E+020
  9
$PEXTMAX
 10
-1.0000000000000000E+020
 20
-1.0000000000000000E+020
 30
-1.0000000000000000E+020
  9
$PLIMMIN
 10
0.0
 20
0.0
  9
$PLIMMAX
 10
12.0
 20
9.0
  9
$UNITMODE
 70
     0
  9
$VISRETAIN
 70
     0
  9
$PLINEGEN
 70
     0
  9
$PSLTSCALE
 70
     0
  0
ENDSEC
  0
SECTION
  2
TABLES
  0
TABLE
  2
VPORT
 70
     1
  0
VPORT
  2
*ACTIVE
 70
     0
 10
0.0
 20
0.0
 11
1.0
 21
1.0
 12
263.05871136244878
 22
166.1561334974503
 13
0.0
 23
0.0
 14
5.0
 24
5.0
 15
5.0
 25
5.0
 16
0.0
 26
0.0
 36
1.0
 17
0.0
 27
0.0
 37
0.0
 40
341.50687761566701
 41
1.7807262569832401
 42
50.0
 43
0.0
 44
0.0
 50
0.0
 51
0.0
 71
     0
 72
   100
 73
     1
 74
     0
 75
     0
 76
     0
 77
     0
 78
     0
  0
ENDTAB
  0
TABLE
  2
LTYPE
 70
     4
  0
LTYPE
  2
CONTINUOUS
 70
     0
  3
Solid Line
 72
    65
 73
     0
 40
0.0
  0
LTYPE
  2
CENTER
 70
     0
  3
____ _ ____ _ ____ _ ____ _ ____ _ ____ _ ____
 72
    65
 73
     4
 40
2.0
 49
1.25
 49
-0.25
 49
0.25
 49
-0.25
  0
LTYPE
  2
HIDDEN
 70
     0
  3
_ _ _ _ _ _ _ _ _ _ _ _ _ _ _ _ _ _ _ _ _ _ _
 72
    65
 73
     2
 40
0.375
 49
0.25
 49
-0.125
  0
LTYPE
  2
PHANTOM2
 70
     0
  3
___ _ _ ___ _ _ ___ _ _ ___ _ _
 72
    65
 73
     6
 40
1.25
 49
0.625
 49
-0.125
 49
0.125
 49
-0.125
 49
0.125
 49
-0.125
  0
ENDTAB
  0
TABLE
  2
LAYER
 70
     3
  0
LAYER
  2
0
 70
     0
 62
     7
  6
CONTINUOUS
  0
LAYER
  2
1
 70
     0
 62
     1
  6
CENTER
  0
LAYER
  2
2
 70
     0
 62
     2
  6
HIDDEN
  0
ENDTAB
  0
TABLE
  2
STYLE
 70
     2
  0
STYLE
  2
STANDARD
 70
     0
 40
0.0
 41
1.0
 50
0.0
 71
     0
 42
2.5
  3
TXT
  4
BIGFONT
  0
STYLE
  2
STANDARD1
 70
     0
 40
0.0
 41
1.0
 50
0.0
 71
     0
 42
3.0
  3
txt
  4

  0
ENDTAB
  0
TABLE
  2
VIEW
 70
     1
  0
VIEW
  2
ALL
 70
     0
 40
135.0
 10
110.49579799999999
 20
67.5
 41
0.0
 11
0.0
 21
0.0
 31
1.0
 12
0.0
 22
0.0
 32
0.0
 42
0.0
 43
0.0
 44
0.0
 50
0.0
 71
     0
  0
ENDTAB
  0
TABLE
  2
UCS
 70
     0
  0
ENDTAB
  0
TABLE
  2
APPID
 70
     4
  0
APPID
  2
ACAD
 70
     0
  0
APPID
  2
DCO15
 70
     0
  0
APPID
  2
ACAD_MLEADERVER
 70
     0
  0
APPID
  2
ACAD_NAV_VCDISPLAY
 70
     0
  0
ENDTAB
  0
TABLE
  2
DIMSTYLE
 70
     1
  0
DIMSTYLE
  2
STANDARD
 70
     0
  3

  4

  5

  6

  7

 40
1.0
 41
0.18
 42
0.0625
 43
0.38
 44
0.18
 45
0.0
 46
0.0
 47
0.0
 48
0.0
140
0.18
141
0.09
142
0.0
143
25.399999999999999
144
1.0
145
0.0
146
1.0
147
0.09
 71
     0
 72
     0
 73
     1
 74
     1
 75
     0
 76
     0
 77
     0
 78
     0
170
     0
171
     2
172
     0
173
     0
174
     0
175
     0
176
     0
177
     0
178
     0
  0
ENDTAB
  0
ENDSEC
  0
SECTION
  2
BLOCKS
  0
BLOCK
  8
0
  2
$MODEL_SPACE
 70
     0
 10
0.0
 20
0.0
 30
0.0
  3
$MODEL_SPACE
  1

  0
ENDBLK
  5
15D
  8
0
  0
BLOCK
 67
     1
  8
0
  2
$PAPER_SPACE
 70
     0
 10
0.0
 20
0.0
 30
0.0
  3
$PAPER_SPACE
  1

  0
ENDBLK
  5
15B
 67
     1
  8
0
  0
ENDSEC
  0
SECTION
  2
ENTITIES
  0
LINE
  5
10B4
  8
0
 10
168.7174202749722
 20
208.9012809160341
 30
0.0
 11
334.51742027497232
 21
208.9012809160341
 31
0.0
  0
LINE
  5
10B5
  8
0
 10
168.7174202749722
 20
224.9989149160341
 30
0.0
 11
334.51742027497232
 21
224.9989149160341
 31
0.0
  0
LINE
  5
10B6
  8
0
 10
331.51742027497232
 20
208.9012809160341
 30
0.0
 11
168.7174202749722
 21
208.9012809160341
 31
0.0
  0
LINE
  5
10B7
  8
0
 10
331.51742027497232
 20
208.9012809160341
 30
0.0
 11
260.9174202749723
 21
208.9012809160341
 31
0.0
  0
LINE
  5
10B8
  8
0
 10
333.11742027497218
 20
224.9989149160341
 30
0.0
 11
262.51742027497221
 21
224.9989149160341
 31
0.0
  0
LINE
  5
10B9
  8
0
 10
333.11742027497218
 20
208.9012809160341
 30
0.0
 11
262.51742027497221
 21
208.9012809160341
 31
0.0
  0
LINE
  5
10BA
  8
0
 10
271.11742027497229
 20
203.47009791603409
 30
0.0
 11
521.11742027497235
 21
203.47009791603409
 31
0.0
  0
LINE
  5
10BB
  8
0
 10
271.11742027497229
 20
204.90945491603401
 30
0.0
 11
521.11742027497235
 21
204.90945491603401
 31
0.0
  0
LINE
  5
10BC
  8
0
 10
271.11742027497229
 20
206.3501719160341
 30
0.0
 11
521.11742027497235
 21
206.3501719160341
 31
0.0
  0
LINE
  5
10BD
  8
0
 10
271.11742027497229
 20
230.47009791603409
 30
0.0
 11
521.11742027497235
 21
230.47009791603409
 31
0.0
  0
LINE
  5
10BE
  8
0
 10
271.11742027497229
 20
229.03073991603409
 30
0.0
 11
521.11742027497235
 21
229.03073991603409
 31
0.0
  0
LINE
  5
10BF
  8
0
 10
271.11742027497229
 20
227.59002391603411
 30
0.0
 11
521.11742027497235
 21
227.59002391603411
 31
0.0
  0
LINE
  5
10C3
  8
1
 10
81.117420274972204
 20
216.97009791603409
 30
0.0
 11
526.11742027497235
 21
216.97009791603409
 31
0.0
  0
LINE
  5
10C4
  8
2
 10
334.51742027497232
 20
222.5900979160341
 30
0.0
 11
86.117420274972233
 21
222.5900979160341
 31
0.0
1001
ACAD
1000
ASC_BOUNDS
1002
{
1070
    19
1002
}
  0
LINE
  5
10C5
  8
2
 10
86.117420274972233
 20
211.3100979160341
 30
0.0
 11
334.51742027497232
 21
211.3100979160341
 31
0.0
1001
ACAD
1000
ASC_BOUNDS
1002
{
1070
    19
1002
}
  0
LINE
  5
10C6
  8
0
 10
334.51742027497232
 20
208.9012809160341
 30
0.0
 11
86.117420274972233
 21
208.9012809160341
 31
0.0
  0
LINE
  5
10C7
  8
0
 10
86.117420274972233
 20
224.9989149160341
 30
0.0
 11
334.51742027497232
 21
224.9989149160341
 31
0.0
  0
LINE
  5
10D1
  8
0
 10
44.999749126129473
 20
207.11696291603411
 30
0.0
 11
44.999749126129473
 21
226.8232319160341
 31
0.0
  0
LINE
  5
10D2
  8
0
 10
47.8297491261294
 20
212.3700979160341
 30
0.0
 11
47.8297491261294
 21
221.57009791603409
 31
0.0
  0
LINE
  5
10D3
  8
0
 10
48.329749126129393
 20
212.3700979160341
 30
0.0
 11
48.329749126129393
 21
221.57009791603409
 31
0.0
  0
LINE
  5
10D4
  8
0
 10
51.39974912612945
 20
210.66748591603411
 30
0.0
 11
51.39974912612945
 21
223.2727099160341
 31
0.0
  0
LINE
  5
10D5
  8
0
 10
52.949749126129518
 20
210.66748591603411
 30
0.0
 11
52.949749126129518
 21
223.2727099160341
 31
0.0
  0
LINE
  5
10D6
  8
0
 10
43.449749126129511
 20
207.11696291603411
 30
0.0
 11
43.449749126129511
 21
226.8232319160341
 31
0.0
  0
LINE
  5
10D7
  8
1
 10
38.449749126129518
 20
216.97009791603409
 30
0.0
 11
57.949749126129518
 21
216.97009791603409
 31
0.0
  0
ARC
  5
10D8
  8
0
 10
45.499749126129473
 20
207.11696291603411
 30
0.0
 40
2.0499999999999989
 50
180.0
 51
246.9999999999998
  0
LINE
  5
10D9
  8
0
 10
47.8297491261294
 20
212.3700979160341
 30
0.0
 11
45.829749126129393
 21
212.3700979160341
 31
0.0
  0
LINE
  5
10DA
  8
0
 10
51.679749126129423
 20
204.8408169160341
 30
0.0
 11
51.679749126129423
 21
205.37146691603411
 31
0.0
  0
LINE
  5
10DB
  8
0
 10
52.2330721261294
 20
207.83191491603401
 30
0.0
 11
52.22958112612946
 21
207.33192691603409
 31
0.0
  0
ARC
  5
10DC
  8
0
 10
48.639749126129452
 20
207.3000979160341
 30
0.0
 40
2.4799999999999991
 50
52.756697000000742
 51
130.00000000000199
  0
LINE
  5
10DD
  8
0
 10
47.045636126129459
 20
209.1998879160341
 30
0.0
 11
46.479749126129491
 21
209.8742859160341
 31
0.0
  0
ARC
  5
10DE
  8
0
 10
48.639749126129452
 20
207.4000979160341
 30
0.0
 40
2.379999999999999
 50
10.66786999999943
 51
168.53212999999951
  0
LINE
  5
10DF
  8
0
 10
45.3297491261294
 20
211.8700979160341
 30
0.0
 11
45.3297491261294
 21
207.87661891603409
 31
0.0
  0
LINE
  5
10E0
  8
0
 10
45.829749126129393
 20
211.8700979160341
 30
0.0
 11
45.829749126129393
 21
207.87661891603409
 31
0.0
  0
ARC
  5
10E1
  8
0
 10
45.499749126129473
 20
207.11696291603411
 30
0.0
 40
0.5
 50
180.0
 51
246.9999999999998
  0
ARC
  5
10E2
  8
0
 10
45.829749126129393
 20
207.87661891603409
 30
0.0
 40
0.5
 50
180.0
 51
269.60000000000082
  0
ARC
  5
10E3
  8
0
 10
48.639749126129452
 20
207.50009791603401
 30
0.0
 40
2.4799999999999991
 50
222.7281740000023
 51
315.00000000000063
  0
ARC
  5
10E4
  8
0
 10
48.639749126129452
 20
207.50009791603401
 30
0.0
 40
4.0300000000000002
 50
222.7281740000023
 51
315.00000000000063
  0
ARC
  5
10E5
  8
0
 10
45.312097126129402
 20
204.42639791603409
 30
0.0
 40
0.5
 50
42.728174000002312
 51
66.999999999999787
  0
ARC
  5
10E6
  8
0
 10
45.312097126129402
 20
204.42639791603409
 30
0.0
 40
2.0499999999999989
 50
42.728174000002312
 51
66.999999999999787
  0
LINE
  5
10E7
  8
0
 10
50.393374126129402
 20
205.74647291603401
 30
0.0
 11
50.702586126129518
 21
206.0556839160341
 31
0.0
  0
LINE
  5
10E8
  8
0
 10
46.113096126129442
 20
206.31343291603409
 30
0.0
 11
45.304384126129428
 21
206.65671091603409
 31
0.0
  0
LINE
  5
10E9
  8
0
 10
45.50746312612943
 20
204.886649916034
 30
0.0
 11
44.698751126129423
 21
205.22992791603409
 31
0.0
  0
LINE
  5
10EA
  8
0
 10
47.8297491261294
 20
211.8700979160341
 30
0.0
 11
45.829749126129393
 21
211.8700979160341
 31
0.0
  0
ARC
  5
10EB
  8
0
 10
48.639749126129452
 20
207.3000979160341
 30
0.0
 40
4.0300000000000002
 50
52.756697000000742
 51
122.4104069999993
  0
LINE
  5
10EC
  8
0
 10
46.479749126129491
 20
210.70234691603409
 30
0.0
 11
46.479749126129491
 21
209.8742859160341
 31
0.0
  0
ARC
  5
10ED
  8
0
 10
51.199749126129518
 20
210.66748591603411
 30
0.0
 40
0.2
 50
232.75669700000071
 51
0.0
  0
ARC
  5
10EE
  8
0
 10
48.639749126129452
 20
207.4000979160341
 30
0.0
 40
2.379999999999999
 50
180.63782
 51
358.56218000000001
  0
ARC
  5
10EF
  8
0
 10
48.634782126129501
 20
206.65700691603411
 30
0.0
 40
2.0
 50
36.469897999998963
 51
142.7301020000013
  0
ARC
  5
10F0
  8
0
 10
48.640018126129462
 20
207.40698891603409
 30
0.0
 40
2.399999999999999
 50
10.406923000000161
 51
24.139564000000341
  0
ARC
  5
10F1
  8
0
 10
48.640018126129462
 20
207.40698891603409
 30
0.0
 40
2.8700000000000001
 50
8.6208820000005257
 51
24.315855000001239
  0
LINE
  5
10F2
  8
0
 10
51.255418126129477
 20
208.5887589160341
 30
0.0
 11
50.830143126129428
 21
208.38849391603409
 31
0.0
  0
LINE
  5
10F3
  8
0
 10
51.255418126129477
 20
208.5887589160341
 30
0.0
 11
50.830143126129428
 21
208.38849391603409
 31
0.0
  0
ARC
  5
10F4
  8
0
 10
51.199749126129518
 20
210.66748591603411
 30
0.0
 40
1.75
 50
232.75669700000071
 51
0.0
  0
LINE
  5
10F5
  8
0
 10
52.22958112612946
 20
207.33192691603409
 30
0.0
 11
45.826259126129457
 21
207.376630916034
 31
0.0
  0
LINE
  5
10F6
  8
0
 10
52.2330721261294
 20
207.83191491603401
 30
0.0
 11
45.829749126129393
 21
207.87661891603409
 31
0.0
  0
LINE
  5
10F7
  8
0
 10
50.702586126129518
 20
206.0556839160341
 30
0.0
 11
51.679749126129423
 21
205.37146691603411
 31
0.0
  0
LINE
  5
10F8
  8
0
 10
51.489390126129479
 20
204.6504569160341
 30
0.0
 11
51.679749126129423
 21
204.8408169160341
 31
0.0
  0
ARC
  5
10F9
  8
0
 10
47.8297491261294
 20
212.3700979160341
 30
0.0
 40
0.5
 50
270.0
 51
0.0
  0
ARC
  5
10FA
  8
0
 10
45.829749126129393
 20
211.8700979160341
 30
0.0
 40
0.5
 50
90.0
 51
180.0
  0
ARC
  5
10FB
  8
0
 10
45.499749126129473
 20
226.8232319160341
 30
0.0
 40
2.0499999999999989
 50
113.0000000000002
 51
180.0
  0
LINE
  5
10FC
  8
0
 10
51.679749126129423
 20
229.09937791603409
 30
0.0
 11
51.679749126129423
 21
228.5687289160341
 31
0.0
  0
LINE
  5
10FD
  8
0
 10
52.2330721261294
 20
226.108280916034
 30
0.0
 11
52.22958112612946
 21
226.60826791603409
 31
0.0
  0
ARC
  5
10FE
  8
0
 10
48.639749126129452
 20
226.44009791603401
 30
0.0
 40
2.4799999999999991
 50
44.999999999999417
 51
137.2718259999977
  0
ARC
  5
10FF
  8
0
 10
48.639749126129452
 20
226.54009791603411
 30
0.0
 40
2.379999999999999
 50
1.437820000000021
 51
179.36217999999991
  0
LINE
  5
1100
  8
0
 10
45.50746312612943
 20
229.0535449160341
 30
0.0
 11
44.698751126129423
 21
228.7102669160341
 31
0.0
  0
LINE
  5
1101
  8
0
 10
50.393374126129402
 20
228.19372291603409
 30
0.0
 11
50.702586126129518
 21
227.88451091603409
 31
0.0
  0
ARC
  5
1102
  8
0
 10
45.312097126129402
 20
229.51379791603409
 30
0.0
 40
2.0499999999999989
 50
293.00000000000023
 51
317.27182599999759
  0
LINE
  5
1103
  8
0
 10
46.113096126129442
 20
227.62676291603401
 30
0.0
 11
45.304384126129428
 21
227.2834849160341
 31
0.0
  0
ARC
  5
1104
  8
0
 10
48.639749126129452
 20
226.54009791603411
 30
0.0
 40
2.379999999999999
 50
191.4678700000004
 51
349.33213000000057
  0
ARC
  5
1105
  8
0
 10
45.829749126129393
 20
226.0635759160341
 30
0.0
 40
0.5
 50
90.399999999999238
 51
180.0
  0
ARC
  5
1106
  8
0
 10
48.640018126129462
 20
226.53320691603409
 30
0.0
 40
2.399999999999999
 50
335.86043599999971
 51
349.59307699999988
  0
ARC
  5
1107
  8
0
 10
48.640018126129462
 20
226.53320691603409
 30
0.0
 40
2.8700000000000001
 50
335.68414499999881
 51
351.37911799999949
  0
ARC
  5
1108
  8
0
 10
48.639749126129452
 20
226.64009791603411
 30
0.0
 40
2.4799999999999991
 50
229.9999999999979
 51
307.24330299999929
  0
ARC
  5
1109
  8
0
 10
48.634782126129501
 20
227.28318891603411
 30
0.0
 40
2.0
 50
217.2698979999987
 51
323.53010200000102
  0
ARC
  5
110A
  8
0
 10
48.639749126129452
 20
226.64009791603411
 30
0.0
 40
4.0300000000000002
 50
237.5895930000006
 51
307.24330299999929
  0
LINE
  5
110B
  8
0
 10
46.479749126129491
 20
223.2378489160341
 30
0.0
 11
46.479749126129491
 21
224.06590991603409
 31
0.0
  0
LINE
  5
110C
  8
0
 10
45.3297491261294
 20
226.0635759160341
 30
0.0
 11
45.3297491261294
 21
226.0635759160341
 31
0.0
  0
LINE
  5
110D
  8
0
 10
45.829749126129393
 20
222.07009791603409
 30
0.0
 11
45.829749126129393
 21
226.0635759160341
 31
0.0
  0
LINE
  5
110E
  8
0
 10
45.3297491261294
 20
222.07009791603409
 30
0.0
 11
45.3297491261294
 21
226.0635759160341
 31
0.0
  0
LINE
  5
110F
  8
0
 10
47.8297491261294
 20
222.07009791603409
 30
0.0
 11
45.829749126129393
 21
222.07009791603409
 31
0.0
  0
LINE
  5
1110
  8
0
 10
47.045636126129459
 20
224.74030791603411
 30
0.0
 11
46.479749126129491
 21
224.06590991603409
 31
0.0
  0
ARC
  5
1111
  8
0
 10
51.199749126129518
 20
223.2727099160341
 30
0.0
 40
0.2
 50
0.0
 51
127.2433029999992
  0
LINE
  5
1112
  8
0
 10
51.255418126129477
 20
225.351436916034
 30
0.0
 11
50.830143126129428
 21
225.55170091603409
 31
0.0
  0
LINE
  5
1113
  8
0
 10
51.255418126129477
 20
225.351436916034
 30
0.0
 11
50.830143126129428
 21
225.55170091603409
 31
0.0
  0
ARC
  5
1114
  8
0
 10
45.499749126129473
 20
226.8232319160341
 30
0.0
 40
0.5
 50
113.0000000000002
 51
180.0
  0
LINE
  5
1115
  8
0
 10
47.8297491261294
 20
221.57009791603409
 30
0.0
 11
45.829749126129393
 21
221.57009791603409
 31
0.0
  0
ARC
  5
1116
  8
0
 10
47.8297491261294
 20
221.57009791603409
 30
0.0
 40
0.5
 50
0.0
 51
90.0
  0
ARC
  5
1117
  8
0
 10
45.829749126129393
 20
222.07009791603409
 30
0.0
 40
0.5
 50
180.0
 51
270.0
  0
ARC
  5
1118
  8
0
 10
45.312097126129402
 20
229.51379791603409
 30
0.0
 40
0.5
 50
293.00000000000023
 51
317.27182599999759
  0
LINE
  5
1119
  8
0
 10
52.2330721261294
 20
226.108280916034
 30
0.0
 11
45.829749126129393
 21
226.0635759160341
 31
0.0
  0
ARC
  5
111A
  8
0
 10
51.199749126129518
 20
223.2727099160341
 30
0.0
 40
1.75
 50
0.0
 51
127.2433029999992
  0
LINE
  5
111B
  8
0
 10
52.22958112612946
 20
226.60826791603409
 30
0.0
 11
45.826259126129457
 21
226.5635639160341
 31
0.0
  0
LINE
  5
111C
  8
0
 10
50.702586126129518
 20
227.88451091603409
 30
0.0
 11
51.679749126129423
 21
228.5687289160341
 31
0.0
  0
LINE
  5
111D
  8
0
 10
51.489390126129479
 20
229.28973791603411
 30
0.0
 11
51.679749126129423
 21
229.09937791603409
 31
0.0
  0
ARC
  5
111E
  8
0
 10
48.639749126129452
 20
226.44009791603401
 30
0.0
 40
4.0300000000000002
 50
44.999999999999417
 51
137.2718259999977
  0
LINE
  5
111F
  8
0
 10
86.117420274972233
 20
224.9989149160341
 30
0.0
 11
86.117420274972233
 21
208.9012809160341
 31
0.0
  0
POINT
  5
1120
  8
0
 10
86.117420274972233
 20
211.0249969160341
 30
0.0
  0
CIRCLE
  5
1125
  8
0
 10
106.1174202749722
 20
216.95009791603411
 30
0.0
 40
2.25
  0
POLYLINE
  5
1129
  8
0
 66
     1
 10
0.0
 20
0.0
 30
0.0
 70
     1
  0
VERTEX
  5
112A
  8
0
 10
127.0174202749722
 20
219.0500979160341
 30
0.0
  0
VERTEX
  5
112B
  8
0
 10
125.2174202749722
 20
219.0500979160341
 30
0.0
 42
1.0
  0
VERTEX
  5
112C
  8
0
 10
125.2174202749722
 20
214.85009791603409
 30
0.0
  0
VERTEX
  5
112D
  8
0
 10
127.0174202749722
 20
214.85009791603409
 30
0.0
 42
1.0
  0
SEQEND
  5
112E
  8
0
  0
POINT
  5
112F
  8
0
 10
140.6174202749722
 20
211.3100979160341
 30
0.0
  0
POINT
  5
1130
  8
0
 10
140.6174202749722
 20
211.3100979160341
 30
0.0
  0
LINE
  5
1131
  8
0
 10
261.11742027497229
 20
224.9989149160341
 30
0.0
 11
168.7174202749722
 21
224.9989149160341
 31
0.0
  0
CIRCLE
  5
1135
  8
0
 10
148.6174202749722
 20
216.95009791603411
 30
0.0
 40
5.0
  0
POLYLINE
  5
1139
  8
0
 66
     1
 10
0.0
 20
0.0
 30
0.0
 70
     1
  0
VERTEX
  5
113A
  8
0
 10
207.01742027497221
 20
219.0500979160341
 30
0.0
  0
VERTEX
  5
113B
  8
0
 10
205.21742027497231
 20
219.0500979160341
 30
0.0
 42
1.0
  0
VERTEX
  5
113C
  8
0
 10
205.21742027497231
 20
214.85009791603409
 30
0.0
  0
VERTEX
  5
113D
  8
0
 10
207.01742027497221
 20
214.85009791603409
 30
0.0
 42
1.0
  0
SEQEND
  5
113E
  8
0
  0
LINE
  5
1140
  8
0
 10
271.11742027497229
 20
208.92128091603411
 30
0.0
 11
271.11742027497229
 21
203.47009791603409
 31
0.0
  0
LINE
  5
1141
  8
0
 10
271.11742027497229
 20
203.47009791603409
 30
0.0
 11
271.11742027497229
 21
208.92128091603411
 31
0.0
  0
POINT
  5
1142
  8
0
 10
271.11742027497229
 20
203.47009791603409
 30
0.0
  0
LINE
  5
1143
  8
0
 10
271.11742027497229
 20
203.47009791603409
 30
0.0
 11
271.11742027497229
 21
208.9012809160341
 31
0.0
  0
POINT
  5
1144
  8
0
 10
271.11742027497229
 20
230.47009791603409
 30
0.0
  0
POINT
  5
1145
  8
0
 10
271.11742027497229
 20
230.47009791603409
 30
0.0
  0
POINT
  5
1146
  8
0
 10
271.11742027497229
 20
230.47009791603409
 30
0.0
  0
POINT
  5
1147
  8
0
 10
271.11742027497229
 20
230.47009791603409
 30
0.0
  0
POINT
  5
1148
  8
0
 10
271.11742027497229
 20
230.47009791603409
 30
0.0
  0
POINT
  5
1149
  8
0
 10
271.11742027497229
 20
230.47009791603409
 30
0.0
  0
LINE
  5
114A
  8
0
 10
271.11742027497229
 20
230.47009791603409
 30
0.0
 11
271.11742027497229
 21
225.01891491603411
 31
0.0
  0
LINE
  5
114B
  8
0
 10
271.11742027497229
 20
224.9989149160341
 30
0.0
 11
271.11742027497229
 21
230.47009791603409
 31
0.0
  0
POLYLINE
  5
114C
  8
0
 66
     1
 10
0.0
 20
0.0
 30
0.0
 70
     1
  0
VERTEX
  5
114D
  8
0
 10
297.01742027497221
 20
219.0500979160341
 30
0.0
  0
VERTEX
  5
114E
  8
0
 10
295.21742027497231
 20
219.0500979160341
 30
0.0
 42
1.0
  0
VERTEX
  5
114F
  8
0
 10
295.21742027497231
 20
214.85009791603409
 30
0.0
  0
VERTEX
  5
1150
  8
0
 10
297.01742027497221
 20
214.85009791603409
 30
0.0
 42
1.0
  0
SEQEND
  5
1151
  8
0
  0
CIRCLE
  5
1152
  8
2
 10
291.11742027497229
 20
216.97009791603409
 30
0.0
 40
2.25
  0
POLYLINE
  5
1157
  8
0
 66
     1
 10
0.0
 20
0.0
 30
0.0
 70
     1
  0
VERTEX
  5
1158
  8
0
 10
390.21742027497231
 20
214.8700979160341
 30
0.0
  0
VERTEX
  5
1159
  8
0
 10
392.01742027497232
 20
214.8700979160341
 30
0.0
 42
1.0
  0
VERTEX
  5
115A
  8
0
 10
392.01742027497232
 20
219.070097916034
 30
0.0
  0
VERTEX
  5
115B
  8
0
 10
390.21742027497231
 20
219.070097916034
 30
0.0
 42
1.0
  0
SEQEND
  5
115C
  8
0
  0
CIRCLE
  5
115F
  8
0
 10
316.11742027497218
 20
216.97009791603409
 30
0.0
 40
2.25
  0
POLYLINE
  5
1160
  8
2
 66
     1
 10
0.0
 20
0.0
 30
0.0
 70
     1
  0
VERTEX
  5
1161
  8
2
 10
310.2174202749722
 20
214.8700979160341
 30
0.0
  0
VERTEX
  5
1162
  8
2
 10
312.01742027497232
 20
214.8700979160341
 30
0.0
 42
1.0
  0
VERTEX
  5
1163
  8
2
 10
312.01742027497232
 20
219.070097916034
 30
0.0
  0
VERTEX
  5
1164
  8
2
 10
310.2174202749722
 20
219.070097916034
 30
0.0
 42
1.0
  0
SEQEND
  5
1165
  8
2
  0
LINE
  5
1166
  8
0
 10
336.11742027497218
 20
211.35009791603409
 30
0.0
 11
336.11742027497218
 21
222.5500979160341
 31
0.0
  0
LINE
  5
1167
  8
2
 10
334.51742027497232
 20
222.5900979160341
 30
0.0
 11
334.51742027497232
 21
211.35009791603409
 31
0.0
  0
LINE
  5
116B
  8
0
 10
336.11742027497218
 20
211.35009791603409
 30
0.0
 11
334.51742027497232
 21
211.35009791603409
 31
0.0
  0
LINE
  5
116C
  8
0
 10
334.51742027497232
 20
208.9012809160341
 30
0.0
 11
334.51742027497232
 21
211.35009791603409
 31
0.0
  0
LINE
  5
116D
  8
0
 10
336.11742027497218
 20
222.5500979160341
 30
0.0
 11
334.51742027497232
 21
222.5500979160341
 31
0.0
  0
LINE
  5
116E
  8
0
 10
334.51742027497232
 20
222.5500979160341
 30
0.0
 11
334.51742027497232
 21
224.9989149160341
 31
0.0
  0
CIRCLE
  5
1176
  8
0
 10
466.11742027497229
 20
216.97009791603409
 30
0.0
 40
5.0
  0
POLYLINE
  5
1177
  8
0
 66
     1
 10
0.0
 20
0.0
 30
0.0
 70
     1
  0
VERTEX
  5
1178
  8
0
 10
480.2174202749722
 20
214.8700979160341
 30
0.0
  0
VERTEX
  5
1179
  8
0
 10
482.01742027497238
 20
214.8700979160341
 30
0.0
 42
1.0
  0
VERTEX
  5
117A
  8
0
 10
482.01742027497238
 20
219.070097916034
 30
0.0
  0
VERTEX
  5
117B
  8
0
 10
480.2174202749722
 20
219.070097916034
 30
0.0
 42
1.0
  0
SEQEND
  5
117C
  8
0
  0
CIRCLE
  5
117E
  8
0
 10
501.11742027497229
 20
216.97009791603409
 30
0.0
 40
2.25
  0
POINT
  5
1182
  8
0
 10
521.11742027497235
 20
203.47009791603409
 30
0.0
  0
LINE
  5
1183
  8
0
 10
521.11742027497235
 20
203.47009791603409
 30
0.0
 11
521.11742027497235
 21
207.17009791603411
 31
0.0
  0
LINE
  5
1185
  8
0
 10
521.11742027497235
 20
207.47009791603409
 30
0.0
 11
521.11742027497235
 21
203.47009791603409
 31
0.0
  0
LINE
  5
1186
  8
0
 10
521.11742027497235
 20
203.47009791603409
 30
0.0
 11
521.11742027497235
 21
207.17009791603411
 31
0.0
  0
LINE
  5
1187
  8
0
 10
521.11742027497235
 20
230.47009791603409
 30
0.0
 11
521.11742027497235
 21
203.47009791603409
 31
0.0
  0
POINT
  5
1188
  8
0
 10
521.11742027497235
 20
203.47009791603409
 30
0.0
  0
POLYLINE
  5
12A9
  8
0
 66
     1
 10
0.0
 20
0.0
 30
0.0
 70
     1
  0
VERTEX
  5
12AA
  8
0
 10
257.01742027497221
 20
219.0500979160341
 30
0.0
  0
VERTEX
  5
12AB
  8
0
 10
255.21742027497231
 20
219.0500979160341
 30
0.0
 42
1.0
  0
VERTEX
  5
12AC
  8
0
 10
255.21742027497231
 20
214.85009791603409
 30
0.0
  0
VERTEX
  5
12AD
  8
0
 10
257.01742027497221
 20
214.85009791603409
 30
0.0
 42
1.0
  0
SEQEND
  5
12AE
  8
0
  0
LINE
  5
12B3
  8
1
 10
106.1174202749722
 20
222.20009791603411
 30
0.0
 11
106.1174202749722
 21
211.70009791603411
 31
0.0
  0
LINE
  5
12B4
  8
1
 10
111.3674202749722
 20
216.95009791603411
 30
0.0
 11
100.8674202749722
 21
216.95009791603411
 31
0.0
  0
LINE
  5
12B5
  8
1
 10
148.6174202749722
 20
224.95009791603411
 30
0.0
 11
148.6174202749722
 21
208.95009791603411
 31
0.0
  0
LINE
  5
12B6
  8
1
 10
156.6174202749722
 20
216.95009791603411
 30
0.0
 11
140.6174202749722
 21
216.95009791603411
 31
0.0
  0
LINE
  5
12B7
  8
1
 10
126.1174202749722
 20
222.35009791603409
 30
0.0
 11
126.1174202749722
 21
211.85009791603409
 31
0.0
  0
LINE
  5
12B8
  8
1
 10
206.1174202749722
 20
222.35009791603409
 30
0.0
 11
206.1174202749722
 21
211.85009791603409
 31
0.0
  0
LINE
  5
12B9
  8
1
 10
256.11742027497218
 20
222.35009791603409
 30
0.0
 11
256.11742027497218
 21
211.85009791603409
 31
0.0
  0
LINE
  5
12BA
  8
1
 10
296.11742027497218
 20
222.35009791603409
 30
0.0
 11
296.11742027497218
 21
211.85009791603409
 31
0.0
  0
LINE
  5
12BB
  8
1
 10
311.11742027497218
 20
222.3700979160341
 30
0.0
 11
311.11742027497218
 21
211.8700979160341
 31
0.0
  0
LINE
  5
12BC
  8
1
 10
291.11742027497229
 20
222.22009791603409
 30
0.0
 11
291.11742027497229
 21
211.72009791603409
 31
0.0
  0
LINE
  5
12BD
  8
1
 10
296.36742027497229
 20
216.97009791603409
 30
0.0
 11
285.86742027497229
 21
216.97009791603409
 31
0.0
  0
LINE
  5
12BE
  8
1
 10
316.11742027497218
 20
222.22009791603409
 30
0.0
 11
316.11742027497218
 21
211.72009791603409
 31
0.0
  0
LINE
  5
12BF
  8
1
 10
321.36742027497218
 20
216.97009791603409
 30
0.0
 11
310.86742027497218
 21
216.97009791603409
 31
0.0
  0
LINE
  5
12C0
  8
1
 10
391.11742027497218
 20
222.3700979160341
 30
0.0
 11
391.11742027497218
 21
211.8700979160341
 31
0.0
  0
LINE
  5
12C1
  8
1
 10
501.11742027497229
 20
222.22009791603409
 30
0.0
 11
501.11742027497229
 21
211.72009791603409
 31
0.0
  0
LINE
  5
12C2
  8
1
 10
506.36742027497229
 20
216.97009791603409
 30
0.0
 11
495.86742027497229
 21
216.97009791603409
 31
0.0
  0
LINE
  5
12C3
  8
1
 10
466.11742027497229
 20
224.97009791603409
 30
0.0
 11
466.11742027497229
 21
208.97009791603409
 31
0.0
  0
LINE
  5
12C4
  8
1
 10
474.11742027497229
 20
216.97009791603409
 30
0.0
 11
458.11742027497229
 21
216.97009791603409
 31
0.0
  0
LINE
  5
12C5
  8
1
 10
481.11742027497218
 20
222.3700979160341
 30
0.0
 11
481.11742027497218
 21
211.8700979160341
 31
0.0
  0
TEXT
  5
1395
  8
0
 62
     3
 10
0.0
 20
0.0
 30
0.0
 40
10.0
  1
RS27S-250
  7
STANDARD1
  0
ENDSEC
  0
EOF
