  0
SECTION
  2
HEADER
  9
$ACADVER
  1
AC1009
  9
$INSBASE
 10
0.0
 20
0.0
 30
0.0
  9
$EXTMIN
 10
0.0
 20
-2.960436562073669
 30
0.0
  9
$EXTMAX
 10
1025.1657072814171
 20
472.99060661695847
 30
0.0
  9
$LIMMIN
 10
0.0
 20
0.0
  9
$LIMMAX
 10
187.5
 20
135.0
  9
$ORTHOMODE
 70
     0
  9
$REGENMODE
 70
     1
  9
$FILLMODE
 70
     1
  9
$QTEXTMODE
 70
     0
  9
$MIRRTEXT
 70
     0
  9
$DRAGMODE
 70
     2
  9
$LTSCALE
 40
5.0
  9
$OSMODE
 70
    55
  9
$ATTMODE
 70
     1
  9
$TEXTSIZE
 40
2.5
  9
$TRACEWID
 40
0.05
  9
$TEXTSTYLE
  7
STANDARD
  9
$CLAYER
  8
0
  9
$CELTYPE
  6
BYLAYER
  9
$CECOLOR
 62
   256
  9
$DIMSCALE
 40
0.5
  9
$DIMASZ
 40
3.0
  9
$DIMEXO
 40
2.0
  9
$DIMDLI
 40
10.0
  9
$DIMRND
 40
0.0
  9
$DIMDLE
 40
0.0
  9
$DIMEXE
 40
2.0
  9
$DIMTP
 40
0.0
  9
$DIMTM
 40
0.0
  9
$DIMTXT
 40
3.0
  9
$DIMCEN
 40
0.09
  9
$DIMTSZ
 40
0.0
  9
$DIMTOL
 70
     0
  9
$DIMLIM
 70
     0
  9
$DIMTIH
 70
     0
  9
$DIMTOH
 70
     0
  9
$DIMSE1
 70
     0
  9
$DIMSE2
 70
     0
  9
$DIMTAD
 70
     1
  9
$DIMZIN
 70
     0
  9
$DIMBLK
  1

  9
$DIMASO
 70
     0
  9
$DIMSHO
 70
     0
  9
$DIMPOST
  1

  9
$DIMAPOST
  1

  9
$DIMALT
 70
     0
  9
$DIMALTD
 70
     2
  9
$DIMALTF
 40
25.399999999999999
  9
$DIMLFAC
 40
1.0
  9
$DIMTOFL
 70
     1
  9
$DIMTVP
 40
1.6000000000000001
  9
$DIMTIX
 70
     1
  9
$DIMSOXD
 70
     0
  9
$DIMSAH
 70
     0
  9
$DIMBLK1
  1

  9
$DIMBLK2
  1

  9
$DIMSTYLE
  2
STANDARD
  9
$DIMCLRD
 70
     0
  9
$DIMCLRE
 70
     0
  9
$DIMCLRT
 70
     0
  9
$DIMTFAC
 40
1.0
  9
$DIMGAP
 40
0.09
  9
$LUNITS
 70
     2
  9
$LUPREC
 70
     4
  9
$SKETCHINC
 40
0.1
  9
$FILLETRAD
 40
0.0
  9
$AUNITS
 70
     0
  9
$AUPREC
 70
     0
  9
$MENU
  1
E:\r13\win\SUPPORT\ACAD
  9
$ELEVATION
 40
0.0
  9
$PELEVATION
 40
0.0
  9
$THICKNESS
 40
0.0
  9
$LIMCHECK
 70
     0
  9
$BLIPMODE
 70
     0
  9
$CHAMFERA
 40
1.6000000000000001
  9
$CHAMFERB
 40
1.6000000000000001
  9
$SKPOLY
 70
     0
  9
$TDCREATE
 40
2449840.5944097228
  9
$TDUPDATE
 40
2456598.6041095601
  9
$TDINDWG
 40
0.2818946759
  9
$TDUSRTIMER
 40
0.2818946759
  9
$USRTIMER
 70
     1
  9
$ANGBASE
 50
0.0
  9
$ANGDIR
 70
     0
  9
$PDMODE
 70
     0
  9
$PDSIZE
 40
0.0
  9
$PLINEWID
 40
0.0
  9
$COORDS
 70
     1
  9
$SPLFRAME
 70
     0
  9
$SPLINETYPE
 70
     6
  9
$SPLINESEGS
 70
     8
  9
$ATTDIA
 70
     0
  9
$ATTREQ
 70
     1
  9
$HANDLING
 70
     1
  9
$HANDSEED
  5
2772
  9
$SURFTAB1
 70
     6
  9
$SURFTAB2
 70
     6
  9
$SURFTYPE
 70
     6
  9
$SURFU
 70
     6
  9
$SURFV
 70
     6
  9
$UCSNAME
  2

  9
$UCSORG
 10
0.0
 20
0.0
 30
0.0
  9
$UCSXDIR
 10
1.0
 20
0.0
 30
0.0
  9
$UCSYDIR
 10
0.0
 20
1.0
 30
0.0
  9
$PUCSNAME
  2

  9
$PUCSORG
 10
0.0
 20
0.0
 30
0.0
  9
$PUCSXDIR
 10
1.0
 20
0.0
 30
0.0
  9
$PUCSYDIR
 10
0.0
 20
1.0
 30
0.0
  9
$USERI1
 70
     0
  9
$USERI2
 70
     1
  9
$USERI3
 70
     1
  9
$USERI4
 70
     0
  9
$USERI5
 70
     0
  9
$USERR1
 40
0.0
  9
$USERR2
 40
0.0
  9
$USERR3
 40
0.0
  9
$USERR4
 40
0.0
  9
$USERR5
 40
0.0
  9
$WORLDVIEW
 70
     1
  9
$SHADEDGE
 70
     3
  9
$SHADEDIF
 70
    70
  9
$TILEMODE
 70
     1
  9
$MAXACTVP
 70
    16
  9
$PLIMCHECK
 70
     0
  9
$PEXTMIN
 10
1.0000000000000000E+020
 20
1.0000000000000000E+020
 30
1.0000000000000000E+020
  9
$PEXTMAX
 10
-1.0000000000000000E+020
 20
-1.0000000000000000E+020
 30
-1.0000000000000000E+020
  9
$PLIMMIN
 10
0.0
 20
0.0
  9
$PLIMMAX
 10
12.0
 20
9.0
  9
$UNITMODE
 70
     0
  9
$VISRETAIN
 70
     0
  9
$PLINEGEN
 70
     0
  9
$PSLTSCALE
 70
     0
  0
ENDSEC
  0
SECTION
  2
TABLES
  0
TABLE
  2
VPORT
 70
     1
  0
VPORT
  2
*ACTIVE
 70
     0
 10
0.0
 20
0.0
 11
1.0
 21
1.0
 12
512.5828560276085
 22
341.8550533959849
 13
0.0
 23
0.0
 14
5.0
 24
5.0
 15
5.0
 25
5.0
 16
0.0
 26
0.0
 36
1.0
 17
0.0
 27
0.0
 37
0.0
 40
696.32972659538666
 41
1.7807262569832401
 42
50.0
 43
0.0
 44
0.0
 50
0.0
 51
0.0
 71
     0
 72
   100
 73
     1
 74
     0
 75
     0
 76
     0
 77
     0
 78
     0
  0
ENDTAB
  0
TABLE
  2
LTYPE
 70
     4
  0
LTYPE
  2
CONTINUOUS
 70
     0
  3
Solid Line
 72
    65
 73
     0
 40
0.0
  0
LTYPE
  2
CENTER
 70
     0
  3
____ _ ____ _ ____ _ ____ _ ____ _ ____ _ ____
 72
    65
 73
     4
 40
2.0
 49
1.25
 49
-0.25
 49
0.25
 49
-0.25
  0
LTYPE
  2
HIDDEN
 70
     0
  3
_ _ _ _ _ _ _ _ _ _ _ _ _ _ _ _ _ _ _ _ _ _ _
 72
    65
 73
     2
 40
0.375
 49
0.25
 49
-0.125
  0
LTYPE
  2
PHANTOM2
 70
     0
  3
___ _ _ ___ _ _ ___ _ _ ___ _ _
 72
    65
 73
     6
 40
1.25
 49
0.625
 49
-0.125
 49
0.125
 49
-0.125
 49
0.125
 49
-0.125
  0
ENDTAB
  0
TABLE
  2
LAYER
 70
     3
  0
LAYER
  2
0
 70
     0
 62
     7
  6
CONTINUOUS
  0
LAYER
  2
1
 70
     0
 62
     1
  6
CENTER
  0
LAYER
  2
2
 70
     0
 62
     2
  6
HIDDEN
  0
ENDTAB
  0
TABLE
  2
STYLE
 70
     2
  0
STYLE
  2
STANDARD
 70
     0
 40
0.0
 41
1.0
 50
0.0
 71
     0
 42
2.5
  3
TXT
  4
BIGFONT
  0
STYLE
  2
STANDARD1
 70
     0
 40
0.0
 41
1.0
 50
0.0
 71
     0
 42
3.0
  3
txt
  4

  0
ENDTAB
  0
TABLE
  2
VIEW
 70
     1
  0
VIEW
  2
ALL
 70
     0
 40
135.0
 10
110.49579799999999
 20
67.5
 41
0.0
 11
0.0
 21
0.0
 31
1.0
 12
0.0
 22
0.0
 32
0.0
 42
0.0
 43
0.0
 44
0.0
 50
0.0
 71
     0
  0
ENDTAB
  0
TABLE
  2
UCS
 70
     0
  0
ENDTAB
  0
TABLE
  2
APPID
 70
     4
  0
APPID
  2
ACAD
 70
     0
  0
APPID
  2
DCO15
 70
     0
  0
APPID
  2
ACAD_MLEADERVER
 70
     0
  0
APPID
  2
ACAD_NAV_VCDISPLAY
 70
     0
  0
ENDTAB
  0
TABLE
  2
DIMSTYLE
 70
     1
  0
DIMSTYLE
  2
STANDARD
 70
     0
  3

  4

  5

  6

  7

 40
1.0
 41
0.18
 42
0.0625
 43
0.38
 44
0.18
 45
0.0
 46
0.0
 47
0.0
 48
0.0
140
0.18
141
0.09
142
0.0
143
25.399999999999999
144
1.0
145
0.0
146
1.0
147
0.09
 71
     0
 72
     0
 73
     1
 74
     1
 75
     0
 76
     0
 77
     0
 78
     0
170
     0
171
     2
172
     0
173
     0
174
     0
175
     0
176
     0
177
     0
178
     0
  0
ENDTAB
  0
ENDSEC
  0
SECTION
  2
BLOCKS
  0
BLOCK
  8
0
  2
$MODEL_SPACE
 70
     0
 10
0.0
 20
0.0
 30
0.0
  3
$MODEL_SPACE
  1

  0
ENDBLK
  5
15D
  8
0
  0
BLOCK
 67
     1
  8
0
  2
$PAPER_SPACE
 70
     0
 10
0.0
 20
0.0
 30
0.0
  3
$PAPER_SPACE
  1

  0
ENDBLK
  5
15B
 67
     1
  8
0
  0
ENDSEC
  0
SECTION
  2
ENTITIES
  0
LINE
  5
23F8
  8
0
 10
226.76570728141701
 20
451.42178961695839
 30
0.0
 11
642.56570728141685
 21
451.42178961695839
 31
0.0
  0
LINE
  5
23F9
  8
0
 10
639.56570728141685
 20
451.42178961695839
 30
0.0
 11
226.76570728141701
 21
451.42178961695839
 31
0.0
  0
LINE
  5
23FA
  8
0
 10
639.56570728141685
 20
451.42178961695839
 30
0.0
 11
268.56570728141702
 21
451.42178961695839
 31
0.0
  0
LINE
  5
23FB
  8
0
 10
641.16570728141676
 20
451.42178961695839
 30
0.0
 11
506.56570728141691
 21
451.42178961695839
 31
0.0
  0
LINE
  5
23FC
  8
0
 10
226.76570728141701
 20
467.51942361695842
 30
0.0
 11
642.56570728141685
 21
467.51942361695842
 31
0.0
  0
LINE
  5
23FD
  8
0
 10
641.16570728141676
 20
467.51942361695842
 30
0.0
 11
506.56570728141691
 21
467.51942361695842
 31
0.0
  0
LINE
  5
23FE
  8
0
 10
515.16570728141699
 20
445.99060661695847
 30
0.0
 11
1015.165707281417
 21
445.99060661695847
 31
0.0
  0
LINE
  5
23FF
  8
0
 10
515.16570728141699
 20
447.42996461695861
 30
0.0
 11
1015.165707281417
 21
447.42996461695861
 31
0.0
  0
LINE
  5
2400
  8
0
 10
515.16570728141699
 20
448.8706806169584
 30
0.0
 11
1015.165707281417
 21
448.8706806169584
 31
0.0
  0
LINE
  5
2401
  8
0
 10
515.16570728141699
 20
472.99060661695847
 30
0.0
 11
1015.165707281417
 21
472.99060661695847
 31
0.0
  0
LINE
  5
2402
  8
0
 10
515.16570728141699
 20
471.5512496169585
 30
0.0
 11
1015.165707281417
 21
471.5512496169585
 31
0.0
  0
LINE
  5
2403
  8
0
 10
515.16570728141699
 20
470.11053261695832
 30
0.0
 11
1015.165707281417
 21
470.11053261695832
 31
0.0
  0
LINE
  5
2409
  8
1
 10
134.1657072814171
 20
459.49060661695847
 30
0.0
 11
1025.1657072814171
 21
459.49060661695842
 31
0.0
  0
LINE
  5
240A
  8
2
 10
642.56570728141685
 20
465.11060661695831
 30
0.0
 11
144.1657072814171
 21
465.11060661695831
 31
0.0
1001
ACAD
1000
ASC_BOUNDS
1002
{
1070
    19
1002
}
  0
LINE
  5
240B
  8
2
 10
144.1657072814171
 20
453.83060661695839
 30
0.0
 11
642.56570728141685
 21
453.83060661695839
 31
0.0
1001
ACAD
1000
ASC_BOUNDS
1002
{
1070
    19
1002
}
  0
LINE
  5
240C
  8
0
 10
642.56570728141685
 20
451.42178961695839
 30
0.0
 11
144.1657072814171
 21
451.42178961695839
 31
0.0
  0
LINE
  5
240D
  8
0
 10
144.1657072814171
 20
467.51942361695842
 30
0.0
 11
642.56570728141685
 21
467.51942361695842
 31
0.0
  0
LINE
  5
241F
  8
0
 10
100.17745728141701
 20
471.57405461695862
 30
0.0
 11
99.368745281416977
 21
471.23077661695851
 31
0.0
  0
ARC
  5
2420
  8
0
 10
100.169743281417
 20
469.34374161695831
 30
0.0
 40
0.5
 50
113.0000000000005
 51
180.0
  0
ARC
  5
2421
  8
0
 10
100.169743281417
 20
449.63747261695858
 30
0.0
 40
0.5
 50
180.0
 51
246.9999999999994
  0
LINE
  5
2422
  8
0
 10
100.17745728141701
 20
447.40715961695832
 30
0.0
 11
99.368745281416977
 21
447.75043761695849
 31
0.0
  0
LINE
  5
2423
  8
1
 10
93.119743281416945
 20
459.49060661695847
 30
0.0
 11
112.6197432814169
 21
459.49060661695847
 31
0.0
  0
ARC
  5
2424
  8
0
 10
100.169743281417
 20
449.63747261695858
 30
0.0
 40
2.0499999999999989
 50
180.0
 51
246.9999999999994
  0
LINE
  5
2425
  8
0
 10
99.669743281417027
 20
449.63747261695858
 30
0.0
 11
99.669743281417027
 21
469.34374161695831
 31
0.0
  0
LINE
  5
2426
  8
0
 10
98.119743281416959
 20
449.63747261695858
 30
0.0
 11
98.119743281416959
 21
469.34374161695831
 31
0.0
  0
ARC
  5
2427
  8
0
 10
100.169743281417
 20
469.34374161695831
 30
0.0
 40
2.0499999999999989
 50
113.0000000000005
 51
180.0
  0
ARC
  5
2428
  8
0
 10
99.982091281416956
 20
446.94690661695859
 30
0.0
 40
2.0499999999999989
 50
42.72817400000411
 51
66.999999999999474
  0
ARC
  5
2429
  8
0
 10
103.309743281417
 20
449.92060661695859
 30
0.0
 40
2.379999999999999
 50
180.6378199999935
 51
358.5621800000024
  0
LINE
  5
242A
  8
0
 10
106.34974328141691
 20
447.36132661695859
 30
0.0
 11
106.34974328141691
 21
447.89197561695852
 31
0.0
  0
ARC
  5
242B
  8
0
 10
103.309743281417
 20
450.02060661695839
 30
0.0
 40
2.4799999999999991
 50
222.72817400000409
 51
315.00000000000227
  0
ARC
  5
242C
  8
0
 10
103.309743281417
 20
450.02060661695839
 30
0.0
 40
4.0300000000000002
 50
222.72817400000409
 51
315.00000000000227
  0
ARC
  5
242D
  8
0
 10
99.982091281416956
 20
446.94690661695859
 30
0.0
 40
0.5
 50
42.72817400000411
 51
66.999999999999474
  0
LINE
  5
242E
  8
0
 10
105.0633682814169
 20
448.26698161695839
 30
0.0
 11
105.3725802814169
 21
448.57619361695851
 31
0.0
  0
LINE
  5
242F
  8
0
 10
105.3725802814169
 20
448.57619361695851
 30
0.0
 11
106.34974328141691
 21
447.89197561695852
 31
0.0
  0
LINE
  5
2430
  8
0
 10
106.159384281417
 20
447.17096661695842
 30
0.0
 11
106.34974328141691
 21
447.36132661695859
 31
0.0
  0
LINE
  5
2431
  8
0
 10
106.34974328141691
 20
471.61988761695852
 30
0.0
 11
106.34974328141691
 21
471.0892376169586
 31
0.0
  0
ARC
  5
2432
  8
0
 10
103.309743281417
 20
468.9606066169585
 30
0.0
 40
4.0300000000000002
 50
44.999999999997691
 51
137.27182599999591
  0
ARC
  5
2433
  8
0
 10
103.309743281417
 20
468.9606066169585
 30
0.0
 40
2.4799999999999991
 50
44.999999999997691
 51
137.27182599999591
  0
ARC
  5
2434
  8
0
 10
103.309743281417
 20
469.06060661695852
 30
0.0
 40
2.379999999999999
 50
1.4378199999975789
 51
179.36218000000639
  0
LINE
  5
2435
  8
0
 10
105.0633682814169
 20
470.71423161695861
 30
0.0
 11
105.3725802814169
 21
470.4050206169585
 31
0.0
  0
ARC
  5
2436
  8
0
 10
99.982091281416956
 20
472.03430661695847
 30
0.0
 40
2.0499999999999989
 50
293.00000000000051
 51
317.27182599999588
  0
LINE
  5
2437
  8
0
 10
100.783090281417
 20
470.14727161695839
 30
0.0
 11
99.974378281416975
 21
469.80399361695862
 31
0.0
  0
ARC
  5
2438
  8
0
 10
99.982091281416956
 20
472.03430661695847
 30
0.0
 40
0.5
 50
293.00000000000051
 51
317.27182599999588
  0
LINE
  5
2439
  8
0
 10
106.899575281417
 20
469.12877761695859
 30
0.0
 11
100.496253281417
 21
469.08407361695839
 31
0.0
  0
LINE
  5
243A
  8
0
 10
105.3725802814169
 20
470.4050206169585
 30
0.0
 11
106.34974328141691
 21
471.0892376169586
 31
0.0
  0
LINE
  5
243B
  8
0
 10
106.159384281417
 20
471.81024761695852
 30
0.0
 11
106.34974328141691
 21
471.61988761695852
 31
0.0
  0
ARC
  5
243C
  8
0
 10
103.309743281417
 20
469.06060661695852
 30
0.0
 40
2.379999999999999
 50
191.46786999999969
 51
349.33212999999779
  0
ARC
  5
243D
  8
0
 10
103.310012281417
 20
469.05371561695841
 30
0.0
 40
2.399999999999999
 50
335.86043599999601
 51
349.59307699999738
  0
ARC
  5
243E
  8
0
 10
103.310012281417
 20
469.05371561695841
 30
0.0
 40
2.8700000000000001
 50
335.6841450000037
 51
351.37911799999631
  0
ARC
  5
243F
  8
0
 10
103.309743281417
 20
469.1606066169586
 30
0.0
 40
2.4799999999999991
 50
229.99999999999741
 51
307.24330299999781
  0
ARC
  5
2440
  8
0
 10
103.30477628141701
 20
469.80369761695852
 30
0.0
 40
2.0
 50
217.2698980000059
 51
323.5301020000004
  0
ARC
  5
2441
  8
0
 10
103.309743281417
 20
469.1606066169586
 30
0.0
 40
4.0300000000000002
 50
237.58959300000021
 51
307.24330299999781
  0
LINE
  5
2442
  8
0
 10
101.1497432814169
 20
465.75835761695828
 30
0.0
 11
101.1497432814169
 21
466.5864186169585
 31
0.0
  0
LINE
  5
2443
  8
0
 10
99.999743281416954
 20
468.58408561695859
 30
0.0
 11
99.999743281416954
 21
468.58408561695859
 31
0.0
  0
LINE
  5
2444
  8
0
 10
100.4997432814169
 20
464.59060661695838
 30
0.0
 11
100.4997432814169
 21
468.58408561695859
 31
0.0
  0
LINE
  5
2445
  8
0
 10
99.999743281416954
 20
464.59060661695838
 30
0.0
 11
99.999743281416954
 21
468.58408561695859
 31
0.0
  0
LINE
  5
2446
  8
0
 10
102.4997432814169
 20
464.59060661695838
 30
0.0
 11
100.4997432814169
 21
464.59060661695838
 31
0.0
  0
LINE
  5
2447
  8
0
 10
101.71563028141701
 20
467.26081661695838
 30
0.0
 11
101.1497432814169
 21
466.5864186169585
 31
0.0
  0
ARC
  5
2448
  8
0
 10
105.8697432814169
 20
465.79321961695859
 30
0.0
 40
0.2
 50
0.0
 51
127.2433029999977
  0
LINE
  5
2449
  8
0
 10
105.925412281417
 20
467.8719456169585
 30
0.0
 11
105.500137281417
 21
468.0722106169585
 31
0.0
  0
LINE
  5
244A
  8
0
 10
105.925412281417
 20
467.8719456169585
 30
0.0
 11
105.500137281417
 21
468.0722106169585
 31
0.0
  0
LINE
  5
244B
  8
0
 10
102.4997432814169
 20
464.09060661695838
 30
0.0
 11
100.4997432814169
 21
464.09060661695838
 31
0.0
  0
ARC
  5
244C
  8
0
 10
102.4997432814169
 20
464.09060661695838
 30
0.0
 40
0.5
 50
0.0
 51
90.0
  0
ARC
  5
244D
  8
0
 10
100.4997432814169
 20
464.59060661695838
 30
0.0
 40
0.5
 50
180.0
 51
270.0
  0
LINE
  5
244E
  8
0
 10
106.9030662814169
 20
468.6287896169585
 30
0.0
 11
100.4997432814169
 21
468.58408561695859
 31
0.0
  0
ARC
  5
244F
  8
0
 10
105.8697432814169
 20
465.79321961695859
 30
0.0
 40
1.75
 50
0.0
 51
127.2433029999977
  0
ARC
  5
2450
  8
0
 10
103.309743281417
 20
449.82060661695851
 30
0.0
 40
4.0300000000000002
 50
52.756697000002212
 51
122.41040699999969
  0
ARC
  5
2451
  8
0
 10
103.309743281417
 20
449.82060661695851
 30
0.0
 40
2.4799999999999991
 50
52.756697000002212
 51
130.00000000000259
  0
LINE
  5
2452
  8
0
 10
101.71563028141701
 20
451.72039661695862
 30
0.0
 11
101.1497432814169
 21
452.39479461695851
 31
0.0
  0
LINE
  5
2453
  8
0
 10
101.1497432814169
 20
453.2228566169585
 30
0.0
 11
101.1497432814169
 21
452.39479461695851
 31
0.0
  0
ARC
  5
2454
  8
0
 10
105.8697432814169
 20
453.18799461695858
 30
0.0
 40
0.2
 50
232.75669700000219
 51
0.0
  0
LINE
  5
2455
  8
0
 10
105.925412281417
 20
451.10926761695839
 30
0.0
 11
105.500137281417
 21
450.90900361695861
 31
0.0
  0
LINE
  5
2456
  8
0
 10
105.925412281417
 20
451.10926761695839
 30
0.0
 11
105.500137281417
 21
450.90900361695861
 31
0.0
  0
LINE
  5
2457
  8
0
 10
102.4997432814169
 20
454.89060661695839
 30
0.0
 11
100.4997432814169
 21
454.89060661695839
 31
0.0
  0
LINE
  5
2458
  8
0
 10
102.4997432814169
 20
454.39060661695839
 30
0.0
 11
100.4997432814169
 21
454.39060661695839
 31
0.0
  0
ARC
  5
2459
  8
0
 10
102.4997432814169
 20
454.89060661695839
 30
0.0
 40
0.5
 50
270.0
 51
0.0
  0
ARC
  5
245A
  8
0
 10
100.4997432814169
 20
454.39060661695839
 30
0.0
 40
0.5
 50
90.0
 51
180.0
  0
ARC
  5
245B
  8
0
 10
105.8697432814169
 20
453.18799461695858
 30
0.0
 40
1.75
 50
232.75669700000219
 51
0.0
  0
LINE
  5
245C
  8
0
 10
106.069743281417
 20
453.18799461695858
 30
0.0
 11
106.069743281417
 21
465.79321961695859
 31
0.0
  0
LINE
  5
245D
  8
0
 10
107.6197432814169
 20
453.18799461695858
 30
0.0
 11
107.6197432814169
 21
465.79321961695859
 31
0.0
  0
LINE
  5
245E
  8
0
 10
102.4997432814169
 20
454.89060661695839
 30
0.0
 11
102.4997432814169
 21
464.09060661695838
 31
0.0
  0
LINE
  5
245F
  8
0
 10
102.9997432814169
 20
454.89060661695839
 30
0.0
 11
102.9997432814169
 21
464.09060661695838
 31
0.0
  0
ARC
  5
2460
  8
0
 10
100.4997432814169
 20
468.58408561695859
 30
0.0
 40
0.5
 50
90.399999999999224
 51
180.0
  0
LINE
  5
2461
  8
0
 10
106.9030662814169
 20
468.6287896169585
 30
0.0
 11
106.899575281417
 21
469.12877761695859
 31
0.0
  0
LINE
  5
2462
  8
0
 10
106.9030662814169
 20
450.35242361695839
 30
0.0
 11
106.899575281417
 21
449.85243661695853
 31
0.0
  0
ARC
  5
2463
  8
0
 10
100.4997432814169
 20
450.39712861695853
 30
0.0
 40
0.5
 50
180.0
 51
269.60000000000082
  0
LINE
  5
2464
  8
0
 10
100.783090281417
 20
448.8339416169585
 30
0.0
 11
99.974378281416975
 21
449.17721961695861
 31
0.0
  0
LINE
  5
2465
  8
0
 10
106.899575281417
 20
449.85243661695853
 30
0.0
 11
100.496253281417
 21
449.8971406169585
 31
0.0
  0
LINE
  5
2466
  8
0
 10
106.9030662814169
 20
450.35242361695839
 30
0.0
 11
100.4997432814169
 21
450.39712861695853
 31
0.0
  0
LINE
  5
2467
  8
0
 10
99.999743281416954
 20
454.39060661695839
 30
0.0
 11
99.999743281416954
 21
450.39712861695853
 31
0.0
  0
LINE
  5
2468
  8
0
 10
100.4997432814169
 20
454.39060661695839
 30
0.0
 11
100.4997432814169
 21
450.39712861695853
 31
0.0
  0
ARC
  5
2469
  8
0
 10
103.309743281417
 20
449.92060661695859
 30
0.0
 40
2.379999999999999
 50
10.66787000000223
 51
168.53213000000031
  0
ARC
  5
246A
  8
0
 10
103.30477628141701
 20
449.17751561695849
 30
0.0
 40
2.0
 50
36.46989799999961
 51
142.7301019999941
  0
ARC
  5
246B
  8
0
 10
103.310012281417
 20
449.92749761695848
 30
0.0
 40
2.399999999999999
 50
10.406923000002561
 51
24.13956400000405
  0
ARC
  5
246C
  8
0
 10
103.310012281417
 20
449.92749761695848
 30
0.0
 40
2.8700000000000001
 50
8.6208820000037463
 51
24.315854999996329
  0
POLYLINE
  5
246D
  8
0
 66
     1
 10
0.0
 20
0.0
 30
0.0
 70
     1
  0
VERTEX
  5
246E
  8
0
 10
185.06570728141691
 20
461.5706066169584
 30
0.0
  0
VERTEX
  5
246F
  8
0
 10
183.26570728141701
 20
461.5706066169584
 30
0.0
 42
1.0
  0
VERTEX
  5
2470
  8
0
 10
183.26570728141701
 20
457.37060661695841
 30
0.0
  0
VERTEX
  5
2471
  8
0
 10
185.06570728141691
 20
457.37060661695841
 30
0.0
 42
1.0
  0
SEQEND
  5
2472
  8
0
  0
LINE
  5
2473
  8
0
 10
144.1657072814171
 20
467.51942361695842
 30
0.0
 11
144.1657072814171
 21
451.42178961695839
 31
0.0
  0
CIRCLE
  5
2474
  8
0
 10
164.1657072814171
 20
459.47060661695849
 30
0.0
 40
2.25
  0
CIRCLE
  5
2475
  8
0
 10
206.6657072814171
 20
459.47060661695849
 30
0.0
 40
5.0
  0
POINT
  5
2476
  8
0
 10
198.6657072814171
 20
453.83060661695839
 30
0.0
  0
POINT
  5
2477
  8
0
 10
198.6657072814171
 20
453.83060661695839
 30
0.0
  0
POLYLINE
  5
247B
  8
0
 66
     1
 10
0.0
 20
0.0
 30
0.0
 70
     1
  0
VERTEX
  5
247C
  8
0
 10
265.06570728141702
 20
461.5706066169584
 30
0.0
  0
VERTEX
  5
247D
  8
0
 10
263.26570728141701
 20
461.5706066169584
 30
0.0
 42
1.0
  0
VERTEX
  5
247E
  8
0
 10
263.26570728141701
 20
457.37060661695841
 30
0.0
  0
VERTEX
  5
247F
  8
0
 10
265.06570728141702
 20
457.37060661695841
 30
0.0
 42
1.0
  0
SEQEND
  5
2480
  8
0
  0
LINE
  5
2481
  8
0
 10
268.76570728141701
 20
467.51942361695842
 30
0.0
 11
226.76570728141701
 21
467.51942361695842
 31
0.0
  0
LINE
  5
2483
  8
0
 10
515.16570728141699
 20
445.99060661695847
 30
0.0
 11
515.16570728141699
 21
451.42178961695839
 31
0.0
  0
LINE
  5
2484
  8
0
 10
515.16570728141699
 20
451.44178961695837
 30
0.0
 11
515.16570728141699
 21
445.99060661695847
 31
0.0
  0
LINE
  5
2485
  8
0
 10
515.16570728141699
 20
445.99060661695847
 30
0.0
 11
515.16570728141699
 21
451.44178961695837
 31
0.0
  0
POINT
  5
2486
  8
0
 10
515.16570728141699
 20
445.99060661695847
 30
0.0
  0
POINT
  5
2487
  8
0
 10
515.16570728141699
 20
472.99060661695847
 30
0.0
  0
POINT
  5
2488
  8
0
 10
515.16570728141699
 20
472.99060661695847
 30
0.0
  0
POINT
  5
2489
  8
0
 10
515.16570728141699
 20
472.99060661695847
 30
0.0
  0
POINT
  5
248A
  8
0
 10
515.16570728141699
 20
472.99060661695847
 30
0.0
  0
POINT
  5
248B
  8
0
 10
515.16570728141699
 20
472.99060661695847
 30
0.0
  0
POINT
  5
248C
  8
0
 10
515.16570728141699
 20
472.99060661695847
 30
0.0
  0
LINE
  5
248D
  8
0
 10
515.16570728141699
 20
472.99060661695847
 30
0.0
 11
515.16570728141699
 21
467.5394236169584
 31
0.0
  0
LINE
  5
248E
  8
0
 10
515.16570728141699
 20
467.51942361695842
 30
0.0
 11
515.16570728141699
 21
472.99060661695847
 31
0.0
  0
CIRCLE
  5
248F
  8
2
 10
535.1657072814171
 20
459.49060661695847
 30
0.0
 40
2.25
  0
POLYLINE
  5
2490
  8
2
 66
     1
 10
0.0
 20
0.0
 30
0.0
 70
     1
  0
VERTEX
  5
2491
  8
2
 10
634.26570728141689
 20
457.39060661695828
 30
0.0
  0
VERTEX
  5
2492
  8
2
 10
636.06570728141685
 20
457.39060661695828
 30
0.0
 42
1.0
  0
VERTEX
  5
2493
  8
2
 10
636.06570728141685
 20
461.59060661695838
 30
0.0
  0
VERTEX
  5
2494
  8
2
 10
634.26570728141689
 20
461.59060661695838
 30
0.0
 42
1.0
  0
SEQEND
  5
2495
  8
2
  0
POLYLINE
  5
2496
  8
2
 66
     1
 10
0.0
 20
0.0
 30
0.0
 70
     1
  0
VERTEX
  5
2497
  8
2
 10
554.26570728141689
 20
457.39060661695828
 30
0.0
  0
VERTEX
  5
2498
  8
2
 10
556.06570728141685
 20
457.39060661695828
 30
0.0
 42
1.0
  0
VERTEX
  5
2499
  8
2
 10
556.06570728141685
 20
461.59060661695838
 30
0.0
  0
VERTEX
  5
249A
  8
2
 10
554.26570728141689
 20
461.59060661695838
 30
0.0
 42
1.0
  0
SEQEND
  5
249B
  8
2
  0
POLYLINE
  5
249C
  8
0
 66
     1
 10
0.0
 20
0.0
 30
0.0
 70
     1
  0
VERTEX
  5
249D
  8
0
 10
605.06570728141685
 20
461.59060661695838
 30
0.0
  0
VERTEX
  5
249E
  8
0
 10
603.26570728141701
 20
461.59060661695838
 30
0.0
 42
1.0
  0
VERTEX
  5
249F
  8
0
 10
603.26570728141701
 20
457.39060661695828
 30
0.0
  0
VERTEX
  5
24A0
  8
0
 10
605.06570728141685
 20
457.39060661695828
 30
0.0
 42
1.0
  0
SEQEND
  5
24A1
  8
0
  0
CIRCLE
  5
24A2
  8
0
 10
624.16570728141676
 20
459.49060661695847
 30
0.0
 40
2.25
  0
LINE
  5
24A6
  8
0
 10
644.16570728141687
 20
465.0706066169584
 30
0.0
 11
642.56570728141685
 21
465.0706066169584
 31
0.0
  0
LINE
  5
24A7
  8
0
 10
642.56570728141685
 20
465.0706066169584
 30
0.0
 11
642.56570728141685
 21
467.51942361695842
 31
0.0
  0
LINE
  5
24AB
  8
0
 10
642.56570728141685
 20
451.42178961695839
 30
0.0
 11
642.56570728141685
 21
453.8706066169583
 31
0.0
  0
LINE
  5
24AC
  8
0
 10
644.16570728141687
 20
453.8706066169583
 30
0.0
 11
642.56570728141685
 21
453.8706066169583
 31
0.0
  0
LINE
  5
24B0
  8
0
 10
644.16570728141687
 20
453.8706066169583
 30
0.0
 11
644.16570728141687
 21
465.0706066169584
 31
0.0
  0
LINE
  5
24B1
  8
2
 10
642.56570728141685
 20
465.11060661695831
 30
0.0
 11
642.56570728141685
 21
453.8706066169583
 31
0.0
  0
CIRCLE
  5
24B5
  8
0
 10
960.16570728141676
 20
459.49060661695847
 30
0.0
 40
5.0
  0
POLYLINE
  5
24B9
  8
0
 66
     1
 10
0.0
 20
0.0
 30
0.0
 70
     1
  0
VERTEX
  5
24BA
  8
0
 10
974.26570728141678
 20
457.39060661695828
 30
0.0
  0
VERTEX
  5
24BB
  8
0
 10
976.06570728141685
 20
457.39060661695828
 30
0.0
 42
1.0
  0
VERTEX
  5
24BC
  8
0
 10
976.06570728141685
 20
461.59060661695838
 30
0.0
  0
VERTEX
  5
24BD
  8
0
 10
974.26570728141678
 20
461.59060661695838
 30
0.0
 42
1.0
  0
SEQEND
  5
24BE
  8
0
  0
CIRCLE
  5
24C0
  8
0
 10
995.16570728141687
 20
459.49060661695847
 30
0.0
 40
2.25
  0
LINE
  5
24C2
  8
0
 10
1015.165707281417
 20
445.99060661695847
 30
0.0
 11
1015.165707281417
 21
449.69060661695852
 31
0.0
  0
LINE
  5
24C3
  8
0
 10
1015.165707281417
 20
449.99060661695847
 30
0.0
 11
1015.165707281417
 21
445.99060661695847
 31
0.0
  0
LINE
  5
24C4
  8
0
 10
1015.165707281417
 20
445.99060661695847
 30
0.0
 11
1015.165707281417
 21
449.69060661695852
 31
0.0
  0
LINE
  5
24C5
  8
0
 10
1015.165707281417
 20
472.99060661695847
 30
0.0
 11
1015.165707281417
 21
445.99060661695847
 31
0.0
  0
POINT
  5
24C6
  8
0
 10
1015.165707281417
 20
445.99060661695847
 30
0.0
  0
POINT
  5
24C7
  8
0
 10
1015.165707281417
 20
445.99060661695847
 30
0.0
  0
POLYLINE
  5
25EA
  8
0
 66
     1
 10
0.0
 20
0.0
 30
0.0
 70
     1
  0
VERTEX
  5
25EB
  8
0
 10
502.06570728141691
 20
461.5706066169584
 30
0.0
  0
VERTEX
  5
25EC
  8
0
 10
500.26570728141689
 20
461.5706066169584
 30
0.0
 42
1.0
  0
VERTEX
  5
25ED
  8
0
 10
500.26570728141689
 20
457.37060661695841
 30
0.0
  0
VERTEX
  5
25EE
  8
0
 10
502.06570728141691
 20
457.37060661695841
 30
0.0
 42
1.0
  0
SEQEND
  5
25EF
  8
0
  0
LINE
  5
25F4
  8
1
 10
164.1657072814171
 20
464.72060661695849
 30
0.0
 11
164.1657072814171
 21
454.22060661695849
 31
0.0
  0
LINE
  5
25F6
  8
1
 10
206.6657072814171
 20
467.47060661695849
 30
0.0
 11
206.6657072814171
 21
451.47060661695849
 31
0.0
  0
LINE
  5
25F8
  8
1
 10
184.16570728141701
 20
464.57060661695851
 30
0.0
 11
184.16570728141701
 21
454.0706066169584
 31
0.0
  0
LINE
  5
25F9
  8
1
 10
264.16570728141699
 20
464.57060661695851
 30
0.0
 11
264.16570728141699
 21
454.0706066169584
 31
0.0
  0
LINE
  5
25FA
  8
1
 10
535.1657072814171
 20
464.74060661695847
 30
0.0
 11
535.1657072814171
 21
454.24060661695847
 31
0.0
  0
LINE
  5
25FC
  8
1
 10
501.16570728141699
 20
464.57060661695851
 30
0.0
 11
501.16570728141699
 21
454.0706066169584
 31
0.0
  0
LINE
  5
25FD
  8
1
 10
555.16570728141699
 20
464.59060661695838
 30
0.0
 11
555.16570728141699
 21
454.09060661695838
 31
0.0
  0
LINE
  5
25FE
  8
1
 10
624.16570728141676
 20
464.74060661695847
 30
0.0
 11
624.16570728141676
 21
454.24060661695847
 31
0.0
  0
LINE
  5
2600
  8
1
 10
604.16570728141687
 20
464.59060661695838
 30
0.0
 11
604.16570728141687
 21
454.09060661695838
 31
0.0
  0
LINE
  5
2601
  8
1
 10
635.16570728141699
 20
464.59060661695838
 30
0.0
 11
635.16570728141699
 21
454.09060661695838
 31
0.0
  0
LINE
  5
2603
  8
1
 10
995.16570728141687
 20
464.74060661695847
 30
0.0
 11
995.16570728141687
 21
454.24060661695847
 31
0.0
  0
LINE
  5
2605
  8
1
 10
960.16570728141676
 20
467.49060661695847
 30
0.0
 11
960.16570728141676
 21
451.49060661695847
 31
0.0
  0
LINE
  5
2607
  8
1
 10
975.16570728141676
 20
464.89060661695828
 30
0.0
 11
975.16570728141676
 21
454.39060661695839
 31
0.0
  0
TEXT
  5
26DB
  8
0
 62
     3
 10
0.0
 20
0.0
 30
0.0
 40
10.0
  1
RS27S-500
  7
STANDARD1
  0
ENDSEC
  0
EOF
