  0
SECTION
  2
HEADER
  9
$ACADVER
  1
AC1009
  9
$INSBASE
 10
0.0
 20
0.0
 30
0.0
  9
$EXTMIN
 10
0.0
 20
-2.960436562073669
 30
0.0
  9
$EXTMAX
 10
781.89950657657801
 20
344.65937009482491
 30
0.0
  9
$LIMMIN
 10
0.0
 20
0.0
  9
$LIMMAX
 10
187.5
 20
135.0
  9
$ORTHOMODE
 70
     1
  9
$REGENMODE
 70
     1
  9
$FILLMODE
 70
     1
  9
$QTEXTMODE
 70
     0
  9
$MIRRTEXT
 70
     0
  9
$DRAGMODE
 70
     2
  9
$LTSCALE
 40
5.0
  9
$OSMODE
 70
    55
  9
$ATTMODE
 70
     1
  9
$TEXTSIZE
 40
2.5
  9
$TRACEWID
 40
0.05
  9
$TEXTSTYLE
  7
STANDARD
  9
$CLAYER
  8
0
  9
$CELTYPE
  6
BYLAYER
  9
$CECOLOR
 62
   256
  9
$DIMSCALE
 40
0.5
  9
$DIMASZ
 40
3.0
  9
$DIMEXO
 40
2.0
  9
$DIMDLI
 40
10.0
  9
$DIMRND
 40
0.0
  9
$DIMDLE
 40
0.0
  9
$DIMEXE
 40
2.0
  9
$DIMTP
 40
0.0
  9
$DIMTM
 40
0.0
  9
$DIMTXT
 40
3.0
  9
$DIMCEN
 40
0.09
  9
$DIMTSZ
 40
0.0
  9
$DIMTOL
 70
     0
  9
$DIMLIM
 70
     0
  9
$DIMTIH
 70
     0
  9
$DIMTOH
 70
     0
  9
$DIMSE1
 70
     0
  9
$DIMSE2
 70
     0
  9
$DIMTAD
 70
     1
  9
$DIMZIN
 70
     0
  9
$DIMBLK
  1

  9
$DIMASO
 70
     0
  9
$DIMSHO
 70
     0
  9
$DIMPOST
  1

  9
$DIMAPOST
  1

  9
$DIMALT
 70
     0
  9
$DIMALTD
 70
     2
  9
$DIMALTF
 40
25.399999999999999
  9
$DIMLFAC
 40
1.0
  9
$DIMTOFL
 70
     1
  9
$DIMTVP
 40
1.6000000000000001
  9
$DIMTIX
 70
     1
  9
$DIMSOXD
 70
     0
  9
$DIMSAH
 70
     0
  9
$DIMBLK1
  1

  9
$DIMBLK2
  1

  9
$DIMSTYLE
  2
STANDARD
  9
$DIMCLRD
 70
     0
  9
$DIMCLRE
 70
     0
  9
$DIMCLRT
 70
     0
  9
$DIMTFAC
 40
1.0
  9
$DIMGAP
 40
0.09
  9
$LUNITS
 70
     2
  9
$LUPREC
 70
     4
  9
$SKETCHINC
 40
0.1
  9
$FILLETRAD
 40
0.0
  9
$AUNITS
 70
     0
  9
$AUPREC
 70
     0
  9
$MENU
  1
E:\r13\win\SUPPORT\ACAD
  9
$ELEVATION
 40
0.0
  9
$PELEVATION
 40
0.0
  9
$THICKNESS
 40
0.0
  9
$LIMCHECK
 70
     0
  9
$BLIPMODE
 70
     0
  9
$CHAMFERA
 40
1.6000000000000001
  9
$CHAMFERB
 40
1.6000000000000001
  9
$SKPOLY
 70
     0
  9
$TDCREATE
 40
2449840.5944097228
  9
$TDUPDATE
 40
2456598.6041767239
  9
$TDINDWG
 40
0.131759838
  9
$TDUSRTIMER
 40
0.131759838
  9
$USRTIMER
 70
     1
  9
$ANGBASE
 50
0.0
  9
$ANGDIR
 70
     0
  9
$PDMODE
 70
     0
  9
$PDSIZE
 40
0.0
  9
$PLINEWID
 40
0.0
  9
$COORDS
 70
     1
  9
$SPLFRAME
 70
     0
  9
$SPLINETYPE
 70
     6
  9
$SPLINESEGS
 70
     8
  9
$ATTDIA
 70
     0
  9
$ATTREQ
 70
     1
  9
$HANDLING
 70
     1
  9
$HANDSEED
  5
32B4
  9
$SURFTAB1
 70
     6
  9
$SURFTAB2
 70
     6
  9
$SURFTYPE
 70
     6
  9
$SURFU
 70
     6
  9
$SURFV
 70
     6
  9
$UCSNAME
  2

  9
$UCSORG
 10
0.0
 20
0.0
 30
0.0
  9
$UCSXDIR
 10
1.0
 20
0.0
 30
0.0
  9
$UCSYDIR
 10
0.0
 20
1.0
 30
0.0
  9
$PUCSNAME
  2

  9
$PUCSORG
 10
0.0
 20
0.0
 30
0.0
  9
$PUCSXDIR
 10
1.0
 20
0.0
 30
0.0
  9
$PUCSYDIR
 10
0.0
 20
1.0
 30
0.0
  9
$USERI1
 70
     0
  9
$USERI2
 70
     1
  9
$USERI3
 70
     1
  9
$USERI4
 70
     0
  9
$USERI5
 70
     0
  9
$USERR1
 40
0.0
  9
$USERR2
 40
0.0
  9
$USERR3
 40
0.0
  9
$USERR4
 40
0.0
  9
$USERR5
 40
0.0
  9
$WORLDVIEW
 70
     1
  9
$SHADEDGE
 70
     3
  9
$SHADEDIF
 70
    70
  9
$TILEMODE
 70
     1
  9
$MAXACTVP
 70
    16
  9
$PLIMCHECK
 70
     0
  9
$PEXTMIN
 10
1.0000000000000000E+020
 20
1.0000000000000000E+020
 30
1.0000000000000000E+020
  9
$PEXTMAX
 10
-1.0000000000000000E+020
 20
-1.0000000000000000E+020
 30
-1.0000000000000000E+020
  9
$PLIMMIN
 10
0.0
 20
0.0
  9
$PLIMMAX
 10
12.0
 20
9.0
  9
$UNITMODE
 70
     0
  9
$VISRETAIN
 70
     0
  9
$PLINEGEN
 70
     0
  9
$PSLTSCALE
 70
     0
  0
ENDSEC
  0
SECTION
  2
TABLES
  0
TABLE
  2
VPORT
 70
     1
  0
VPORT
  2
*ACTIVE
 70
     0
 10
0.0
 20
0.0
 11
1.0
 21
1.0
 12
390.94975510879073
 22
248.8787490814494
 13
0.0
 23
0.0
 14
5.0
 24
5.0
 15
5.0
 25
5.0
 16
0.0
 26
0.0
 36
1.0
 17
0.0
 27
0.0
 37
0.0
 40
508.59492174536132
 41
1.7807262569832401
 42
50.0
 43
0.0
 44
0.0
 50
0.0
 51
0.0
 71
     0
 72
   100
 73
     1
 74
     0
 75
     0
 76
     0
 77
     0
 78
     0
  0
ENDTAB
  0
TABLE
  2
LTYPE
 70
     4
  0
LTYPE
  2
CONTINUOUS
 70
     0
  3
Solid Line
 72
    65
 73
     0
 40
0.0
  0
LTYPE
  2
CENTER
 70
     0
  3
____ _ ____ _ ____ _ ____ _ ____ _ ____ _ ____
 72
    65
 73
     4
 40
2.0
 49
1.25
 49
-0.25
 49
0.25
 49
-0.25
  0
LTYPE
  2
HIDDEN
 70
     0
  3
_ _ _ _ _ _ _ _ _ _ _ _ _ _ _ _ _ _ _ _ _ _ _
 72
    65
 73
     2
 40
0.375
 49
0.25
 49
-0.125
  0
LTYPE
  2
PHANTOM2
 70
     0
  3
___ _ _ ___ _ _ ___ _ _ ___ _ _
 72
    65
 73
     6
 40
1.25
 49
0.625
 49
-0.125
 49
0.125
 49
-0.125
 49
0.125
 49
-0.125
  0
ENDTAB
  0
TABLE
  2
LAYER
 70
     4
  0
LAYER
  2
0
 70
     0
 62
     7
  6
CONTINUOUS
  0
LAYER
  2
1
 70
     0
 62
     1
  6
CENTER
  0
LAYER
  2
2
 70
     0
 62
     2
  6
HIDDEN
  0
LAYER
  2
4
 70
     0
 62
     1
  6
CONTINUOUS
  0
ENDTAB
  0
TABLE
  2
STYLE
 70
     5
  0
STYLE
  2
STANDARD
 70
     0
 40
0.0
 41
1.0
 50
0.0
 71
     0
 42
2.5
  3
TXT
  4
BIGFONT
  0
STYLE
  2
KANJI
 70
     0
 40
0.0
 41
1.0
 50
0.0
 71
     0
 42
5.0
  3
TXT.SHX
  4
bigfont
  0
STYLE
  2
STYLE2
 70
     0
 40
13.0
 41
1.0
 50
0.0
 71
     0
 42
2.5
  3
C:\Program Files\AutoCAD LT\txt.shx
  4
C:\Program Files\AutoCAD LT\bigfont.shx
  0
STYLE
  2
STANDARD2
 70
     0
 40
8.0
 41
1.0
 50
0.0
 71
     0
 42
0.2
  3
C:\Program Files\AutoCAD LT\txt.shx
  4
C:\Program Files\AutoCAD LT\bigfont.shx
  0
STYLE
  2
STANDARD1
 70
     0
 40
0.0
 41
1.0
 50
0.0
 71
     0
 42
3.0
  3
txt
  4

  0
ENDTAB
  0
TABLE
  2
VIEW
 70
     1
  0
VIEW
  2
ALL
 70
     0
 40
135.0
 10
110.49579799999999
 20
67.5
 41
0.0
 11
0.0
 21
0.0
 31
1.0
 12
0.0
 22
0.0
 32
0.0
 42
0.0
 43
0.0
 44
0.0
 50
0.0
 71
     0
  0
ENDTAB
  0
TABLE
  2
UCS
 70
     0
  0
ENDTAB
  0
TABLE
  2
APPID
 70
     4
  0
APPID
  2
ACAD
 70
     0
  0
APPID
  2
DCO15
 70
     0
  0
APPID
  2
ACAD_MLEADERVER
 70
     0
  0
APPID
  2
ACAD_NAV_VCDISPLAY
 70
     0
  0
ENDTAB
  0
TABLE
  2
DIMSTYLE
 70
     1
  0
DIMSTYLE
  2
STANDARD
 70
     0
  3

  4

  5

  6

  7

 40
1.0
 41
0.18
 42
0.0625
 43
0.38
 44
0.18
 45
0.0
 46
0.0
 47
0.0
 48
0.0
140
0.18
141
0.09
142
0.0
143
25.399999999999999
144
1.0
145
0.0
146
1.0
147
0.09
 71
     0
 72
     0
 73
     1
 74
     1
 75
     0
 76
     0
 77
     0
 78
     0
170
     0
171
     2
172
     0
173
     0
174
     0
175
     0
176
     0
177
     0
178
     0
  0
ENDTAB
  0
ENDSEC
  0
SECTION
  2
BLOCKS
  0
BLOCK
  8
0
  2
$MODEL_SPACE
 70
     0
 10
0.0
 20
0.0
 30
0.0
  3
$MODEL_SPACE
  1

  0
ENDBLK
  5
15D
  8
0
  0
BLOCK
 67
     1
  8
0
  2
$PAPER_SPACE
 70
     0
 10
0.0
 20
0.0
 30
0.0
  3
$PAPER_SPACE
  1

  0
ENDBLK
  5
15B
 67
     1
  8
0
  0
BLOCK
  8
0
  2
STDGX5
 70
     0
 10
0.0
 20
0.0
 30
0.0
  3
STDGX5
  1

  0
ENDBLK
  5
41
  8
0
  0
ENDSEC
  0
SECTION
  2
ENTITIES
  0
INSERT
  5
CA
  8
0
  2
STDGX5
 10
0.0
 20
0.0
 30
0.0
  0
INSERT
  5
69A
  8
0
  2
STDGX5
 10
194.3272563481562
 20
13.52129245667936
 30
0.0
  0
INSERT
  5
1343
  8
0
  2
STDGX5
 10
563.10080863610574
 20
-59.557035590067017
 30
0.0
  0
INSERT
  5
1345
  8
0
  2
STDGX5
 10
757.42806498426194
 20
-46.035743133387648
 30
0.0
  0
POINT
  5
251A
  8
2
 10
440.49950657657791
 20
319.98437009482478
 30
0.0
  0
POINT
  5
251B
  8
0
 10
444.69950657657768
 20
319.98437009482478
 30
0.0
  0
POINT
  5
251C
  8
2
 10
307.09950657657782
 20
315.10589109482493
 30
0.0
  0
POINT
  5
251D
  8
2
 10
440.49950657657791
 20
319.98437009482478
 30
0.0
  0
POINT
  5
251E
  8
2
 10
302.49950657657791
 20
314.56214709482481
 30
0.0
  0
POINT
  5
251F
  8
2
 10
307.09950657657782
 20
314.56214709482481
 30
0.0
  0
POINT
  5
2520
  8
0
 10
139.89950657657801
 20
314.35937009482478
 30
0.0
  0
POINT
  5
2521
  8
0
 10
215.5995065765778
 20
318.12437009482483
 30
0.0
  0
POINT
  5
2522
  8
0
 10
139.89950657657801
 20
311.0946610948248
 30
0.0
  0
POINT
  5
2523
  8
0
 10
444.69950657657768
 20
309.30937009482483
 30
0.0
  0
POINT
  5
2524
  8
0
 10
609.29950657657764
 20
315.60589109482493
 30
0.0
  0
POINT
  5
2525
  8
0
 10
302.49950657657791
 20
309.30937009482483
 30
0.0
  0
POINT
  5
2526
  8
0
 10
696.19950657657773
 20
318.12437009482483
 30
0.0
  0
POINT
  5
2527
  8
0
 10
771.89950657657789
 20
317.15937009482479
 30
0.0
  0
POINT
  5
2528
  8
0
 10
467.09950657657782
 20
337.40831009482491
 30
0.0
  0
POINT
  5
2529
  8
0
 10
444.69950657657768
 20
336.79937009482489
 30
0.0
  0
POINT
  5
252A
  8
0
 10
471.29950657657758
 20
339.40659409482481
 30
0.0
  0
POINT
  5
252B
  8
0
 10
467.09950657657782
 20
339.40659409482481
 30
0.0
  0
POINT
  5
252C
  8
0
 10
139.89950657657801
 20
344.65937009482479
 30
0.0
  0
POINT
  5
252F
  8
0
 10
139.89950657657801
 20
344.65937009482479
 30
0.0
  0
POINT
  5
2530
  8
0
 10
467.09950657657782
 20
344.65937009482479
 30
0.0
  0
POINT
  5
2536
  8
0
 10
684.19950657657773
 20
309.30937009482483
 30
0.0
  0
POINT
  5
2537
  8
0
 10
771.89950657657789
 20
344.65937009482479
 30
0.0
  0
POINT
  5
2539
  8
0
 10
609.29950657657764
 20
341.77783209482482
 30
0.0
  0
POINT
  5
253A
  8
0
 10
604.69950657657773
 20
341.77783209482482
 30
0.0
  0
POINT
  5
253B
  8
0
 10
604.69950657657773
 20
339.40659409482481
 30
0.0
  0
POINT
  5
253C
  8
0
 10
471.29950657657758
 20
339.40659409482481
 30
0.0
  0
POINT
  5
253D
  8
0
 10
771.89950657657789
 20
344.65937009482479
 30
0.0
  0
POINT
  5
253E
  8
0
 10
467.09950657657782
 20
344.65937009482479
 30
0.0
  0
ARC
  5
2542
  8
0
 10
66.892377576577914
 20
337.7465940948249
 30
0.0
 40
1.659999999999999
 50
0.0
 51
131.5067160000028
  0
LINE
  5
2543
  8
0
 10
62.567748576577742
 20
338.86285009482481
 30
0.0
 11
61.952377576577867
 21
338.04622409482488
 31
0.0
  0
LINE
  5
2544
  8
0
 10
61.952377576577867
 20
338.04622409482488
 30
0.0
 11
61.952377576577867
 21
337.40831009482491
 31
0.0
  0
ARC
  5
2545
  8
0
 10
66.892377576577914
 20
337.7465940948249
 30
0.0
 40
0.11
 50
0.0
 51
131.5067160000028
  0
ARC
  5
2546
  8
0
 10
64.102377576577965
 20
340.8993700948248
 30
0.0
 40
2.5499999999999989
 50
232.99999999999821
 51
311.45000000000618
  0
ARC
  5
2547
  8
0
 10
64.102377576577965
 20
340.8993700948248
 30
0.0
 40
4.0999999999999988
 50
238.37279600001011
 51
311.50671600000288
  0
LINE
  5
2548
  8
0
 10
62.567748576577742
 20
315.10589109482493
 30
0.0
 11
61.952377576577867
 21
315.9225170948248
 31
0.0
  0
LINE
  5
2549
  8
0
 10
61.952377576577867
 20
315.9225170948248
 30
0.0
 11
61.952377576577867
 21
316.56043009482482
 31
0.0
  0
ARC
  5
254A
  8
0
 10
66.892377576577914
 20
316.22214709482489
 30
0.0
 40
1.659999999999999
 50
228.4932839999972
 51
0.0
  0
ARC
  5
254B
  8
0
 10
66.892377576577914
 20
316.22214709482489
 30
0.0
 40
0.11
 50
228.4932839999972
 51
0.0
  0
ARC
  5
254C
  8
0
 10
64.102377576577965
 20
313.06937009482488
 30
0.0
 40
4.0999999999999988
 50
48.493283999997161
 51
121.6272039999898
  0
ARC
  5
254D
  8
0
 10
64.102377576577965
 20
313.06937009482488
 30
0.0
 40
2.5499999999999989
 50
48.549999999993823
 51
127.00000000000171
  0
LINE
  5
254E
  8
0
 10
67.002377576578056
 20
316.22214709482489
 30
0.0
 11
67.002377576578056
 21
337.7465940948249
 31
0.0
  0
LINE
  5
254F
  8
0
 10
68.552377576577783
 20
316.22214709482489
 30
0.0
 11
68.552377576577783
 21
337.7465940948249
 31
0.0
  0
LINE
  5
2550
  8
0
 10
68.552377576577783
 20
316.22214709482489
 30
0.0
 11
68.552377576577783
 21
337.7465940948249
 31
0.0
  0
ARC
  5
2551
  8
0
 10
73.002377576578056
 20
340.8993700948248
 30
0.0
 40
4.0999999999999988
 50
228.4932839999972
 51
301.62720399998989
  0
ARC
  5
2552
  8
0
 10
73.002377576578056
 20
340.8993700948248
 30
0.0
 40
2.5499999999999989
 50
228.5499999999939
 51
307.00000000000182
  0
ARC
  5
2553
  8
0
 10
70.212377576578092
 20
337.7465940948249
 30
0.0
 40
0.11
 50
48.493283999997161
 51
180.0
  0
LINE
  5
2554
  8
0
 10
75.152377576577692
 20
338.04622409482488
 30
0.0
 11
75.152377576577692
 21
337.40831009482491
 31
0.0
  0
LINE
  5
2555
  8
0
 10
74.537005576577485
 20
338.86285009482481
 30
0.0
 11
75.152377576577692
 21
338.04622409482488
 31
0.0
  0
ARC
  5
2556
  8
0
 10
70.212377576578092
 20
337.7465940948249
 30
0.0
 40
1.659999999999999
 50
48.493283999997161
 51
180.0
  0
ARC
  5
2557
  8
0
 10
73.002377576578056
 20
313.06937009482488
 30
0.0
 40
2.5499999999999989
 50
52.999999999998252
 51
131.45000000000621
  0
ARC
  5
2558
  8
0
 10
73.002377576578056
 20
313.06937009482488
 30
0.0
 40
4.0999999999999988
 50
58.372796000010119
 51
131.5067160000028
  0
ARC
  5
2559
  8
0
 10
70.212377576578092
 20
316.22214709482489
 30
0.0
 40
0.11
 50
180.0
 51
311.50671600000288
  0
ARC
  5
255A
  8
0
 10
70.212377576578092
 20
316.22214709482489
 30
0.0
 40
1.659999999999999
 50
180.0
 51
311.50671600000288
  0
LINE
  5
255B
  8
0
 10
75.152377576577692
 20
315.9225170948248
 30
0.0
 11
75.152377576577692
 21
316.56043009482482
 31
0.0
  0
LINE
  5
255C
  8
0
 10
74.537005576577485
 20
315.10589109482493
 30
0.0
 11
75.152377576577692
 21
315.9225170948248
 31
0.0
  0
LINE
  5
255D
  8
0
 10
68.552377576577783
 20
316.22214709482489
 30
0.0
 11
68.552377576577783
 21
337.7465940948249
 31
0.0
  0
LINE
  5
255E
  8
0
 10
68.552377576577783
 20
316.22214709482489
 30
0.0
 11
68.552377576577783
 21
337.7465940948249
 31
0.0
  0
LINE
  5
255F
  8
0
 10
70.102377576577965
 20
316.22214709482489
 30
0.0
 11
70.102377576577965
 21
337.7465940948249
 31
0.0
  0
LINE
  5
2560
  8
2
 10
606.69950657657773
 20
314.56214709482481
 30
0.0
 11
606.69950657657773
 21
339.40659409482481
 31
0.0
  0
LINE
  5
2561
  8
0
 10
467.09950657657782
 20
339.40659409482481
 30
0.0
 11
467.09950657657782
 21
344.65937009482479
 31
0.0
  0
LINE
  5
2562
  8
0
 10
683.67528757657783
 20
311.0946610948248
 30
0.0
 11
684.19950657657773
 21
311.0946610948248
 31
0.0
  0
LINE
  5
2563
  8
0
 10
682.19950657657773
 20
342.87407909482488
 30
0.0
 11
771.89950657657789
 21
342.87407909482488
 31
0.0
  0
LINE
  5
2564
  8
0
 10
681.86410857657756
 20
309.30937009482483
 30
0.0
 11
683.67528757657783
 21
311.0946610948248
 31
0.0
  0
LINE
  5
2565
  8
0
 10
684.19950657657773
 20
309.30937009482483
 30
0.0
 11
684.19950657657773
 21
311.0946610948248
 31
0.0
  0
LINE
  5
2566
  8
2
 10
444.69950657657768
 20
314.56214709482481
 30
0.0
 11
302.49950657657791
 21
314.56214709482481
 31
0.0
  0
LINE
  5
2567
  8
2
 10
444.69950657657768
 20
339.40659409482481
 30
0.0
 11
302.49950657657791
 21
339.40659409482481
 31
0.0
  0
POLYLINE
  5
2568
  8
0
 66
     1
 10
0.0
 20
0.0
 30
0.0
  0
VERTEX
  5
2569
  8
0
 10
444.69950657657768
 20
315.10589109482493
 30
0.0
  0
VERTEX
  5
256A
  8
0
 10
604.29950657657764
 20
315.10589109482493
 30
0.0
  0
SEQEND
  5
256B
  8
0
  0
POLYLINE
  5
256C
  8
0
 66
     1
 10
0.0
 20
0.0
 30
0.0
  0
VERTEX
  5
256D
  8
0
 10
444.69950657657768
 20
338.86285009482481
 30
0.0
  0
VERTEX
  5
256E
  8
0
 10
604.29950657657764
 20
338.86285009482481
 30
0.0
  0
SEQEND
  5
256F
  8
0
  0
LINE
  5
2570
  8
0
 10
444.69950657657768
 20
333.98437009482478
 30
0.0
 11
444.69950657657768
 21
344.65937009482479
 31
0.0
  0
LINE
  5
2571
  8
0
 10
444.69950657657768
 20
333.98437009482478
 30
0.0
 11
444.69950657657768
 21
344.65937009482479
 31
0.0
  0
LINE
  5
2572
  8
0
 10
139.89950657657801
 20
344.65937009482479
 30
0.0
 11
139.89950657657801
 21
340.93437009482489
 31
0.0
  0
POINT
  5
2573
  8
0
 10
139.89950657657801
 20
344.63437009482482
 30
0.0
  0
POINT
  5
2574
  8
0
 10
139.89950657657801
 20
344.63437009482482
 30
0.0
  0
POINT
  5
2575
  8
0
 10
139.89950657657801
 20
344.63437009482482
 30
0.0
  0
POINT
  5
2576
  8
0
 10
139.89950657657801
 20
344.63437009482482
 30
0.0
  0
POINT
  5
2577
  8
0
 10
139.89950657657801
 20
344.63437009482482
 30
0.0
  0
POINT
  5
2578
  8
0
 10
139.89950657657801
 20
344.63437009482482
 30
0.0
  0
POINT
  5
2579
  8
0
 10
139.89950657657801
 20
344.63437009482482
 30
0.0
  0
POINT
  5
257A
  8
0
 10
139.89950657657801
 20
344.63437009482482
 30
0.0
  0
POINT
  5
257B
  8
0
 10
139.89950657657801
 20
344.63437009482482
 30
0.0
  0
LINE
  5
257C
  8
0
 10
139.89950657657801
 20
340.63437009482482
 30
0.0
 11
139.89950657657801
 21
344.63437009482482
 31
0.0
  0
LINE
  5
257D
  8
0
 10
139.89950657657801
 20
340.63437009482482
 30
0.0
 11
139.89950657657801
 21
344.63437009482482
 31
0.0
  0
LINE
  5
257E
  8
0
 10
139.89950657657801
 20
344.63437009482482
 30
0.0
 11
139.89950657657801
 21
340.93437009482489
 31
0.0
  0
POINT
  5
257F
  8
0
 10
139.89950657657801
 20
309.33437009482492
 30
0.0
  0
POINT
  5
2580
  8
0
 10
139.89950657657801
 20
309.33437009482492
 30
0.0
  0
LINE
  5
2581
  8
0
 10
139.89950657657801
 20
314.35937009482478
 30
0.0
 11
139.89950657657801
 21
309.30937009482483
 31
0.0
1001
ACAD
1000
ASC_BOUNDS
1002
{
1070
    19
1002
}
  0
LINE
  5
2582
  8
0
 10
139.89950657657801
 20
313.33437009482492
 30
0.0
 11
139.89950657657801
 21
309.33437009482492
 31
0.0
  0
LINE
  5
2583
  8
0
 10
139.89950657657801
 20
313.33437009482492
 30
0.0
 11
139.89950657657801
 21
309.33437009482492
 31
0.0
  0
LINE
  5
2584
  8
0
 10
139.89950657657801
 20
309.33437009482492
 30
0.0
 11
139.89950657657801
 21
313.03437009482479
 31
0.0
  0
LINE
  5
2585
  8
0
 10
139.89950657657801
 20
309.33437009482492
 30
0.0
 11
139.89950657657801
 21
313.03437009482479
 31
0.0
  0
LINE
  5
2586
  8
0
 10
139.89950657657801
 20
314.35937009482478
 30
0.0
 11
139.89950657657801
 21
309.30937009482483
 31
0.0
  0
LINE
  5
2587
  8
0
 10
139.89950657657801
 20
336.75937009482482
 30
0.0
 11
139.89950657657801
 21
317.15937009482479
 31
0.0
  0
LINE
  5
2588
  8
0
 10
139.89950657657801
 20
344.63437009482482
 30
0.0
 11
139.89950657657801
 21
339.55937009482483
 31
0.0
1001
ACAD
1000
ASC_BOUNDS
1002
{
1070
    19
1002
}
  0
LINE
  5
2589
  8
0
 10
139.89950657657801
 20
344.65937009482479
 30
0.0
 11
139.89950657657801
 21
339.55937009482483
 31
0.0
  0
ARC
  5
258A
  8
0
 10
142.39950657657801
 20
337.25937009482482
 30
0.0
 40
0.5
 50
270.0
 51
44.999999999995389
1001
ACAD
1000
ASC_BOUNDS
1002
{
1070
    19
1002
}
  0
ARC
  5
2597
  8
0
 10
142.39950657657801
 20
316.65937009482479
 30
0.0
 40
0.5
 50
315.0000000000046
 51
90.0
1001
ACAD
1000
ASC_BOUNDS
1002
{
1070
    19
1002
}
  0
LINE
  5
2598
  8
0
 10
141.49950657657789
 20
336.75937009482482
 30
0.0
 11
141.49950657657789
 21
317.15937009482479
 31
0.0
  0
LINE
  5
2599
  8
0
 10
209.1995065765777
 20
335.84437009482491
 30
0.0
 11
215.5995065765778
 21
335.84437009482491
 31
0.0
  0
LINE
  5
259A
  8
0
 10
209.1995065765777
 20
332.04437009482479
 30
0.0
 11
215.5995065765778
 21
332.04437009482479
 31
0.0
  0
LINE
  5
259B
  8
0
 10
209.1995065765777
 20
321.92437009482478
 30
0.0
 11
215.5995065765778
 21
321.92437009482478
 31
0.0
  0
LINE
  5
259C
  8
0
 10
213.5995065765778
 20
335.84437009482491
 30
0.0
 11
213.5995065765778
 21
332.04437009482479
 31
0.0
  0
LINE
  5
259D
  8
0
 10
215.5995065765778
 20
335.84437009482491
 30
0.0
 11
215.5995065765778
 21
332.04437009482479
 31
0.0
  0
LINE
  5
259E
  8
0
 10
209.1995065765777
 20
318.12437009482483
 30
0.0
 11
215.5995065765778
 21
318.12437009482483
 31
0.0
  0
LINE
  5
259F
  8
0
 10
213.5995065765778
 20
321.92437009482478
 30
0.0
 11
213.5995065765778
 21
318.12437009482483
 31
0.0
  0
LINE
  5
25A0
  8
0
 10
215.5995065765778
 20
321.92437009482478
 30
0.0
 11
215.5995065765778
 21
318.12437009482483
 31
0.0
  0
LINE
  5
25BF
  8
2
 10
442.09950657657782
 20
333.98437009482478
 30
0.0
 11
440.49950657657791
 21
333.98437009482478
 31
0.0
  0
LINE
  5
25C0
  8
2
 10
442.09950657657782
 20
334.48437009482478
 30
0.0
 11
440.49950657657791
 21
334.48437009482478
 31
0.0
  0
LINE
  5
25C1
  8
0
 10
444.69950657657768
 20
333.98437009482478
 30
0.0
 11
442.09950657657782
 21
334.48437009482478
 31
0.0
  0
LINE
  5
25C2
  8
0
 10
444.69950657657768
 20
309.33437009482492
 30
0.0
 11
444.69950657657768
 21
314.78555309482488
 31
0.0
  0
LINE
  5
25C3
  8
0
 10
444.69950657657768
 20
314.78555309482488
 30
0.0
 11
444.69950657657768
 21
309.33437009482492
 31
0.0
  0
LINE
  5
25C4
  8
0
 10
444.69950657657768
 20
314.78555309482488
 30
0.0
 11
444.69950657657768
 21
309.33437009482492
 31
0.0
  0
LINE
  5
25C5
  8
0
 10
444.69950657657768
 20
309.33437009482492
 30
0.0
 11
444.69950657657768
 21
314.78555309482488
 31
0.0
  0
LINE
  5
25C6
  8
0
 10
444.69950657657768
 20
309.33437009482492
 30
0.0
 11
444.69950657657768
 21
314.78555309482488
 31
0.0
  0
LINE
  5
25C7
  8
0
 10
444.69950657657768
 20
309.30937009482483
 30
0.0
 11
444.69950657657768
 21
314.78555309482488
 31
0.0
  0
POINT
  5
25C8
  8
0
 10
444.69950657657768
 20
309.33437009482492
 30
0.0
  0
POINT
  5
25C9
  8
0
 10
444.69950657657768
 20
309.33437009482492
 30
0.0
  0
LINE
  5
25CA
  8
2
 10
442.09950657657782
 20
319.48437009482478
 30
0.0
 11
440.49950657657791
 21
319.48437009482478
 31
0.0
  0
LINE
  5
25CB
  8
2
 10
442.09950657657782
 20
319.98437009482478
 30
0.0
 11
440.49950657657791
 21
319.98437009482478
 31
0.0
  0
LINE
  5
25CC
  8
0
 10
444.69950657657768
 20
319.98437009482478
 30
0.0
 11
442.09950657657782
 21
319.48437009482478
 31
0.0
  0
LINE
  5
25CD
  8
2
 10
440.49950657657791
 20
319.48437009482478
 30
0.0
 11
440.49950657657791
 21
334.48437009482478
 31
0.0
  0
LINE
  5
25CE
  8
0
 10
442.09950657657782
 20
319.48437009482478
 30
0.0
 11
442.09950657657782
 21
334.48437009482478
 31
0.0
  0
LINE
  5
25CF
  8
0
 10
444.69950657657768
 20
309.30937009482483
 30
0.0
 11
444.69950657657768
 21
319.98437009482478
 31
0.0
  0
LINE
  5
25D0
  8
2
 10
302.49950657657791
 20
314.56214709482481
 30
0.0
 11
302.49950657657791
 21
339.40659409482481
 31
0.0
  0
LINE
  5
25D1
  8
0
 10
444.69950657657768
 20
344.65937009482479
 30
0.0
 11
139.89950657657801
 21
344.65937009482479
 31
0.0
  0
LINE
  5
25D2
  8
0
 10
444.69950657657768
 20
309.30937009482483
 30
0.0
 11
139.89950657657801
 21
309.30937009482483
 31
0.0
  0
LINE
  5
25D3
  8
0
 10
142.75306057657781
 20
316.30581709482482
 30
0.0
 11
139.89950657657801
 21
314.35937009482478
 31
0.0
1001
ACAD
1000
ASC_BOUNDS
1002
{
1070
    19
1002
}
  0
LINE
  5
25D4
  8
0
 10
142.75306057657781
 20
337.6129240948249
 30
0.0
 11
139.89950657657801
 21
339.55937009482483
 31
0.0
1001
ACAD
1000
ASC_BOUNDS
1002
{
1070
    19
1002
}
  0
LINE
  5
25D5
  8
0
 10
142.39950657657801
 20
336.75937009482482
 30
0.0
 11
139.89950657657801
 21
336.75937009482482
 31
0.0
1001
ACAD
1000
ASC_BOUNDS
1002
{
1070
    19
1002
}
  0
LINE
  5
25D6
  8
0
 10
142.39950657657801
 20
317.15937009482479
 30
0.0
 11
139.89950657657801
 21
317.15937009482479
 31
0.0
1001
ACAD
1000
ASC_BOUNDS
1002
{
1070
    19
1002
}
  0
LINE
  5
25D7
  8
0
 10
696.19950657657773
 20
321.92437009482478
 30
0.0
 11
696.19950657657773
 21
318.12437009482483
 31
0.0
  0
LINE
  5
25D8
  8
0
 10
698.19950657657773
 20
321.92437009482478
 30
0.0
 11
698.19950657657773
 21
318.12437009482483
 31
0.0
  0
LINE
  5
25D9
  8
0
 10
702.59950657657782
 20
318.12437009482483
 30
0.0
 11
696.19950657657773
 21
318.12437009482483
 31
0.0
  0
LINE
  5
25DA
  8
0
 10
702.59950657657782
 20
321.92437009482478
 30
0.0
 11
696.19950657657773
 21
321.92437009482478
 31
0.0
  0
LINE
  5
25DB
  8
0
 10
702.59950657657782
 20
332.04437009482479
 30
0.0
 11
696.19950657657773
 21
332.04437009482479
 31
0.0
  0
LINE
  5
25DC
  8
0
 10
702.59950657657782
 20
335.84437009482491
 30
0.0
 11
696.19950657657773
 21
335.84437009482491
 31
0.0
  0
LINE
  5
25DD
  8
0
 10
698.19950657657773
 20
335.84437009482491
 30
0.0
 11
698.19950657657773
 21
332.04437009482479
 31
0.0
  0
LINE
  5
25DE
  8
0
 10
696.19950657657773
 20
335.84437009482491
 30
0.0
 11
696.19950657657773
 21
332.04437009482479
 31
0.0
  0
LINE
  5
25DF
  8
0
 10
444.69950657657768
 20
309.30937009482483
 30
0.0
 11
444.69950657657768
 21
319.98437009482478
 31
0.0
  0
LINE
  5
25E0
  8
2
 10
467.09950657657782
 20
333.98437009482478
 30
0.0
 11
469.69950657657768
 21
334.48437009482478
 31
0.0
  0
LINE
  5
25E1
  8
2
 10
469.69950657657768
 20
319.98437009482478
 30
0.0
 11
471.29950657657758
 21
319.98437009482478
 31
0.0
  0
LINE
  5
25E2
  8
2
 10
467.09950657657782
 20
319.98437009482478
 30
0.0
 11
469.69950657657768
 21
319.48437009482478
 31
0.0
  0
LINE
  5
25E3
  8
2
 10
469.69950657657768
 20
319.48437009482478
 30
0.0
 11
469.69950657657768
 21
334.48437009482478
 31
0.0
  0
LINE
  5
25E4
  8
2
 10
469.69950657657768
 20
333.98437009482478
 30
0.0
 11
471.29950657657758
 21
333.98437009482478
 31
0.0
  0
LINE
  5
25E5
  8
2
 10
469.69950657657768
 20
319.48437009482478
 30
0.0
 11
471.29950657657758
 21
319.48437009482478
 31
0.0
  0
LINE
  5
25E6
  8
2
 10
469.69950657657768
 20
334.48437009482478
 30
0.0
 11
471.29950657657758
 21
334.48437009482478
 31
0.0
  0
LINE
  5
25E7
  8
0
 10
770.29950657657764
 20
336.75937009482482
 30
0.0
 11
770.29950657657764
 21
317.15937009482479
 31
0.0
  0
LINE
  5
25E8
  8
0
 10
771.89950657657789
 20
314.35937009482478
 30
0.0
 11
771.89950657657789
 21
309.30937009482483
 31
0.0
  0
LINE
  5
25E9
  8
0
 10
771.89950657657789
 20
336.75937009482482
 30
0.0
 11
771.89950657657789
 21
317.15937009482479
 31
0.0
  0
LINE
  5
25EA
  8
0
 10
771.89950657657789
 20
344.65937009482479
 30
0.0
 11
771.89950657657789
 21
339.55937009482483
 31
0.0
  0
POINT
  5
25EB
  8
0
 10
602.63791657657737
 20
339.1831870948248
 30
0.0
  0
POINT
  5
25EC
  8
0
 10
602.63791657657737
 20
339.1831870948248
 30
0.0
  0
LINE
  5
25ED
  8
0
 10
604.29950657657764
 20
338.86285009482481
 30
0.0
 11
609.29950657657764
 21
338.36285009482481
 31
0.0
  0
LINE
  5
25EE
  8
0
 10
604.29950657657764
 20
337.40831009482491
 30
0.0
 11
609.29950657657764
 21
336.90831009482491
 31
0.0
  0
LINE
  5
25EF
  8
0
 10
604.29950657657764
 20
336.79937009482489
 30
0.0
 11
609.29950657657764
 21
336.29937009482478
 31
0.0
  0
LINE
  5
25F0
  8
0
 10
497.99950657657791
 20
339.40659409482481
 30
0.0
 11
609.29950657657764
 21
339.40659409482481
 31
0.0
  0
LINE
  5
25F1
  8
0
 10
486.9995065765778
 20
339.40659409482481
 30
0.0
 11
609.29950657657764
 21
339.40659409482481
 31
0.0
  0
POINT
  5
25F2
  8
0
 10
602.63791657657737
 20
314.78555309482488
 30
0.0
  0
POINT
  5
25F3
  8
0
 10
602.63791657657737
 20
314.78555309482488
 30
0.0
  0
LINE
  5
25F4
  8
0
 10
604.29950657657764
 20
316.56043009482482
 30
0.0
 11
609.29950657657764
 21
317.06043009482482
 31
0.0
  0
LINE
  5
25F5
  8
0
 10
604.29950657657764
 20
317.1693700948249
 30
0.0
 11
609.29950657657764
 21
317.66937009482479
 31
0.0
  0
LINE
  5
25F6
  8
0
 10
604.29950657657764
 20
317.1693700948249
 30
0.0
 11
609.29950657657764
 21
317.66937009482479
 31
0.0
  0
LINE
  5
25F7
  8
0
 10
604.29950657657764
 20
316.56043009482482
 30
0.0
 11
609.29950657657764
 21
317.06043009482482
 31
0.0
  0
LINE
  5
25F8
  8
0
 10
604.29950657657764
 20
315.10589109482493
 30
0.0
 11
609.29950657657764
 21
315.60589109482493
 31
0.0
  0
POINT
  5
25F9
  8
0
 10
602.63791657657737
 20
314.78555309482488
 30
0.0
  0
POINT
  5
25FA
  8
0
 10
602.63791657657737
 20
314.78555309482488
 30
0.0
  0
LINE
  5
25FB
  8
0
 10
486.9995065765778
 20
314.56214709482481
 30
0.0
 11
609.29950657657764
 21
314.56214709482481
 31
0.0
  0
LINE
  5
25FC
  8
0
 10
497.99950657657791
 20
314.56214709482481
 30
0.0
 11
609.29950657657764
 21
314.56214709482481
 31
0.0
  0
LINE
  5
25FD
  8
0
 10
486.9995065765778
 20
314.56214709482481
 30
0.0
 11
609.29950657657764
 21
314.56214709482481
 31
0.0
  0
LINE
  5
25FE
  8
0
 10
497.99950657657791
 20
314.56214709482481
 30
0.0
 11
609.29950657657764
 21
314.56214709482481
 31
0.0
  0
POLYLINE
  5
25FF
  8
2
 66
     1
 10
0.0
 20
0.0
 30
0.0
 70
     1
  0
VERTEX
  5
2600
  8
2
 10
480.99950657657791
 20
321.93437009482483
 30
0.0
 42
-1.0
  0
VERTEX
  5
2601
  8
2
 10
480.99950657657791
 20
332.03437009482479
 30
0.0
  0
VERTEX
  5
2602
  8
2
 10
483.59950657657782
 20
332.03437009482479
 30
0.0
 42
-1.0
  0
VERTEX
  5
2603
  8
2
 10
483.59950657657782
 20
321.93437009482483
 30
0.0
  0
SEQEND
  5
2604
  8
2
  0
LINE
  5
2605
  8
0
 10
609.29950657657764
 20
339.40659409482481
 30
0.0
 11
609.29950657657764
 21
314.56214709482481
 31
0.0
  0
LINE
  5
2606
  8
2
 10
305.49950657657791
 20
336.46263109482481
 30
0.0
 11
307.09950657657782
 21
336.98437009482478
 31
0.0
  0
LINE
  5
2607
  8
2
 10
305.49950657657791
 20
317.50610909482492
 30
0.0
 11
307.09950657657782
 21
316.98437009482478
 31
0.0
  0
LINE
  5
2608
  8
2
 10
305.49950657657791
 20
317.50610909482492
 30
0.0
 11
307.09950657657782
 21
316.98437009482478
 31
0.0
  0
LINE
  5
2609
  8
2
 10
305.49950657657791
 20
336.46263109482481
 30
0.0
 11
305.49950657657791
 21
317.50610909482492
 31
0.0
  0
LINE
  5
260A
  8
2
 10
307.09950657657782
 20
339.40659409482481
 30
0.0
 11
307.09950657657782
 21
314.56214709482481
 31
0.0
  0
POLYLINE
  5
260B
  8
0
 66
     1
 10
0.0
 20
0.0
 30
0.0
 70
     1
  0
VERTEX
  5
260C
  8
0
 10
428.19950657657768
 20
321.93437009482483
 30
0.0
 42
-1.0
  0
VERTEX
  5
260D
  8
0
 10
428.19950657657768
 20
332.03437009482479
 30
0.0
  0
VERTEX
  5
260E
  8
0
 10
430.79950657657758
 20
332.03437009482479
 30
0.0
 42
-1.0
  0
VERTEX
  5
260F
  8
0
 10
430.79950657657758
 20
321.93437009482483
 30
0.0
  0
SEQEND
  5
2610
  8
0
  0
LINE
  5
2611
  8
0
 10
486.9995065765778
 20
339.40659409482481
 30
0.0
 11
444.69950657657768
 21
339.40659409482481
 31
0.0
  0
LINE
  5
2612
  8
0
 10
444.69950657657768
 20
337.40831009482491
 30
0.0
 11
604.29950657657764
 21
337.40831009482491
 31
0.0
  0
LINE
  5
2613
  8
0
 10
446.69950657657768
 20
317.1693700948249
 30
0.0
 11
604.29950657657764
 21
317.1693700948249
 31
0.0
  0
LINE
  5
2614
  8
0
 10
446.69950657657768
 20
316.56043009482482
 30
0.0
 11
604.29950657657764
 21
316.56043009482482
 31
0.0
  0
LINE
  5
2615
  8
0
 10
486.9995065765778
 20
314.56214709482481
 30
0.0
 11
446.69950657657768
 21
314.56214709482481
 31
0.0
  0
LINE
  5
2616
  8
0
 10
444.69950657657768
 20
336.79937009482478
 30
0.0
 11
604.29950657657764
 21
336.79937009482489
 31
0.0
  0
LINE
  5
2617
  8
0
 10
444.69950657657768
 20
317.1693700948249
 30
0.0
 11
604.29950657657764
 21
317.1693700948249
 31
0.0
  0
LINE
  5
2618
  8
0
 10
444.69950657657768
 20
316.56043009482482
 30
0.0
 11
604.29950657657764
 21
316.56043009482482
 31
0.0
  0
LINE
  5
2619
  8
0
 10
486.9995065765778
 20
314.56214709482481
 30
0.0
 11
444.69950657657768
 21
314.56214709482492
 31
0.0
  0
LINE
  5
261A
  8
2
 10
604.69950657657773
 20
314.56214709482481
 30
0.0
 11
604.69950657657773
 21
339.40659409482481
 31
0.0
  0
LINE
  5
261B
  8
2
 10
471.29950657657758
 20
319.48437009482478
 30
0.0
 11
471.29950657657758
 21
334.48437009482478
 31
0.0
  0
LINE
  5
261C
  8
0
 10
771.89950657657789
 20
344.63437009482482
 30
0.0
 11
771.89950657657789
 21
340.93437009482489
 31
0.0
  0
LINE
  5
261D
  8
0
 10
771.89950657657789
 20
340.63437009482482
 30
0.0
 11
771.89950657657789
 21
344.63437009482482
 31
0.0
  0
LINE
  5
261E
  8
0
 10
771.89950657657789
 20
340.63437009482482
 30
0.0
 11
771.89950657657789
 21
344.63437009482482
 31
0.0
  0
POINT
  5
261F
  8
0
 10
771.89950657657789
 20
344.63437009482482
 30
0.0
  0
POINT
  5
2620
  8
0
 10
771.89950657657789
 20
344.63437009482482
 30
0.0
  0
POINT
  5
2621
  8
0
 10
771.89950657657789
 20
344.63437009482482
 30
0.0
  0
POINT
  5
2622
  8
0
 10
771.89950657657789
 20
344.63437009482482
 30
0.0
  0
POINT
  5
2623
  8
0
 10
771.89950657657789
 20
344.63437009482482
 30
0.0
  0
POINT
  5
2624
  8
0
 10
771.89950657657789
 20
344.63437009482482
 30
0.0
  0
POINT
  5
2625
  8
0
 10
771.89950657657789
 20
344.63437009482482
 30
0.0
  0
POINT
  5
2626
  8
0
 10
771.89950657657789
 20
344.63437009482482
 30
0.0
  0
POINT
  5
2627
  8
0
 10
771.89950657657789
 20
344.63437009482482
 30
0.0
  0
LINE
  5
2628
  8
0
 10
771.89950657657789
 20
344.65937009482479
 30
0.0
 11
771.89950657657789
 21
340.93437009482489
 31
0.0
  0
LINE
  5
2629
  8
0
 10
771.89950657657789
 20
344.63437009482482
 30
0.0
 11
771.89950657657789
 21
339.55937009482483
 31
0.0
1001
ACAD
1000
ASC_BOUNDS
1002
{
1070
    19
1002
}
  0
ARC
  5
2630
  8
0
 10
769.39950657657801
 20
337.25937009482482
 30
0.0
 40
0.5
 50
135.0000000000046
 51
270.0
1001
ACAD
1000
ASC_BOUNDS
1002
{
1070
    19
1002
}
  0
LINE
  5
2631
  8
0
 10
769.39950657657801
 20
336.75937009482482
 30
0.0
 11
771.89950657657789
 21
336.75937009482482
 31
0.0
1001
ACAD
1000
ASC_BOUNDS
1002
{
1070
    19
1002
}
  0
LINE
  5
2632
  8
0
 10
769.04595357657763
 20
337.6129240948249
 30
0.0
 11
771.89950657657789
 21
339.55937009482483
 31
0.0
1001
ACAD
1000
ASC_BOUNDS
1002
{
1070
    19
1002
}
  0
LINE
  5
2633
  8
0
 10
771.89950657657789
 20
309.33437009482492
 30
0.0
 11
771.89950657657789
 21
313.03437009482479
 31
0.0
  0
LINE
  5
2634
  8
0
 10
771.89950657657789
 20
309.33437009482492
 30
0.0
 11
771.89950657657789
 21
313.03437009482479
 31
0.0
  0
LINE
  5
2635
  8
0
 10
771.89950657657789
 20
313.33437009482492
 30
0.0
 11
771.89950657657789
 21
309.33437009482492
 31
0.0
  0
LINE
  5
2636
  8
0
 10
771.89950657657789
 20
313.33437009482492
 30
0.0
 11
771.89950657657789
 21
309.33437009482492
 31
0.0
  0
LINE
  5
2637
  8
0
 10
771.89950657657789
 20
314.35937009482478
 30
0.0
 11
771.89950657657789
 21
309.30937009482483
 31
0.0
1001
ACAD
1000
ASC_BOUNDS
1002
{
1070
    19
1002
}
  0
POINT
  5
2638
  8
0
 10
771.89950657657789
 20
309.33437009482492
 30
0.0
  0
POINT
  5
2639
  8
0
 10
771.89950657657789
 20
309.33437009482492
 30
0.0
  0
ARC
  5
263A
  8
0
 10
769.39950657657801
 20
316.65937009482479
 30
0.0
 40
0.5
 50
90.0
 51
224.9999999999954
1001
ACAD
1000
ASC_BOUNDS
1002
{
1070
    19
1002
}
  0
LINE
  5
263B
  8
0
 10
769.04595357657763
 20
316.30581709482482
 30
0.0
 11
771.89950657657789
 21
314.35937009482478
 31
0.0
1001
ACAD
1000
ASC_BOUNDS
1002
{
1070
    19
1002
}
  0
LINE
  5
263C
  8
0
 10
769.39950657657801
 20
317.15937009482479
 30
0.0
 11
771.89950657657789
 21
317.15937009482479
 31
0.0
1001
ACAD
1000
ASC_BOUNDS
1002
{
1070
    19
1002
}
  0
POINT
  5
2661
  8
0
 10
467.09950657657782
 20
309.33437009482492
 30
0.0
  0
POINT
  5
2662
  8
0
 10
467.09950657657782
 20
309.33437009482492
 30
0.0
  0
LINE
  5
2663
  8
0
 10
467.09950657657782
 20
309.30937009482483
 30
0.0
 11
467.09950657657782
 21
314.78555309482488
 31
0.0
  0
LINE
  5
2664
  8
0
 10
467.09950657657782
 20
309.33437009482492
 30
0.0
 11
467.09950657657782
 21
314.78555309482488
 31
0.0
  0
LINE
  5
2665
  8
0
 10
467.09950657657782
 20
309.33437009482492
 30
0.0
 11
467.09950657657782
 21
314.78555309482488
 31
0.0
  0
LINE
  5
2666
  8
0
 10
467.09950657657782
 20
314.78555309482488
 30
0.0
 11
467.09950657657782
 21
309.33437009482492
 31
0.0
  0
LINE
  5
2667
  8
0
 10
467.09950657657782
 20
314.78555309482488
 30
0.0
 11
467.09950657657782
 21
309.33437009482492
 31
0.0
  0
LINE
  5
2668
  8
0
 10
467.09950657657782
 20
309.33437009482492
 30
0.0
 11
467.09950657657782
 21
314.78555309482488
 31
0.0
  0
LINE
  5
2669
  8
0
 10
467.09950657657782
 20
309.30937009482483
 30
0.0
 11
467.09950657657782
 21
314.56214709482481
 31
0.0
  0
LINE
  5
266A
  8
0
 10
467.09950657657782
 20
309.30937009482483
 30
0.0
 11
771.89950657657789
 21
309.30937009482483
 31
0.0
  0
LINE
  5
266B
  8
0
 10
139.89950657657801
 20
312.19090909482492
 30
0.0
 11
444.69950657657768
 21
312.19090909482492
 31
0.0
  0
LINE
  5
266C
  8
0
 10
139.89950657657801
 20
311.09466109482491
 30
0.0
 11
444.69950657657768
 21
311.0946610948248
 31
0.0
  0
LINE
  5
266D
  8
0
 10
139.89950657657801
 20
342.87407909482488
 30
0.0
 11
444.69950657657762
 21
342.87407909482482
 31
0.0
  0
LINE
  5
266E
  8
0
 10
139.89950657657801
 20
341.77783209482487
 30
0.0
 11
444.69950657657768
 21
341.77783209482487
 31
0.0
  0
LINE
  5
266F
  8
0
 10
467.09950657657782
 20
344.65937009482479
 30
0.0
 11
771.89950657657789
 21
344.65937009482479
 31
0.0
  0
LINE
  5
2670
  8
1
 10
129.89950657657801
 20
326.9843700948249
 30
0.0
 11
781.89950657657801
 21
326.9843700948249
 31
0.0
  0
POINT
  5
2671
  8
0
 10
78.10237757657805
 20
313.42335209482491
 30
0.0
  0
LINE
  5
2672
  8
0
 10
78.10237757657805
 20
313.42335209482491
 30
0.0
 11
78.10237757657805
 21
340.54538809482477
 31
0.0
  0
ARC
  5
2673
  8
0
 10
73.002377576578056
 20
340.72937009482479
 30
0.0
 40
2.379999999999999
 50
188.56954700000199
 51
345.43045300000171
  0
ARC
  5
2674
  8
0
 10
73.10237757657805
 20
340.55937009482483
 30
0.0
 40
4.0999999999999988
 50
44.999999999995389
 51
135.0000000000046
  0
LINE
  5
2676
  8
0
 10
74.887644576577713
 20
342.2764220948248
 30
0.0
 11
76.38275357657767
 21
340.7184910948248
 31
0.0
  0
LINE
  5
2677
  8
0
 10
76.001514576577478
 20
343.45850809482482
 30
0.0
 11
77.60108457657779
 21
341.79172609482492
 31
0.0
  0
LINE
  5
2678
  8
0
 10
66.901515379443055
 20
343.45850789768951
 30
0.0
 11
67.462378190257454
 21
342.87407909482488
 31
0.0
  0
LINE
  5
267A
  8
0
 10
67.872811576577973
 20
340.94967509482478
 30
0.0
 11
67.898979576577844
 21
340.45036109482481
 31
0.0
  0
LINE
  5
267B
  8
0
 10
69.231942576577694
 20
340.94967509482478
 30
0.0
 11
69.205774576577824
 21
340.45036109482481
 31
0.0
  0
LINE
  5
267C
  8
0
 10
75.512844576577663
 20
340.11982109482477
 30
0.0
 11
69.205774576577824
 21
340.45036109482481
 31
0.0
  0
LINE
  5
267D
  8
0
 10
75.539012576577534
 20
340.61913609482491
 30
0.0
 11
69.231942576577694
 21
340.94967509482478
 31
0.0
  0
ARC
  5
267E
  8
0
 10
73.002377576578056
 20
340.72937009482479
 30
0.0
 40
2.379999999999999
 50
357.54585400000121
 51
176.45414600000061
  0
LINE
  5
267F
  8
0
 10
65.905267576577899
 20
342.36226109482482
 30
0.0
 11
66.466129576577714
 21
341.77783209482482
 31
0.0
  0
ARC
  5
2680
  8
0
 10
73.002377576578056
 20
340.55937009482483
 30
0.0
 40
2.5499999999999989
 50
42.326427999999758
 51
135.0000000000046
  0
LINE
  5
2681
  8
0
 10
71.199486576577783
 20
342.36226109482482
 30
0.0
 11
70.638624576577968
 21
341.77783209482482
 31
0.0
  0
LINE
  5
2682
  8
0
 10
70.203239773712966
 20
343.45850789768951
 30
0.0
 11
69.642377962899531
 21
342.87407909482488
 31
0.0
  0
ARC
  5
2683
  8
0
 10
76.202377576577874
 20
340.54538809482477
 30
0.0
 40
0.25
 50
0.0
 51
43.821186999997799
  0
ARC
  5
2684
  8
0
 10
75.502377576578056
 20
339.92009509482489
 30
0.0
 40
0.2
 50
0.0
 51
86.999999999994415
  0
ARC
  5
2685
  8
0
 10
75.502377576578056
 20
339.92009509482489
 30
0.0
 40
0.7
 50
0.0
 51
86.999999999994415
  0
ARC
  5
2686
  8
0
 10
60.80237757657769
 20
340.54538809482477
 30
0.0
 40
1.8
 50
136.17881300000221
 51
180.0
  0
LINE
  5
2687
  8
0
 10
61.103239576577749
 20
343.45850809482482
 30
0.0
 11
59.503669576577892
 21
341.79172609482492
 31
0.0
  0
LINE
  5
2688
  8
0
 10
62.217109576577968
 20
342.2764220948248
 30
0.0
 11
60.722001576577888
 21
340.7184910948248
 31
0.0
  0
ARC
  5
2689
  8
0
 10
60.902377576577692
 20
340.54538809482477
 30
0.0
 40
0.25
 50
136.17881300000221
 51
180.0
  0
ARC
  5
268A
  8
0
 10
61.602377576577958
 20
339.92009509482489
 30
0.0
 40
0.7
 50
93.000000000005585
 51
180.0
  0
ARC
  5
268B
  8
0
 10
61.602377576577958
 20
339.92009509482489
 30
0.0
 40
0.2
 50
93.000000000005585
 51
180.0
  0
ARC
  5
268C
  8
0
 10
64.102377576577965
 20
340.72937009482479
 30
0.0
 40
2.379999999999999
 50
194.56954699999829
 51
351.43045299999801
  0
ARC
  5
268D
  8
0
 10
64.00237757657797
 20
340.55937009482483
 30
0.0
 40
4.0999999999999988
 50
44.999999999995389
 51
135.0000000000046
  0
ARC
  5
268E
  8
0
 10
64.102377576577965
 20
340.72937009482479
 30
0.0
 40
2.379999999999999
 50
3.545853999999327
 51
182.45414599999879
  0
LINE
  5
268F
  8
0
 10
61.565741576577693
 20
340.61913609482491
 30
0.0
 11
67.872811576577973
 21
340.94967509482478
 31
0.0
  0
LINE
  5
2690
  8
0
 10
61.591909576578018
 20
340.11982109482477
 30
0.0
 11
67.898979576577844
 21
340.45036109482481
 31
0.0
  0
ARC
  5
2691
  8
0
 10
64.102377576577965
 20
340.55937009482483
 30
0.0
 40
2.5499999999999989
 50
44.999999999995389
 51
137.67357200000021
  0
LINE
  5
2692
  8
0
 10
76.001514576577478
 20
310.5102330948248
 30
0.0
 11
77.60108457657779
 21
312.17701409482481
 31
0.0
  0
LINE
  5
2693
  8
0
 10
74.887644576577713
 20
311.69231909482482
 30
0.0
 11
76.38275357657767
 21
313.25025009482488
 31
0.0
  0
LINE
  5
2694
  8
0
 10
71.199486576577783
 20
311.60648009482492
 30
0.0
 11
70.638624576577968
 21
312.1909090948248
 31
0.0
  0
LINE
  5
2696
  8
0
 10
70.203239576577374
 20
310.5102330948248
 30
0.0
 11
69.642377576577985
 21
311.09466109482491
 31
0.0
  0
ARC
  5
2697
  8
0
 10
73.10237757657805
 20
313.40937009482479
 30
0.0
 40
4.0999999999999988
 50
224.9999999999954
 51
315.0000000000046
  0
ARC
  5
2698
  8
0
 10
73.002377576578056
 20
313.40937009482479
 30
0.0
 40
2.5499999999999989
 50
224.9999999999954
 51
317.67357200000021
  0
ARC
  5
2699
  8
0
 10
76.202377576577874
 20
313.42335209482491
 30
0.0
 40
0.25
 50
316.17881300000209
 51
0.0
  0
LINE
  5
269B
  8
0
 10
66.901515379443055
 20
310.51023229196022
 30
0.0
 11
67.462379149935686
 21
311.09466109482491
 31
0.0
  0
LINE
  5
269C
  8
0
 10
65.905267576577899
 20
311.60648009482492
 30
0.0
 11
66.466129576577714
 21
312.1909090948248
 31
0.0
  0
ARC
  5
269D
  8
0
 10
73.802377576577783
 20
331.48437009482478
 30
0.0
 40
0.3
 50
90.0
 51
180.0
  0
LINE
  5
269E
  8
0
 10
75.402377576577692
 20
331.78437009482479
 30
0.0
 11
73.802377576577783
 21
331.78437009482479
 31
0.0
  0
ARC
  5
269F
  8
0
 10
75.402377576577692
 20
332.58437009482492
 30
0.0
 40
0.8
 50
270.0
 51
0.0
  0
ARC
  5
26A0
  8
0
 10
75.402377576577692
 20
332.58437009482492
 30
0.0
 40
0.3
 50
270.0
 51
0.0
  0
LINE
  5
26A1
  8
0
 10
75.402377576577692
 20
332.28437009482479
 30
0.0
 11
73.802377576577783
 21
332.28437009482479
 31
0.0
  0
ARC
  5
26A2
  8
0
 10
73.802377576577783
 20
331.48437009482478
 30
0.0
 40
0.8
 50
90.0
 51
180.0
  0
LINE
  5
26A3
  8
0
 10
73.502377576578056
 20
331.48437009482478
 30
0.0
 11
73.502377576578056
 21
322.4843700948249
 31
0.0
  0
LINE
  5
26A4
  8
0
 10
73.002377576578056
 20
331.48437009482478
 30
0.0
 11
73.002377576578056
 21
322.4843700948249
 31
0.0
  0
LINE
  5
26A5
  8
0
 10
76.202377576577874
 20
314.0486460948249
 30
0.0
 11
76.202377576577874
 21
321.38437009482482
 31
0.0
  0
LINE
  5
26A6
  8
0
 10
75.702377576577874
 20
314.0486460948249
 30
0.0
 11
75.702377576577874
 21
321.38437009482482
 31
0.0
  0
ARC
  5
26A7
  8
0
 10
75.402377576577692
 20
321.38437009482482
 30
0.0
 40
0.8
 50
0.0
 51
90.0
  0
LINE
  5
26A8
  8
0
 10
75.402377576577692
 20
322.18437009482489
 30
0.0
 11
73.802377576577783
 21
322.18437009482489
 31
0.0
  0
ARC
  5
26A9
  8
0
 10
73.802377576577783
 20
322.4843700948249
 30
0.0
 40
0.3
 50
180.0
 51
270.0
  0
ARC
  5
26AA
  8
0
 10
75.402377576577692
 20
321.38437009482482
 30
0.0
 40
0.3
 50
0.0
 51
90.0
  0
LINE
  5
26AB
  8
0
 10
75.402377576577692
 20
321.68437009482483
 30
0.0
 11
73.802377576577783
 21
321.68437009482483
 31
0.0
  0
ARC
  5
26AC
  8
0
 10
73.802377576577783
 20
322.4843700948249
 30
0.0
 40
0.8
 50
180.0
 51
270.0
  0
LINE
  5
26AD
  8
0
 10
69.231942576577694
 20
313.01906509482478
 30
0.0
 11
69.205774576577824
 21
313.51838009482481
 31
0.0
  0
LINE
  5
26AE
  8
0
 10
67.872811576577973
 20
313.01906509482478
 30
0.0
 11
67.898979576577844
 21
313.51838009482481
 31
0.0
  0
LINE
  5
26AF
  8
0
 10
75.512844576577663
 20
313.8489200948249
 30
0.0
 11
69.205774576577824
 21
313.51838009482481
 31
0.0
  0
ARC
  5
26B0
  8
0
 10
73.002377576578056
 20
313.23937009482478
 30
0.0
 40
2.379999999999999
 50
14.569546999998311
 51
171.43045299999801
  0
LINE
  5
26B1
  8
0
 10
75.539012576577534
 20
313.34960509482482
 30
0.0
 11
69.231942576577694
 21
313.01906509482478
 31
0.0
  0
ARC
  5
26B2
  8
0
 10
73.002377576578056
 20
313.23937009482478
 30
0.0
 40
2.379999999999999
 50
183.54585399999931
 51
2.454145999998802
  0
ARC
  5
26B3
  8
0
 10
75.502377576578056
 20
314.0486460948249
 30
0.0
 40
0.2
 50
273.00000000000563
 51
0.0
  0
ARC
  5
26B4
  8
0
 10
75.502377576578056
 20
314.0486460948249
 30
0.0
 40
0.7
 50
273.00000000000563
 51
0.0
  0
LINE
  5
26B5
  8
0
 10
63.602377576577958
 20
331.48437009482478
 30
0.0
 11
63.602377576577958
 21
322.4843700948249
 31
0.0
  0
LINE
  5
26B6
  8
0
 10
64.102377576577965
 20
331.48437009482478
 30
0.0
 11
64.102377576577965
 21
322.4843700948249
 31
0.0
  0
ARC
  5
26B7
  8
0
 10
60.80237757657769
 20
313.42335209482491
 30
0.0
 40
1.8
 50
180.0
 51
223.82118699999779
  0
LINE
  5
26B8
  8
0
 10
61.103239576577749
 20
310.5102330948248
 30
0.0
 11
59.503669576577892
 21
312.17701409482481
 31
0.0
  0
LINE
  5
26B9
  8
0
 10
62.217109576577968
 20
311.69231909482482
 30
0.0
 11
60.722001576577888
 21
313.25025009482488
 31
0.0
  0
ARC
  5
26BA
  8
0
 10
60.902377576577692
 20
313.42335209482491
 30
0.0
 40
0.25
 50
180.0
 51
223.82118699999779
  0
POINT
  5
26BB
  8
0
 10
59.00237757657797
 20
313.42335209482491
 30
0.0
  0
ARC
  5
26BC
  8
0
 10
61.702377576577867
 20
332.58437009482492
 30
0.0
 40
0.8
 50
180.0
 51
270.0
  0
ARC
  5
26BD
  8
0
 10
61.702377576577867
 20
332.58437009482492
 30
0.0
 40
0.3
 50
180.0
 51
270.0
  0
LINE
  5
26BE
  8
0
 10
61.702377576577867
 20
331.78437009482479
 30
0.0
 11
63.302377576577783
 21
331.78437009482479
 31
0.0
  0
LINE
  5
26BF
  8
0
 10
61.702377576577867
 20
332.28437009482479
 30
0.0
 11
63.302377576577783
 21
332.28437009482479
 31
0.0
  0
LINE
  5
26C0
  8
0
 10
60.902377576577692
 20
314.0486460948249
 30
0.0
 11
60.902377576577692
 21
321.38437009482482
 31
0.0
  0
LINE
  5
26C1
  8
0
 10
61.402377576577692
 20
314.0486460948249
 30
0.0
 11
61.402377576577692
 21
321.38437009482482
 31
0.0
  0
ARC
  5
26C2
  8
0
 10
61.702377576577867
 20
321.38437009482482
 30
0.0
 40
0.8
 50
90.0
 51
180.0
  0
ARC
  5
26C3
  8
0
 10
61.702377576577867
 20
321.38437009482482
 30
0.0
 40
0.3
 50
90.0
 51
180.0
  0
LINE
  5
26C4
  8
0
 10
61.702377576577867
 20
322.18437009482489
 30
0.0
 11
63.302377576577783
 21
322.18437009482489
 31
0.0
  0
LINE
  5
26C5
  8
0
 10
61.702377576577867
 20
321.68437009482483
 30
0.0
 11
63.302377576577783
 21
321.68437009482483
 31
0.0
  0
ARC
  5
26C6
  8
0
 10
61.602377576577958
 20
314.0486460948249
 30
0.0
 40
0.7
 50
180.0
 51
266.99999999999437
  0
ARC
  5
26C7
  8
0
 10
61.602377576577958
 20
314.0486460948249
 30
0.0
 40
0.2
 50
180.0
 51
266.99999999999437
  0
ARC
  5
26C8
  8
0
 10
63.302377576577783
 20
331.48437009482478
 30
0.0
 40
0.3
 50
0.0
 51
90.0
  0
ARC
  5
26C9
  8
0
 10
63.302377576577783
 20
331.48437009482478
 30
0.0
 40
0.8
 50
0.0
 51
90.0
  0
ARC
  5
26CA
  8
0
 10
63.302377576577783
 20
322.4843700948249
 30
0.0
 40
0.3
 50
270.0
 51
0.0
  0
ARC
  5
26CB
  8
0
 10
63.302377576577783
 20
322.4843700948249
 30
0.0
 40
0.8
 50
270.0
 51
0.0
  0
ARC
  5
26CC
  8
0
 10
64.00237757657797
 20
313.40937009482479
 30
0.0
 40
4.0999999999999988
 50
224.9999999999954
 51
315.0000000000046
  0
ARC
  5
26CD
  8
0
 10
64.102377576577965
 20
313.40937009482479
 30
0.0
 40
2.5499999999999989
 50
222.32642799999979
 51
315.0000000000046
  0
ARC
  5
26CE
  8
0
 10
64.102377576577965
 20
313.23937009482478
 30
0.0
 40
2.379999999999999
 50
8.5695470000019647
 51
165.43045300000159
  0
ARC
  5
26CF
  8
0
 10
64.102377576577965
 20
313.23937009482478
 30
0.0
 40
2.379999999999999
 50
177.54585400000121
 51
356.45414600000072
  0
LINE
  5
26D0
  8
0
 10
61.591909576578018
 20
313.8489200948249
 30
0.0
 11
67.898979576577844
 21
313.51838009482481
 31
0.0
  0
LINE
  5
26D1
  8
0
 10
61.565741576577693
 20
313.34960509482482
 30
0.0
 11
67.872811576577973
 21
313.01906509482478
 31
0.0
  0
LINE
  5
26D2
  8
0
 10
76.452377576577874
 20
313.42335209482491
 30
0.0
 11
76.452377576577874
 21
340.54538809482477
 31
0.0
  0
LINE
  5
26D3
  8
0
 10
60.652377576577692
 20
313.42335209482491
 30
0.0
 11
60.652377576577692
 21
340.54538809482477
 31
0.0
  0
LINE
  5
26D4
  8
0
 10
59.00237757657797
 20
313.42335209482491
 30
0.0
 11
59.00237757657797
 21
340.54538809482477
 31
0.0
  0
LINE
  5
26D5
  8
0
 10
60.902377576577692
 20
339.92009509482489
 30
0.0
 11
60.902377576577692
 21
332.58437009482492
 31
0.0
  0
LINE
  5
26D6
  8
0
 10
61.402377576577692
 20
339.92009509482489
 30
0.0
 11
61.402377576577692
 21
332.58437009482492
 31
0.0
  0
LINE
  5
26D7
  8
0
 10
76.202377576577874
 20
339.92009509482489
 30
0.0
 11
76.202377576577874
 21
332.58437009482492
 31
0.0
  0
LINE
  5
26D8
  8
0
 10
75.702377576577874
 20
339.92009509482489
 30
0.0
 11
75.702377576577874
 21
332.58437009482492
 31
0.0
  0
LINE
  5
26D9
  8
1
 10
54.102377576577958
 20
326.9843700948249
 30
0.0
 11
83.002377576578056
 21
326.9843700948249
 31
0.0
  0
ARC
  5
26DA
  8
0
 10
76.302377576577868
 20
313.42335209482491
 30
0.0
 40
1.8
 50
316.17881300000209
 51
0.0
  0
ARC
  5
26DB
  8
0
 10
76.302377576577868
 20
340.54538809482477
 30
0.0
 40
1.8
 50
0.0
 51
43.821186999997799
  0
ARC
  5
2848
  8
0
 10
155.79950657657781
 20
326.58437009482492
 30
0.0
 40
2.25
 50
180.0
 51
0.0
  0
LINE
  5
284C
  8
0
 10
158.0495065765779
 20
327.38437009482482
 30
0.0
 11
158.0495065765779
 21
326.58437009482492
 31
0.0
  0
LINE
  5
284D
  8
0
 10
153.54950657657781
 20
327.38437009482482
 30
0.0
 11
153.54950657657781
 21
326.58437009482492
 31
0.0
  0
ARC
  5
284E
  8
0
 10
155.79950657657781
 20
327.38437009482482
 30
0.0
 40
2.25
 50
0.0
 51
180.0
  0
LINE
  5
2851
  8
1
 10
155.79950657657781
 20
332.63437009482482
 30
0.0
 11
155.79950657657781
 21
321.33437009482492
 31
0.0
  0
LINE
  5
2853
  8
1
 10
168.49950657657789
 20
332.63437009482482
 30
0.0
 11
168.49950657657789
 21
321.33437009482492
 31
0.0
  0
ARC
  5
2854
  8
0
 10
168.49950657657789
 20
327.38437009482482
 30
0.0
 40
2.25
 50
0.0
 51
180.0
  0
ARC
  5
2855
  8
0
 10
168.49950657657789
 20
326.58437009482492
 30
0.0
 40
2.25
 50
180.0
 51
0.0
  0
LINE
  5
2856
  8
0
 10
166.24950657657789
 20
327.38437009482482
 30
0.0
 11
166.24950657657789
 21
326.58437009482492
 31
0.0
  0
LINE
  5
2857
  8
0
 10
170.74950657657789
 20
327.38437009482482
 30
0.0
 11
170.74950657657789
 21
326.58437009482492
 31
0.0
  0
LINE
  5
2859
  8
1
 10
279.59950657657782
 20
332.63437009482482
 30
0.0
 11
279.59950657657782
 21
321.33437009482492
 31
0.0
  0
ARC
  5
285A
  8
0
 10
279.1995065765779
 20
326.9843700948249
 30
0.0
 40
2.25
 50
90.0
 51
270.0
  0
LINE
  5
285B
  8
0
 10
279.1995065765779
 20
329.2343700948249
 30
0.0
 11
279.9995065765778
 21
329.2343700948249
 31
0.0
  0
LINE
  5
285C
  8
0
 10
279.1995065765779
 20
324.7343700948249
 30
0.0
 11
279.9995065765778
 21
324.7343700948249
 31
0.0
  0
ARC
  5
285D
  8
0
 10
279.9995065765778
 20
326.9843700948249
 30
0.0
 40
2.25
 50
270.0
 51
90.0
  0
ARC
  5
2860
  8
0
 10
318.09950657657771
 20
326.9843700948249
 30
0.0
 40
2.25
 50
270.0
 51
90.0
  0
ARC
  5
2861
  8
0
 10
317.2995065765777
 20
326.9843700948249
 30
0.0
 40
2.25
 50
90.0
 51
270.0
  0
LINE
  5
2862
  8
0
 10
317.2995065765777
 20
324.7343700948249
 30
0.0
 11
318.09950657657771
 21
324.7343700948249
 31
0.0
  0
LINE
  5
2863
  8
0
 10
317.2995065765777
 20
329.2343700948249
 30
0.0
 11
318.09950657657771
 21
329.2343700948249
 31
0.0
  0
LINE
  5
2864
  8
1
 10
317.69950657657768
 20
332.63437009482482
 30
0.0
 11
317.69950657657768
 21
321.33437009482492
 31
0.0
  0
LINE
  5
2B07
  8
1
 10
416.09950657657782
 20
332.63437009482482
 30
0.0
 11
416.09950657657782
 21
321.33437009482492
 31
0.0
  0
ARC
  5
2B08
  8
0
 10
416.09950657657782
 20
326.58437009482492
 30
0.0
 40
2.25
 50
180.0
 51
0.0
  0
ARC
  5
2B09
  8
0
 10
416.09950657657782
 20
327.38437009482482
 30
0.0
 40
2.25
 50
0.0
 51
180.0
  0
LINE
  5
2B0A
  8
0
 10
413.84950657657782
 20
327.38437009482482
 30
0.0
 11
413.84950657657782
 21
326.58437009482492
 31
0.0
  0
LINE
  5
2B0B
  8
0
 10
418.34950657657782
 20
327.38437009482482
 30
0.0
 11
418.34950657657782
 21
326.58437009482492
 31
0.0
  0
LINE
  5
2B0C
  8
1
 10
403.39950657657772
 20
332.63437009482482
 30
0.0
 11
403.39950657657772
 21
321.33437009482492
 31
0.0
  0
LINE
  5
2B0D
  8
0
 10
402.9995065765778
 20
329.2343700948249
 30
0.0
 11
403.7995065765777
 21
329.2343700948249
 31
0.0
  0
LINE
  5
2B0E
  8
0
 10
402.9995065765778
 20
324.7343700948249
 30
0.0
 11
403.7995065765777
 21
324.7343700948249
 31
0.0
  0
ARC
  5
2B0F
  8
0
 10
402.9995065765778
 20
326.9843700948249
 30
0.0
 40
2.25
 50
90.0
 51
270.0
  0
ARC
  5
2B10
  8
0
 10
403.7995065765777
 20
326.9843700948249
 30
0.0
 40
2.25
 50
270.0
 51
90.0
  0
LINE
  5
2B12
  8
0
 10
426.54950657657793
 20
327.38437009482482
 30
0.0
 11
426.54950657657793
 21
326.58437009482492
 31
0.0
  0
ARC
  5
2B13
  8
0
 10
428.79950657657793
 20
326.58437009482492
 30
0.0
 40
2.25
 50
180.0
 51
0.0
  0
ARC
  5
2B14
  8
0
 10
428.79950657657793
 20
327.38437009482482
 30
0.0
 40
2.25
 50
0.0
 51
180.0
  0
LINE
  5
2B15
  8
0
 10
431.04950657657793
 20
327.38437009482482
 30
0.0
 11
431.04950657657793
 21
326.58437009482492
 31
0.0
  0
LINE
  5
2B16
  8
1
 10
428.79950657657793
 20
332.63437009482482
 30
0.0
 11
428.79950657657793
 21
321.33437009482492
 31
0.0
  0
ARC
  5
2B19
  8
2
 10
482.9995065765778
 20
327.38437009482482
 30
0.0
 40
2.25
 50
0.0
 51
180.0
  0
ARC
  5
2B1A
  8
2
 10
482.9995065765778
 20
326.58437009482492
 30
0.0
 40
2.25
 50
180.0
 51
0.0
  0
LINE
  5
2B1B
  8
2
 10
480.7495065765778
 20
327.38437009482482
 30
0.0
 11
480.7495065765778
 21
326.58437009482492
 31
0.0
  0
LINE
  5
2B1C
  8
2
 10
485.2495065765778
 20
327.38437009482482
 30
0.0
 11
485.2495065765778
 21
326.58437009482492
 31
0.0
  0
LINE
  5
2B1D
  8
1
 10
482.9995065765778
 20
332.63437009482482
 30
0.0
 11
482.9995065765778
 21
321.33437009482492
 31
0.0
  0
ARC
  5
2B1E
  8
2
 10
495.69950657657768
 20
327.38437009482482
 30
0.0
 40
2.25
 50
0.0
 51
180.0
  0
LINE
  5
2B1F
  8
1
 10
495.69950657657768
 20
332.63437009482482
 30
0.0
 11
495.69950657657768
 21
321.33437009482492
 31
0.0
  0
ARC
  5
2B20
  8
2
 10
495.69950657657768
 20
326.58437009482492
 30
0.0
 40
2.25
 50
180.0
 51
0.0
  0
LINE
  5
2B21
  8
2
 10
493.44950657657768
 20
327.38437009482482
 30
0.0
 11
493.44950657657768
 21
326.58437009482492
 31
0.0
  0
LINE
  5
2B22
  8
2
 10
497.94950657657768
 20
327.38437009482482
 30
0.0
 11
497.94950657657768
 21
326.58437009482492
 31
0.0
  0
LINE
  5
2B23
  8
1
 10
508.39950657657772
 20
332.63437009482482
 30
0.0
 11
508.39950657657772
 21
321.33437009482492
 31
0.0
  0
ARC
  5
2B24
  8
2
 10
508.7995065765777
 20
326.9843700948249
 30
0.0
 40
2.25
 50
270.0
 51
90.0
  0
LINE
  5
2B25
  8
2
 10
507.99950657657769
 20
329.2343700948249
 30
0.0
 11
508.7995065765777
 21
329.2343700948249
 31
0.0
  0
LINE
  5
2B26
  8
2
 10
507.99950657657769
 20
324.7343700948249
 30
0.0
 11
508.7995065765777
 21
324.7343700948249
 31
0.0
  0
ARC
  5
2B27
  8
2
 10
507.99950657657769
 20
326.9843700948249
 30
0.0
 40
2.25
 50
90.0
 51
270.0
  0
LINE
  5
2B30
  8
1
 10
632.19950657657773
 20
332.63437009482482
 30
0.0
 11
632.19950657657773
 21
321.33437009482492
 31
0.0
  0
ARC
  5
2B31
  8
0
 10
631.79950657657776
 20
326.9843700948249
 30
0.0
 40
2.25
 50
90.0
 51
270.0
  0
LINE
  5
2B32
  8
0
 10
631.79950657657776
 20
324.7343700948249
 30
0.0
 11
632.59950657657771
 21
324.7343700948249
 31
0.0
  0
LINE
  5
2B33
  8
0
 10
631.79950657657776
 20
329.2343700948249
 30
0.0
 11
632.59950657657771
 21
329.2343700948249
 31
0.0
  0
ARC
  5
2B34
  8
0
 10
632.59950657657771
 20
326.9843700948249
 30
0.0
 40
2.25
 50
270.0
 51
90.0
  0
LINE
  5
2B35
  8
1
 10
594.09950657657782
 20
332.63437009482482
 30
0.0
 11
594.09950657657782
 21
321.33437009482492
 31
0.0
  0
ARC
  5
2B36
  8
2
 10
593.69950657657785
 20
326.9843700948249
 30
0.0
 40
2.25
 50
90.0
 51
270.0
  0
LINE
  5
2B37
  8
2
 10
593.69950657657785
 20
324.7343700948249
 30
0.0
 11
594.4995065765778
 21
324.7343700948249
 31
0.0
  0
LINE
  5
2B38
  8
2
 10
593.69950657657785
 20
329.2343700948249
 30
0.0
 11
594.4995065765778
 21
329.2343700948249
 31
0.0
  0
ARC
  5
2B39
  8
2
 10
594.4995065765778
 20
326.9843700948249
 30
0.0
 40
2.25
 50
270.0
 51
90.0
  0
LINE
  5
2B46
  8
1
 10
743.29950657657776
 20
332.63437009482482
 30
0.0
 11
743.29950657657776
 21
321.33437009482492
 31
0.0
  0
ARC
  5
2B47
  8
0
 10
743.29950657657776
 20
326.58437009482492
 30
0.0
 40
2.25
 50
180.0
 51
0.0
  0
ARC
  5
2B48
  8
0
 10
743.29950657657776
 20
327.38437009482482
 30
0.0
 40
2.25
 50
0.0
 51
180.0
  0
LINE
  5
2B49
  8
0
 10
741.04950657657776
 20
327.38437009482482
 30
0.0
 11
741.04950657657776
 21
326.58437009482492
 31
0.0
  0
LINE
  5
2B4A
  8
0
 10
745.54950657657776
 20
327.38437009482482
 30
0.0
 11
745.54950657657776
 21
326.58437009482492
 31
0.0
  0
LINE
  5
2B4B
  8
1
 10
755.99950657657791
 20
332.63437009482482
 30
0.0
 11
755.99950657657791
 21
321.33437009482492
 31
0.0
  0
ARC
  5
2B4C
  8
0
 10
755.99950657657791
 20
327.38437009482482
 30
0.0
 40
2.25
 50
0.0
 51
180.0
  0
ARC
  5
2B4D
  8
0
 10
755.99950657657791
 20
326.58437009482492
 30
0.0
 40
2.25
 50
180.0
 51
0.0
  0
LINE
  5
2B4E
  8
0
 10
753.74950657657791
 20
327.38437009482482
 30
0.0
 11
753.74950657657791
 21
326.58437009482492
 31
0.0
  0
LINE
  5
2B4F
  8
0
 10
758.24950657657791
 20
327.38437009482482
 30
0.0
 11
758.24950657657791
 21
326.58437009482492
 31
0.0
  0
LINE
  5
2B50
  8
0
 10
467.09950657657771
 20
342.87407909482482
 30
0.0
 11
682.19950657657773
 21
342.87407909482488
 31
0.0
  0
LINE
  5
2B51
  8
0
 10
467.09950657657782
 20
341.77783209482482
 30
0.0
 11
771.89950657657789
 21
341.77783209482482
 31
0.0
  0
LINE
  5
2B52
  8
0
 10
467.09950657657782
 20
311.09466109482469
 30
0.0
 11
771.89950657657789
 21
311.0946610948248
 31
0.0
  0
LINE
  5
2B53
  8
0
 10
467.09950657657782
 20
312.1909090948248
 30
0.0
 11
771.89950657657789
 21
312.1909090948248
 31
0.0
  0
LINE
  5
2B56
  8
0
 10
69.642377962899559
 20
342.87407909482488
 30
0.0
 11
70.638624576577968
 21
341.77783209482482
 31
0.0
  0
LINE
  5
2B57
  8
0
 10
66.466129576577771
 20
341.77783209482487
 30
0.0
 11
67.462378190257454
 21
342.87407909482488
 31
0.0
  0
LINE
  5
2B5A
  8
0
 10
66.466129576577643
 20
312.19090909482492
 30
0.0
 11
67.462379149935657
 21
311.09466109482491
 31
0.0
  0
LINE
  5
2B5B
  8
0
 10
69.642377576577985
 20
311.09466109482491
 30
0.0
 11
70.638624576577968
 21
312.1909090948248
 31
0.0
  0
LINE
  5
3165
  8
2
 10
467.09950657657782
 20
339.40659409482481
 30
0.0
 11
467.09950657657782
 21
333.98437009482478
 31
0.0
  0
LINE
  5
3166
  8
2
 10
467.09950657657782
 20
319.98437009482478
 30
0.0
 11
467.09950657657782
 21
314.78555309482488
 31
0.0
  0
TEXT
  5
3219
  8
0
 62
     3
 10
0.0
 20
0.0
 30
0.0
 40
10.0
  1
RS35D-12
  7
STANDARD1
  0
ENDSEC
  0
EOF
