  0
SECTION
  2
HEADER
  9
$ACADVER
  1
AC1009
  9
$INSBASE
 10
0.0
 20
0.0
 30
0.0
  9
$EXTMIN
 10
0.0
 20
-2.960436562073669
 30
0.0
  9
$EXTMAX
 10
1100.77055693273
 20
438.11309479084969
 30
0.0
  9
$LIMMIN
 10
0.0
 20
0.0
  9
$LIMMAX
 10
187.5
 20
135.0
  9
$ORTHOMODE
 70
     1
  9
$REGENMODE
 70
     1
  9
$FILLMODE
 70
     1
  9
$QTEXTMODE
 70
     0
  9
$MIRRTEXT
 70
     0
  9
$DRAGMODE
 70
     2
  9
$LTSCALE
 40
5.0
  9
$OSMODE
 70
    55
  9
$ATTMODE
 70
     1
  9
$TEXTSIZE
 40
2.5
  9
$TRACEWID
 40
0.05
  9
$TEXTSTYLE
  7
STANDARD
  9
$CLAYER
  8
2
  9
$CELTYPE
  6
BYLAYER
  9
$CECOLOR
 62
   256
  9
$DIMSCALE
 40
0.5
  9
$DIMASZ
 40
3.0
  9
$DIMEXO
 40
2.0
  9
$DIMDLI
 40
10.0
  9
$DIMRND
 40
0.0
  9
$DIMDLE
 40
0.0
  9
$DIMEXE
 40
2.0
  9
$DIMTP
 40
0.0
  9
$DIMTM
 40
0.0
  9
$DIMTXT
 40
3.0
  9
$DIMCEN
 40
0.09
  9
$DIMTSZ
 40
0.0
  9
$DIMTOL
 70
     0
  9
$DIMLIM
 70
     0
  9
$DIMTIH
 70
     0
  9
$DIMTOH
 70
     0
  9
$DIMSE1
 70
     0
  9
$DIMSE2
 70
     0
  9
$DIMTAD
 70
     1
  9
$DIMZIN
 70
     0
  9
$DIMBLK
  1

  9
$DIMASO
 70
     0
  9
$DIMSHO
 70
     0
  9
$DIMPOST
  1

  9
$DIMAPOST
  1

  9
$DIMALT
 70
     0
  9
$DIMALTD
 70
     2
  9
$DIMALTF
 40
25.399999999999999
  9
$DIMLFAC
 40
1.0
  9
$DIMTOFL
 70
     1
  9
$DIMTVP
 40
1.6000000000000001
  9
$DIMTIX
 70
     1
  9
$DIMSOXD
 70
     0
  9
$DIMSAH
 70
     0
  9
$DIMBLK1
  1

  9
$DIMBLK2
  1

  9
$DIMSTYLE
  2
STANDARD
  9
$DIMCLRD
 70
     0
  9
$DIMCLRE
 70
     0
  9
$DIMCLRT
 70
     0
  9
$DIMTFAC
 40
1.0
  9
$DIMGAP
 40
0.09
  9
$LUNITS
 70
     2
  9
$LUPREC
 70
     4
  9
$SKETCHINC
 40
0.1
  9
$FILLETRAD
 40
0.0
  9
$AUNITS
 70
     0
  9
$AUPREC
 70
     0
  9
$MENU
  1
E:\r13\win\SUPPORT\ACAD
  9
$ELEVATION
 40
0.0
  9
$PELEVATION
 40
0.0
  9
$THICKNESS
 40
0.0
  9
$LIMCHECK
 70
     0
  9
$BLIPMODE
 70
     0
  9
$CHAMFERA
 40
1.6000000000000001
  9
$CHAMFERB
 40
1.6000000000000001
  9
$SKPOLY
 70
     0
  9
$TDCREATE
 40
2449840.5944097228
  9
$TDUPDATE
 40
2456598.6044439469
  9
$TDINDWG
 40
0.1614675926
  9
$TDUSRTIMER
 40
0.1614675926
  9
$USRTIMER
 70
     1
  9
$ANGBASE
 50
0.0
  9
$ANGDIR
 70
     0
  9
$PDMODE
 70
     0
  9
$PDSIZE
 40
0.0
  9
$PLINEWID
 40
0.0
  9
$COORDS
 70
     1
  9
$SPLFRAME
 70
     0
  9
$SPLINETYPE
 70
     6
  9
$SPLINESEGS
 70
     8
  9
$ATTDIA
 70
     0
  9
$ATTREQ
 70
     1
  9
$HANDLING
 70
     1
  9
$HANDSEED
  5
407A
  9
$SURFTAB1
 70
     6
  9
$SURFTAB2
 70
     6
  9
$SURFTYPE
 70
     6
  9
$SURFU
 70
     6
  9
$SURFV
 70
     6
  9
$UCSNAME
  2

  9
$UCSORG
 10
0.0
 20
0.0
 30
0.0
  9
$UCSXDIR
 10
1.0
 20
0.0
 30
0.0
  9
$UCSYDIR
 10
0.0
 20
1.0
 30
0.0
  9
$PUCSNAME
  2

  9
$PUCSORG
 10
0.0
 20
0.0
 30
0.0
  9
$PUCSXDIR
 10
1.0
 20
0.0
 30
0.0
  9
$PUCSYDIR
 10
0.0
 20
1.0
 30
0.0
  9
$USERI1
 70
     0
  9
$USERI2
 70
     1
  9
$USERI3
 70
     1
  9
$USERI4
 70
     0
  9
$USERI5
 70
     0
  9
$USERR1
 40
0.0
  9
$USERR2
 40
0.0
  9
$USERR3
 40
0.0
  9
$USERR4
 40
0.0
  9
$USERR5
 40
0.0
  9
$WORLDVIEW
 70
     1
  9
$SHADEDGE
 70
     3
  9
$SHADEDIF
 70
    70
  9
$TILEMODE
 70
     1
  9
$MAXACTVP
 70
    16
  9
$PLIMCHECK
 70
     0
  9
$PEXTMIN
 10
1.0000000000000000E+020
 20
1.0000000000000000E+020
 30
1.0000000000000000E+020
  9
$PEXTMAX
 10
-1.0000000000000000E+020
 20
-1.0000000000000000E+020
 30
-1.0000000000000000E+020
  9
$PLIMMIN
 10
0.0
 20
0.0
  9
$PLIMMAX
 10
12.0
 20
9.0
  9
$UNITMODE
 70
     0
  9
$VISRETAIN
 70
     0
  9
$PLINEGEN
 70
     0
  9
$PSLTSCALE
 70
     0
  0
ENDSEC
  0
SECTION
  2
TABLES
  0
TABLE
  2
VPORT
 70
     1
  0
VPORT
  2
*ACTIVE
 70
     0
 10
0.0
 20
0.0
 11
1.0
 21
1.0
 12
550.38528102929627
 22
316.58278153085178
 13
0.0
 23
0.0
 14
5.0
 24
5.0
 15
5.0
 25
5.0
 16
0.0
 26
0.0
 36
1.0
 17
0.0
 27
0.0
 37
0.0
 40
645.32586919069354
 41
1.7807262569832401
 42
50.0
 43
0.0
 44
0.0
 50
0.0
 51
0.0
 71
     0
 72
   100
 73
     1
 74
     0
 75
     0
 76
     0
 77
     0
 78
     0
  0
ENDTAB
  0
TABLE
  2
LTYPE
 70
     4
  0
LTYPE
  2
CONTINUOUS
 70
     0
  3
Solid Line
 72
    65
 73
     0
 40
0.0
  0
LTYPE
  2
CENTER
 70
     0
  3
____ _ ____ _ ____ _ ____ _ ____ _ ____ _ ____
 72
    65
 73
     4
 40
2.0
 49
1.25
 49
-0.25
 49
0.25
 49
-0.25
  0
LTYPE
  2
HIDDEN
 70
     0
  3
_ _ _ _ _ _ _ _ _ _ _ _ _ _ _ _ _ _ _ _ _ _ _
 72
    65
 73
     2
 40
0.375
 49
0.25
 49
-0.125
  0
LTYPE
  2
PHANTOM2
 70
     0
  3
___ _ _ ___ _ _ ___ _ _ ___ _ _
 72
    65
 73
     6
 40
1.25
 49
0.625
 49
-0.125
 49
0.125
 49
-0.125
 49
0.125
 49
-0.125
  0
ENDTAB
  0
TABLE
  2
LAYER
 70
     4
  0
LAYER
  2
0
 70
     0
 62
     7
  6
CONTINUOUS
  0
LAYER
  2
1
 70
     0
 62
     1
  6
CENTER
  0
LAYER
  2
2
 70
     0
 62
     2
  6
HIDDEN
  0
LAYER
  2
4
 70
     0
 62
     1
  6
CONTINUOUS
  0
ENDTAB
  0
TABLE
  2
STYLE
 70
     5
  0
STYLE
  2
STANDARD
 70
     0
 40
0.0
 41
1.0
 50
0.0
 71
     0
 42
2.5
  3
TXT
  4
BIGFONT
  0
STYLE
  2
KANJI
 70
     0
 40
0.0
 41
1.0
 50
0.0
 71
     0
 42
5.0
  3
TXT.SHX
  4
bigfont
  0
STYLE
  2
STYLE2
 70
     0
 40
13.0
 41
1.0
 50
0.0
 71
     0
 42
2.5
  3
C:\Program Files\AutoCAD LT\txt.shx
  4
C:\Program Files\AutoCAD LT\bigfont.shx
  0
STYLE
  2
STANDARD2
 70
     0
 40
8.0
 41
1.0
 50
0.0
 71
     0
 42
0.2
  3
C:\Program Files\AutoCAD LT\txt.shx
  4
C:\Program Files\AutoCAD LT\bigfont.shx
  0
STYLE
  2
STANDARD1
 70
     0
 40
0.0
 41
1.0
 50
0.0
 71
     0
 42
3.0
  3
txt
  4

  0
ENDTAB
  0
TABLE
  2
VIEW
 70
     1
  0
VIEW
  2
ALL
 70
     0
 40
135.0
 10
110.49579799999999
 20
67.5
 41
0.0
 11
0.0
 21
0.0
 31
1.0
 12
0.0
 22
0.0
 32
0.0
 42
0.0
 43
0.0
 44
0.0
 50
0.0
 71
     0
  0
ENDTAB
  0
TABLE
  2
UCS
 70
     0
  0
ENDTAB
  0
TABLE
  2
APPID
 70
     4
  0
APPID
  2
ACAD
 70
     0
  0
APPID
  2
DCO15
 70
     0
  0
APPID
  2
ACAD_MLEADERVER
 70
     0
  0
APPID
  2
ACAD_NAV_VCDISPLAY
 70
     0
  0
ENDTAB
  0
TABLE
  2
DIMSTYLE
 70
     1
  0
DIMSTYLE
  2
STANDARD
 70
     0
  3

  4

  5

  6

  7

 40
1.0
 41
0.18
 42
0.0625
 43
0.38
 44
0.18
 45
0.0
 46
0.0
 47
0.0
 48
0.0
140
0.18
141
0.09
142
0.0
143
25.399999999999999
144
1.0
145
0.0
146
1.0
147
0.09
 71
     0
 72
     0
 73
     1
 74
     1
 75
     0
 76
     0
 77
     0
 78
     0
170
     0
171
     2
172
     0
173
     0
174
     0
175
     0
176
     0
177
     0
178
     0
  0
ENDTAB
  0
ENDSEC
  0
SECTION
  2
BLOCKS
  0
BLOCK
  8
0
  2
$MODEL_SPACE
 70
     0
 10
0.0
 20
0.0
 30
0.0
  3
$MODEL_SPACE
  1

  0
ENDBLK
  5
15D
  8
0
  0
BLOCK
 67
     1
  8
0
  2
$PAPER_SPACE
 70
     0
 10
0.0
 20
0.0
 30
0.0
  3
$PAPER_SPACE
  1

  0
ENDBLK
  5
15B
 67
     1
  8
0
  0
BLOCK
  8
0
  2
STDGX5
 70
     0
 10
0.0
 20
0.0
 30
0.0
  3
STDGX5
  1

  0
ENDBLK
  5
41
  8
0
  0
ENDSEC
  0
SECTION
  2
ENTITIES
  0
INSERT
  5
CA
  8
0
  2
STDGX5
 10
0.0
 20
0.0
 30
0.0
  0
INSERT
  5
69A
  8
0
  2
STDGX5
 10
194.3272563481562
 20
13.52129245667936
 30
0.0
  0
INSERT
  5
1343
  8
0
  2
STDGX5
 10
563.10080863610574
 20
-59.557035590067017
 30
0.0
  0
INSERT
  5
1345
  8
0
  2
STDGX5
 10
757.42806498426194
 20
-46.035743133387648
 30
0.0
  0
ARC
  5
2542
  8
0
 10
77.960556932730015
 20
431.20031879084968
 30
0.0
 40
1.659999999999999
 50
0.0
 51
131.5067160000028
  0
LINE
  5
2543
  8
0
 10
73.635927932729814
 20
432.3165747908497
 30
0.0
 11
73.02055693272996
 21
431.49994879084971
 31
0.0
  0
LINE
  5
2544
  8
0
 10
73.02055693272996
 20
431.49994879084971
 30
0.0
 11
73.02055693272996
 21
430.86203479084969
 31
0.0
  0
ARC
  5
2545
  8
0
 10
77.960556932730015
 20
431.20031879084968
 30
0.0
 40
0.11
 50
0.0
 51
131.5067160000028
  0
ARC
  5
2546
  8
0
 10
75.170556932730051
 20
434.35309479084958
 30
0.0
 40
2.5499999999999989
 50
232.99999999999821
 51
311.45000000000618
  0
ARC
  5
2547
  8
0
 10
75.170556932730051
 20
434.35309479084958
 30
0.0
 40
4.0999999999999988
 50
238.37279600001011
 51
311.50671600000288
  0
LINE
  5
2548
  8
0
 10
73.635927932729814
 20
408.5596157908497
 30
0.0
 11
73.02055693272996
 21
409.37624179084969
 31
0.0
  0
LINE
  5
2549
  8
0
 10
73.02055693272996
 20
409.37624179084969
 30
0.0
 11
73.02055693272996
 21
410.01415479084972
 31
0.0
  0
ARC
  5
254A
  8
0
 10
77.960556932730015
 20
409.67587179084973
 30
0.0
 40
1.659999999999999
 50
228.4932839999972
 51
0.0
  0
ARC
  5
254B
  8
0
 10
77.960556932730015
 20
409.67587179084973
 30
0.0
 40
0.11
 50
228.4932839999972
 51
0.0
  0
ARC
  5
254C
  8
0
 10
75.170556932730051
 20
406.52309479084983
 30
0.0
 40
4.0999999999999988
 50
48.493283999997161
 51
121.6272039999898
  0
ARC
  5
254D
  8
0
 10
75.170556932730051
 20
406.52309479084983
 30
0.0
 40
2.5499999999999989
 50
48.549999999993823
 51
127.00000000000171
  0
LINE
  5
254E
  8
0
 10
78.070556932730142
 20
409.67587179084973
 30
0.0
 11
78.070556932730142
 21
431.20031879084968
 31
0.0
  0
LINE
  5
254F
  8
0
 10
79.620556932729855
 20
409.67587179084973
 30
0.0
 11
79.620556932729855
 21
431.20031879084968
 31
0.0
  0
LINE
  5
2550
  8
0
 10
79.620556932729855
 20
409.67587179084973
 30
0.0
 11
79.620556932729855
 21
431.20031879084968
 31
0.0
  0
ARC
  5
2551
  8
0
 10
84.070556932730128
 20
434.35309479084958
 30
0.0
 40
4.0999999999999988
 50
228.4932839999972
 51
301.62720399998989
  0
ARC
  5
2552
  8
0
 10
84.070556932730128
 20
434.35309479084958
 30
0.0
 40
2.5499999999999989
 50
228.5499999999939
 51
307.00000000000182
  0
ARC
  5
2553
  8
0
 10
81.280556932730164
 20
431.20031879084968
 30
0.0
 40
0.11
 50
48.493283999997161
 51
180.0
  0
LINE
  5
2554
  8
0
 10
86.220556932729778
 20
431.49994879084971
 30
0.0
 11
86.220556932729778
 21
430.86203479084969
 31
0.0
  0
LINE
  5
2555
  8
0
 10
85.605184932729557
 20
432.3165747908497
 30
0.0
 11
86.220556932729778
 21
431.49994879084971
 31
0.0
  0
ARC
  5
2556
  8
0
 10
81.280556932730164
 20
431.20031879084968
 30
0.0
 40
1.659999999999999
 50
48.493283999997161
 51
180.0
  0
ARC
  5
2557
  8
0
 10
84.070556932730128
 20
406.52309479084983
 30
0.0
 40
2.5499999999999989
 50
52.999999999998252
 51
131.45000000000621
  0
ARC
  5
2558
  8
0
 10
84.070556932730128
 20
406.52309479084983
 30
0.0
 40
4.0999999999999988
 50
58.372796000010119
 51
131.5067160000028
  0
ARC
  5
2559
  8
0
 10
81.280556932730164
 20
409.67587179084973
 30
0.0
 40
0.11
 50
180.0
 51
311.50671600000288
  0
ARC
  5
255A
  8
0
 10
81.280556932730164
 20
409.67587179084973
 30
0.0
 40
1.659999999999999
 50
180.0
 51
311.50671600000288
  0
LINE
  5
255B
  8
0
 10
86.220556932729778
 20
409.37624179084969
 30
0.0
 11
86.220556932729778
 21
410.01415479084972
 31
0.0
  0
LINE
  5
255C
  8
0
 10
85.605184932729557
 20
408.5596157908497
 30
0.0
 11
86.220556932729778
 21
409.37624179084969
 31
0.0
  0
LINE
  5
255D
  8
0
 10
79.620556932729855
 20
409.67587179084973
 30
0.0
 11
79.620556932729855
 21
431.20031879084968
 31
0.0
  0
LINE
  5
255E
  8
0
 10
79.620556932729855
 20
409.67587179084973
 30
0.0
 11
79.620556932729855
 21
431.20031879084968
 31
0.0
  0
LINE
  5
255F
  8
0
 10
81.170556932730051
 20
409.67587179084973
 30
0.0
 11
81.170556932730051
 21
431.20031879084968
 31
0.0
  0
POINT
  5
2671
  8
0
 10
89.170556932730136
 20
406.87707679084969
 30
0.0
  0
LINE
  5
2672
  8
0
 10
89.170556932730136
 20
406.87707679084969
 30
0.0
 11
89.170556932730136
 21
433.99911279084972
 31
0.0
  0
ARC
  5
2673
  8
0
 10
84.070556932730128
 20
434.18309479084968
 30
0.0
 40
2.379999999999999
 50
188.56954700000199
 51
345.43045300000171
  0
ARC
  5
2674
  8
0
 10
84.170556932730136
 20
434.01309479084972
 30
0.0
 40
4.0999999999999988
 50
44.999999999995389
 51
135.0000000000046
  0
LINE
  5
2676
  8
0
 10
85.9558239327298
 20
435.73014679084969
 30
0.0
 11
87.450932932729756
 21
434.17221579084958
 31
0.0
  0
LINE
  5
2677
  8
0
 10
87.069693932729564
 20
436.91223279084971
 30
0.0
 11
88.669263932729876
 21
435.2454507908497
 31
0.0
  0
LINE
  5
2678
  8
0
 10
77.969694735595141
 20
436.91223259371429
 30
0.0
 11
78.53055754640954
 21
436.32780379084971
 31
0.0
  0
LINE
  5
267A
  8
0
 10
78.940990932730074
 20
434.40339979084968
 30
0.0
 11
78.967158932729944
 21
433.90408579084959
 31
0.0
  0
LINE
  5
267B
  8
0
 10
80.300121932729795
 20
434.40339979084968
 30
0.0
 11
80.27395393272991
 21
433.90408579084959
 31
0.0
  0
LINE
  5
267C
  8
0
 10
86.581023932729735
 20
433.57354579084972
 30
0.0
 11
80.27395393272991
 21
433.90408579084959
 31
0.0
  0
LINE
  5
267D
  8
0
 10
86.60719193272962
 20
434.07286079084969
 30
0.0
 11
80.300121932729795
 21
434.40339979084968
 31
0.0
  0
ARC
  5
267E
  8
0
 10
84.070556932730128
 20
434.18309479084968
 30
0.0
 40
2.379999999999999
 50
357.54585400000121
 51
176.45414600000061
  0
LINE
  5
267F
  8
0
 10
76.973446932729985
 20
435.8159857908496
 30
0.0
 11
77.5343089327298
 21
435.23155679084971
 31
0.0
  0
ARC
  5
2680
  8
0
 10
84.070556932730128
 20
434.01309479084972
 30
0.0
 40
2.5499999999999989
 50
42.326427999999758
 51
135.0000000000046
  0
LINE
  5
2681
  8
0
 10
82.267665932729869
 20
435.8159857908496
 30
0.0
 11
81.706803932730054
 21
435.23155679084971
 31
0.0
  0
LINE
  5
2682
  8
0
 10
81.271419129865052
 20
436.91223259371429
 30
0.0
 11
80.710557319051617
 21
436.32780379084971
 31
0.0
  0
ARC
  5
2683
  8
0
 10
87.27055693272996
 20
433.99911279084972
 30
0.0
 40
0.25
 50
0.0
 51
43.821186999997799
  0
ARC
  5
2684
  8
0
 10
86.570556932730128
 20
433.37381979084972
 30
0.0
 40
0.2
 50
0.0
 51
86.999999999994415
  0
ARC
  5
2685
  8
0
 10
86.570556932730128
 20
433.37381979084972
 30
0.0
 40
0.7
 50
0.0
 51
86.999999999994415
  0
ARC
  5
2686
  8
0
 10
71.870556932729784
 20
433.99911279084972
 30
0.0
 40
1.8
 50
136.17881300000221
 51
180.0
  0
LINE
  5
2687
  8
0
 10
72.171418932729836
 20
436.91223279084971
 30
0.0
 11
70.571848932729978
 21
435.2454507908497
 31
0.0
  0
LINE
  5
2688
  8
0
 10
73.285288932730055
 20
435.73014679084969
 30
0.0
 11
71.790180932729982
 21
434.17221579084958
 31
0.0
  0
ARC
  5
2689
  8
0
 10
71.970556932729778
 20
433.99911279084972
 30
0.0
 40
0.25
 50
136.17881300000221
 51
180.0
  0
ARC
  5
268A
  8
0
 10
72.670556932730051
 20
433.37381979084972
 30
0.0
 40
0.7
 50
93.000000000005585
 51
180.0
  0
ARC
  5
268B
  8
0
 10
72.670556932730051
 20
433.37381979084972
 30
0.0
 40
0.2
 50
93.000000000005585
 51
180.0
  0
ARC
  5
268C
  8
0
 10
75.170556932730051
 20
434.18309479084968
 30
0.0
 40
2.379999999999999
 50
194.56954699999829
 51
351.43045299999801
  0
ARC
  5
268D
  8
0
 10
75.070556932730057
 20
434.01309479084972
 30
0.0
 40
4.0999999999999988
 50
44.999999999995389
 51
135.0000000000046
  0
ARC
  5
268E
  8
0
 10
75.170556932730051
 20
434.18309479084968
 30
0.0
 40
2.379999999999999
 50
3.545853999999327
 51
182.45414599999879
  0
LINE
  5
268F
  8
0
 10
72.633920932729779
 20
434.07286079084969
 30
0.0
 11
78.940990932730074
 21
434.40339979084968
 31
0.0
  0
LINE
  5
2690
  8
0
 10
72.660088932730105
 20
433.57354579084972
 30
0.0
 11
78.967158932729944
 21
433.90408579084959
 31
0.0
  0
ARC
  5
2691
  8
0
 10
75.170556932730051
 20
434.01309479084972
 30
0.0
 40
2.5499999999999989
 50
44.999999999995389
 51
137.67357200000021
  0
LINE
  5
2692
  8
0
 10
87.069693932729564
 20
403.96395779084969
 30
0.0
 11
88.669263932729876
 21
405.63073879084959
 31
0.0
  0
LINE
  5
2693
  8
0
 10
85.9558239327298
 20
405.14604379084972
 30
0.0
 11
87.450932932729756
 21
406.70397479084983
 31
0.0
  0
LINE
  5
2694
  8
0
 10
82.267665932729869
 20
405.0602047908497
 30
0.0
 11
81.706803932730054
 21
405.6446337908497
 31
0.0
  0
LINE
  5
2696
  8
0
 10
81.271418932729475
 20
403.96395779084969
 30
0.0
 11
80.710556932730086
 21
404.54838579084969
 31
0.0
  0
ARC
  5
2697
  8
0
 10
84.170556932730136
 20
406.86309479084969
 30
0.0
 40
4.0999999999999988
 50
224.9999999999954
 51
315.0000000000046
  0
ARC
  5
2698
  8
0
 10
84.070556932730128
 20
406.86309479084969
 30
0.0
 40
2.5499999999999989
 50
224.9999999999954
 51
317.67357200000021
  0
ARC
  5
2699
  8
0
 10
87.27055693272996
 20
406.87707679084969
 30
0.0
 40
0.25
 50
316.17881300000209
 51
0.0
  0
LINE
  5
269B
  8
0
 10
77.969694735595141
 20
403.96395698798511
 30
0.0
 11
78.530558506087772
 21
404.54838579084969
 31
0.0
  0
LINE
  5
269C
  8
0
 10
76.973446932729985
 20
405.0602047908497
 30
0.0
 11
77.5343089327298
 21
405.6446337908497
 31
0.0
  0
ARC
  5
269D
  8
0
 10
84.870556932729869
 20
424.93809479084962
 30
0.0
 40
0.3
 50
90.0
 51
180.0
  0
LINE
  5
269E
  8
0
 10
86.470556932729778
 20
425.23809479084969
 30
0.0
 11
84.870556932729869
 21
425.23809479084969
 31
0.0
  0
ARC
  5
269F
  8
0
 10
86.470556932729778
 20
426.0380947908497
 30
0.0
 40
0.8
 50
270.0
 51
0.0
  0
ARC
  5
26A0
  8
0
 10
86.470556932729778
 20
426.0380947908497
 30
0.0
 40
0.3
 50
270.0
 51
0.0
  0
LINE
  5
26A1
  8
0
 10
86.470556932729778
 20
425.73809479084957
 30
0.0
 11
84.870556932729869
 21
425.73809479084957
 31
0.0
  0
ARC
  5
26A2
  8
0
 10
84.870556932729869
 20
424.93809479084962
 30
0.0
 40
0.8
 50
90.0
 51
180.0
  0
LINE
  5
26A3
  8
0
 10
84.570556932730142
 20
424.93809479084962
 30
0.0
 11
84.570556932730142
 21
415.93809479084968
 31
0.0
  0
LINE
  5
26A4
  8
0
 10
84.070556932730128
 20
424.93809479084962
 30
0.0
 11
84.070556932730128
 21
415.93809479084968
 31
0.0
  0
LINE
  5
26A5
  8
0
 10
87.27055693272996
 20
407.50237079084968
 30
0.0
 11
87.27055693272996
 21
414.8380947908496
 31
0.0
  0
LINE
  5
26A6
  8
0
 10
86.770556932729946
 20
407.50237079084968
 30
0.0
 11
86.770556932729946
 21
414.8380947908496
 31
0.0
  0
ARC
  5
26A7
  8
0
 10
86.470556932729778
 20
414.8380947908496
 30
0.0
 40
0.8
 50
0.0
 51
90.0
  0
LINE
  5
26A8
  8
0
 10
86.470556932729778
 20
415.63809479084961
 30
0.0
 11
84.870556932729869
 21
415.63809479084961
 31
0.0
  0
ARC
  5
26A9
  8
0
 10
84.870556932729869
 20
415.93809479084968
 30
0.0
 40
0.3
 50
180.0
 51
270.0
  0
ARC
  5
26AA
  8
0
 10
86.470556932729778
 20
414.8380947908496
 30
0.0
 40
0.3
 50
0.0
 51
90.0
  0
LINE
  5
26AB
  8
0
 10
86.470556932729778
 20
415.13809479084972
 30
0.0
 11
84.870556932729869
 21
415.13809479084972
 31
0.0
  0
ARC
  5
26AC
  8
0
 10
84.870556932729869
 20
415.93809479084968
 30
0.0
 40
0.8
 50
180.0
 51
270.0
  0
LINE
  5
26AD
  8
0
 10
80.300121932729795
 20
406.47278979084967
 30
0.0
 11
80.27395393272991
 21
406.9721047908497
 31
0.0
  0
LINE
  5
26AE
  8
0
 10
78.940990932730074
 20
406.47278979084967
 30
0.0
 11
78.967158932729944
 21
406.9721047908497
 31
0.0
  0
LINE
  5
26AF
  8
0
 10
86.581023932729735
 20
407.30264479084968
 30
0.0
 11
80.27395393272991
 21
406.9721047908497
 31
0.0
  0
ARC
  5
26B0
  8
0
 10
84.070556932730128
 20
406.69309479084973
 30
0.0
 40
2.379999999999999
 50
14.569546999998311
 51
171.43045299999801
  0
LINE
  5
26B1
  8
0
 10
86.60719193272962
 20
406.80332979084972
 30
0.0
 11
80.300121932729795
 21
406.47278979084967
 31
0.0
  0
ARC
  5
26B2
  8
0
 10
84.070556932730128
 20
406.69309479084973
 30
0.0
 40
2.379999999999999
 50
183.54585399999931
 51
2.454145999998802
  0
ARC
  5
26B3
  8
0
 10
86.570556932730128
 20
407.50237079084968
 30
0.0
 40
0.2
 50
273.00000000000563
 51
0.0
  0
ARC
  5
26B4
  8
0
 10
86.570556932730128
 20
407.50237079084968
 30
0.0
 40
0.7
 50
273.00000000000563
 51
0.0
  0
LINE
  5
26B5
  8
0
 10
74.670556932730051
 20
424.93809479084962
 30
0.0
 11
74.670556932730051
 21
415.93809479084968
 31
0.0
  0
LINE
  5
26B6
  8
0
 10
75.170556932730051
 20
424.93809479084962
 30
0.0
 11
75.170556932730051
 21
415.93809479084968
 31
0.0
  0
ARC
  5
26B7
  8
0
 10
71.870556932729784
 20
406.87707679084969
 30
0.0
 40
1.8
 50
180.0
 51
223.82118699999779
  0
LINE
  5
26B8
  8
0
 10
72.171418932729836
 20
403.96395779084969
 30
0.0
 11
70.571848932729978
 21
405.63073879084959
 31
0.0
  0
LINE
  5
26B9
  8
0
 10
73.285288932730055
 20
405.14604379084972
 30
0.0
 11
71.790180932729982
 21
406.70397479084983
 31
0.0
  0
ARC
  5
26BA
  8
0
 10
71.970556932729778
 20
406.87707679084969
 30
0.0
 40
0.25
 50
180.0
 51
223.82118699999779
  0
POINT
  5
26BB
  8
0
 10
70.070556932730057
 20
406.87707679084969
 30
0.0
  0
ARC
  5
26BC
  8
0
 10
72.77055693272996
 20
426.0380947908497
 30
0.0
 40
0.8
 50
180.0
 51
270.0
  0
ARC
  5
26BD
  8
0
 10
72.77055693272996
 20
426.0380947908497
 30
0.0
 40
0.3
 50
180.0
 51
270.0
  0
LINE
  5
26BE
  8
0
 10
72.77055693272996
 20
425.23809479084969
 30
0.0
 11
74.370556932729869
 21
425.23809479084969
 31
0.0
  0
LINE
  5
26BF
  8
0
 10
72.77055693272996
 20
425.73809479084957
 30
0.0
 11
74.370556932729869
 21
425.73809479084957
 31
0.0
  0
LINE
  5
26C0
  8
0
 10
71.970556932729778
 20
407.50237079084968
 30
0.0
 11
71.970556932729778
 21
414.8380947908496
 31
0.0
  0
LINE
  5
26C1
  8
0
 10
72.470556932729778
 20
407.50237079084968
 30
0.0
 11
72.470556932729778
 21
414.8380947908496
 31
0.0
  0
ARC
  5
26C2
  8
0
 10
72.77055693272996
 20
414.8380947908496
 30
0.0
 40
0.8
 50
90.0
 51
180.0
  0
ARC
  5
26C3
  8
0
 10
72.77055693272996
 20
414.8380947908496
 30
0.0
 40
0.3
 50
90.0
 51
180.0
  0
LINE
  5
26C4
  8
0
 10
72.77055693272996
 20
415.63809479084961
 30
0.0
 11
74.370556932729869
 21
415.63809479084961
 31
0.0
  0
LINE
  5
26C5
  8
0
 10
72.77055693272996
 20
415.13809479084972
 30
0.0
 11
74.370556932729869
 21
415.13809479084972
 31
0.0
  0
ARC
  5
26C6
  8
0
 10
72.670556932730051
 20
407.50237079084968
 30
0.0
 40
0.7
 50
180.0
 51
266.99999999999437
  0
ARC
  5
26C7
  8
0
 10
72.670556932730051
 20
407.50237079084968
 30
0.0
 40
0.2
 50
180.0
 51
266.99999999999437
  0
ARC
  5
26C8
  8
0
 10
74.370556932729869
 20
424.93809479084962
 30
0.0
 40
0.3
 50
0.0
 51
90.0
  0
ARC
  5
26C9
  8
0
 10
74.370556932729869
 20
424.93809479084962
 30
0.0
 40
0.8
 50
0.0
 51
90.0
  0
ARC
  5
26CA
  8
0
 10
74.370556932729869
 20
415.93809479084968
 30
0.0
 40
0.3
 50
270.0
 51
0.0
  0
ARC
  5
26CB
  8
0
 10
74.370556932729869
 20
415.93809479084968
 30
0.0
 40
0.8
 50
270.0
 51
0.0
  0
ARC
  5
26CC
  8
0
 10
75.070556932730057
 20
406.86309479084969
 30
0.0
 40
4.0999999999999988
 50
224.9999999999954
 51
315.0000000000046
  0
ARC
  5
26CD
  8
0
 10
75.170556932730051
 20
406.86309479084969
 30
0.0
 40
2.5499999999999989
 50
222.32642799999979
 51
315.0000000000046
  0
ARC
  5
26CE
  8
0
 10
75.170556932730051
 20
406.69309479084973
 30
0.0
 40
2.379999999999999
 50
8.5695470000019647
 51
165.43045300000159
  0
ARC
  5
26CF
  8
0
 10
75.170556932730051
 20
406.69309479084973
 30
0.0
 40
2.379999999999999
 50
177.54585400000121
 51
356.45414600000072
  0
LINE
  5
26D0
  8
0
 10
72.660088932730105
 20
407.30264479084968
 30
0.0
 11
78.967158932729944
 21
406.9721047908497
 31
0.0
  0
LINE
  5
26D1
  8
0
 10
72.633920932729779
 20
406.80332979084972
 30
0.0
 11
78.940990932730074
 21
406.47278979084967
 31
0.0
  0
LINE
  5
26D2
  8
0
 10
87.52055693272996
 20
406.87707679084969
 30
0.0
 11
87.52055693272996
 21
433.99911279084972
 31
0.0
  0
LINE
  5
26D3
  8
0
 10
71.720556932729764
 20
406.87707679084969
 30
0.0
 11
71.720556932729764
 21
433.99911279084972
 31
0.0
  0
LINE
  5
26D4
  8
0
 10
70.070556932730057
 20
406.87707679084969
 30
0.0
 11
70.070556932730057
 21
433.99911279084972
 31
0.0
  0
LINE
  5
26D5
  8
0
 10
71.970556932729778
 20
433.37381979084972
 30
0.0
 11
71.970556932729778
 21
426.0380947908497
 31
0.0
  0
LINE
  5
26D6
  8
0
 10
72.470556932729778
 20
433.37381979084972
 30
0.0
 11
72.470556932729778
 21
426.0380947908497
 31
0.0
  0
LINE
  5
26D7
  8
0
 10
87.27055693272996
 20
433.37381979084972
 30
0.0
 11
87.27055693272996
 21
426.0380947908497
 31
0.0
  0
LINE
  5
26D8
  8
0
 10
86.770556932729946
 20
433.37381979084972
 30
0.0
 11
86.770556932729946
 21
426.0380947908497
 31
0.0
  0
LINE
  5
26D9
  8
1
 10
65.170556932730051
 20
420.43809479084968
 30
0.0
 11
94.070556932730128
 21
420.43809479084968
 31
0.0
  0
ARC
  5
26DA
  8
0
 10
87.370556932729954
 20
406.87707679084969
 30
0.0
 40
1.8
 50
316.17881300000209
 51
0.0
  0
ARC
  5
26DB
  8
0
 10
87.370556932729954
 20
433.99911279084972
 30
0.0
 40
1.8
 50
0.0
 51
43.821186999997799
  0
LINE
  5
2B56
  8
0
 10
80.710557319051645
 20
436.32780379084971
 30
0.0
 11
81.706803932730054
 21
435.23155679084971
 31
0.0
  0
LINE
  5
2B57
  8
0
 10
77.534308932729857
 20
435.23155679084971
 30
0.0
 11
78.53055754640954
 21
436.32780379084971
 31
0.0
  0
LINE
  5
2B5A
  8
0
 10
77.534308932729743
 20
405.6446337908497
 30
0.0
 11
78.530558506087743
 21
404.54838579084969
 31
0.0
  0
LINE
  5
2B5B
  8
0
 10
80.710556932730086
 20
404.54838579084969
 30
0.0
 11
81.706803932730054
 21
405.6446337908497
 31
0.0
  0
POINT
  5
3B4B
  8
2
 10
607.07055693273014
 20
413.43809479084968
 30
0.0
  0
POINT
  5
3B4C
  8
0
 10
611.27055693272996
 20
413.43809479084968
 30
0.0
  0
POINT
  5
3B4D
  8
2
 10
398.42055693273011
 20
408.55961579084982
 30
0.0
  0
POINT
  5
3B4E
  8
2
 10
607.07055693273014
 20
413.43809479084968
 30
0.0
  0
POINT
  5
3B4F
  8
2
 10
393.8205569327302
 20
408.01587179084993
 30
0.0
  0
POINT
  5
3B50
  8
2
 10
398.42055693273011
 20
408.01587179084993
 30
0.0
  0
POINT
  5
3B51
  8
0
 10
154.07055693273011
 20
407.81309479084968
 30
0.0
  0
POINT
  5
3B52
  8
0
 10
229.77055693272999
 20
411.57809479084972
 30
0.0
  0
POINT
  5
3B53
  8
0
 10
154.07055693273011
 20
404.54838579084969
 30
0.0
  0
POINT
  5
3B54
  8
0
 10
611.27055693272996
 20
402.76309479084972
 30
0.0
  0
POINT
  5
3B55
  8
0
 10
851.02055693272985
 20
409.05961579084982
 30
0.0
  0
POINT
  5
3B56
  8
0
 10
393.8205569327302
 20
402.76309479084972
 30
0.0
  0
POINT
  5
3B57
  8
0
 10
1015.07055693273
 20
411.57809479084972
 30
0.0
  0
POINT
  5
3B58
  8
0
 10
1090.77055693273
 20
410.61309479084957
 30
0.0
  0
POINT
  5
3B59
  8
0
 10
633.57055693273014
 20
430.86203479084969
 30
0.0
  0
POINT
  5
3B5A
  8
0
 10
611.27055693272996
 20
430.25309479084979
 30
0.0
  0
POINT
  5
3B5B
  8
0
 10
637.77055693272985
 20
432.8603187908497
 30
0.0
  0
POINT
  5
3B5C
  8
0
 10
633.57055693273014
 20
432.8603187908497
 30
0.0
  0
POINT
  5
3B5D
  8
0
 10
154.07055693273011
 20
438.11309479084969
 30
0.0
  0
POINT
  5
3B5E
  8
0
 10
154.07055693273011
 20
438.11309479084969
 30
0.0
  0
POINT
  5
3B5F
  8
0
 10
633.57055693273014
 20
438.11309479084969
 30
0.0
  0
POINT
  5
3B60
  8
0
 10
1003.07055693273
 20
402.76309479084972
 30
0.0
  0
POINT
  5
3B61
  8
0
 10
1090.77055693273
 20
438.11309479084969
 30
0.0
  0
POINT
  5
3B63
  8
0
 10
851.02055693272985
 20
435.23155679084971
 30
0.0
  0
POINT
  5
3B64
  8
0
 10
846.42055693273005
 20
435.23155679084971
 30
0.0
  0
POINT
  5
3B65
  8
0
 10
846.42055693273005
 20
432.8603187908497
 30
0.0
  0
POINT
  5
3B66
  8
0
 10
637.77055693272985
 20
432.8603187908497
 30
0.0
  0
POINT
  5
3B67
  8
0
 10
1090.77055693273
 20
438.11309479084969
 30
0.0
  0
POINT
  5
3B68
  8
0
 10
633.57055693273014
 20
438.11309479084969
 30
0.0
  0
LINE
  5
3B88
  8
2
 10
848.42055693273005
 20
408.01587179084993
 30
0.0
 11
848.42055693273005
 21
432.8603187908497
 31
0.0
  0
LINE
  5
3B89
  8
0
 10
633.57055693273014
 20
432.8603187908497
 30
0.0
 11
633.57055693273014
 21
438.11309479084969
 31
0.0
  0
LINE
  5
3B8A
  8
0
 10
1002.54633793273
 20
404.54838579084969
 30
0.0
 11
1003.07055693273
 21
404.54838579084969
 31
0.0
  0
LINE
  5
3B8B
  8
0
 10
1001.07055693273
 20
436.32780379084971
 30
0.0
 11
1090.77055693273
 21
436.32780379084971
 31
0.0
  0
LINE
  5
3B8C
  8
0
 10
1000.73515893273
 20
402.76309479084972
 30
0.0
 11
1002.54633793273
 21
404.54838579084969
 31
0.0
  0
LINE
  5
3B8D
  8
0
 10
1003.07055693273
 20
402.76309479084972
 30
0.0
 11
1003.07055693273
 21
404.54838579084969
 31
0.0
  0
LINE
  5
3B8E
  8
2
 10
611.27055693272996
 20
408.01587179084993
 30
0.0
 11
393.8205569327302
 21
408.01587179084993
 31
0.0
  0
LINE
  5
3B8F
  8
2
 10
611.27055693272996
 20
432.8603187908497
 30
0.0
 11
393.8205569327302
 21
432.8603187908497
 31
0.0
  0
POLYLINE
  5
3B90
  8
0
 66
     1
 10
0.0
 20
0.0
 30
0.0
  0
VERTEX
  5
3B91
  8
0
 10
611.27055693272996
 20
408.55961579084982
 30
0.0
  0
VERTEX
  5
3B92
  8
0
 10
846.02055693272996
 20
408.55961579084982
 30
0.0
  0
SEQEND
  5
3B93
  8
0
  0
POLYLINE
  5
3B94
  8
0
 66
     1
 10
0.0
 20
0.0
 30
0.0
  0
VERTEX
  5
3B95
  8
0
 10
611.27055693272996
 20
432.31657479084981
 30
0.0
  0
VERTEX
  5
3B96
  8
0
 10
846.02055693272996
 20
432.31657479084981
 30
0.0
  0
SEQEND
  5
3B97
  8
0
  0
LINE
  5
3B98
  8
0
 10
611.27055693272996
 20
427.43809479084968
 30
0.0
 11
611.27055693272996
 21
438.11309479084969
 31
0.0
  0
LINE
  5
3B99
  8
0
 10
611.27055693272996
 20
427.43809479084968
 30
0.0
 11
611.27055693272996
 21
438.11309479084969
 31
0.0
  0
LINE
  5
3B9A
  8
0
 10
154.07055693273011
 20
438.11309479084969
 30
0.0
 11
154.07055693273011
 21
434.38809479084972
 31
0.0
  0
POINT
  5
3B9B
  8
0
 10
154.07055693273011
 20
438.0880947908496
 30
0.0
  0
POINT
  5
3B9C
  8
0
 10
154.07055693273011
 20
438.0880947908496
 30
0.0
  0
POINT
  5
3B9D
  8
0
 10
154.07055693273011
 20
438.0880947908496
 30
0.0
  0
POINT
  5
3B9E
  8
0
 10
154.07055693273011
 20
438.0880947908496
 30
0.0
  0
POINT
  5
3B9F
  8
0
 10
154.07055693273011
 20
438.0880947908496
 30
0.0
  0
POINT
  5
3BA0
  8
0
 10
154.07055693273011
 20
438.0880947908496
 30
0.0
  0
POINT
  5
3BA1
  8
0
 10
154.07055693273011
 20
438.0880947908496
 30
0.0
  0
POINT
  5
3BA2
  8
0
 10
154.07055693273011
 20
438.0880947908496
 30
0.0
  0
POINT
  5
3BA3
  8
0
 10
154.07055693273011
 20
438.0880947908496
 30
0.0
  0
LINE
  5
3BA4
  8
0
 10
154.07055693273011
 20
434.0880947908496
 30
0.0
 11
154.07055693273011
 21
438.0880947908496
 31
0.0
  0
LINE
  5
3BA5
  8
0
 10
154.07055693273011
 20
434.0880947908496
 30
0.0
 11
154.07055693273011
 21
438.0880947908496
 31
0.0
  0
LINE
  5
3BA6
  8
0
 10
154.07055693273011
 20
438.0880947908496
 30
0.0
 11
154.07055693273011
 21
434.38809479084972
 31
0.0
  0
POINT
  5
3BA7
  8
0
 10
154.07055693273011
 20
402.78809479084981
 30
0.0
  0
POINT
  5
3BA8
  8
0
 10
154.07055693273011
 20
402.78809479084981
 30
0.0
  0
LINE
  5
3BA9
  8
0
 10
154.07055693273011
 20
407.81309479084968
 30
0.0
 11
154.07055693273011
 21
402.76309479084972
 31
0.0
1001
ACAD
1000
ASC_BOUNDS
1002
{
1070
    19
1002
}
  0
LINE
  5
3BAA
  8
0
 10
154.07055693273011
 20
406.7880947908497
 30
0.0
 11
154.07055693273011
 21
402.78809479084981
 31
0.0
  0
LINE
  5
3BAB
  8
0
 10
154.07055693273011
 20
406.7880947908497
 30
0.0
 11
154.07055693273011
 21
402.78809479084981
 31
0.0
  0
LINE
  5
3BAC
  8
0
 10
154.07055693273011
 20
402.78809479084981
 30
0.0
 11
154.07055693273011
 21
406.48809479084969
 31
0.0
  0
LINE
  5
3BAD
  8
0
 10
154.07055693273011
 20
402.78809479084981
 30
0.0
 11
154.07055693273011
 21
406.48809479084969
 31
0.0
  0
LINE
  5
3BAE
  8
0
 10
154.07055693273011
 20
407.81309479084968
 30
0.0
 11
154.07055693273011
 21
402.76309479084972
 31
0.0
  0
LINE
  5
3BAF
  8
0
 10
154.07055693273011
 20
430.21309479084971
 30
0.0
 11
154.07055693273011
 21
410.61309479084957
 31
0.0
  0
LINE
  5
3BB0
  8
0
 10
154.07055693273011
 20
438.0880947908496
 30
0.0
 11
154.07055693273011
 21
433.01309479084972
 31
0.0
1001
ACAD
1000
ASC_BOUNDS
1002
{
1070
    19
1002
}
  0
LINE
  5
3BB1
  8
0
 10
154.07055693273011
 20
438.11309479084969
 30
0.0
 11
154.07055693273011
 21
433.01309479084972
 31
0.0
  0
ARC
  5
3BB2
  8
0
 10
156.57055693273011
 20
430.71309479084971
 30
0.0
 40
0.5
 50
270.0
 51
45.000000000002302
1001
ACAD
1000
ASC_BOUNDS
1002
{
1070
    19
1002
}
  0
ARC
  5
3BBF
  8
0
 10
156.57055693273011
 20
410.11309479084957
 30
0.0
 40
0.5
 50
314.99999999999773
 51
90.0
1001
ACAD
1000
ASC_BOUNDS
1002
{
1070
    19
1002
}
  0
LINE
  5
3BC0
  8
0
 10
155.67055693272999
 20
430.21309479084971
 30
0.0
 11
155.67055693272999
 21
410.61309479084957
 31
0.0
  0
LINE
  5
3BC1
  8
0
 10
223.3705569327303
 20
429.29809479084969
 30
0.0
 11
229.77055693272999
 21
429.29809479084969
 31
0.0
  0
LINE
  5
3BC2
  8
0
 10
223.3705569327303
 20
425.49809479084979
 30
0.0
 11
229.77055693272999
 21
425.49809479084979
 31
0.0
  0
LINE
  5
3BC3
  8
0
 10
223.3705569327303
 20
415.37809479084967
 30
0.0
 11
229.77055693272999
 21
415.37809479084967
 31
0.0
  0
LINE
  5
3BC4
  8
0
 10
227.77055693272999
 20
429.29809479084969
 30
0.0
 11
227.77055693272999
 21
425.49809479084979
 31
0.0
  0
LINE
  5
3BC5
  8
0
 10
229.77055693272999
 20
429.29809479084969
 30
0.0
 11
229.77055693272999
 21
425.49809479084979
 31
0.0
  0
LINE
  5
3BC6
  8
0
 10
223.3705569327303
 20
411.57809479084972
 30
0.0
 11
229.77055693272999
 21
411.57809479084972
 31
0.0
  0
LINE
  5
3BC7
  8
0
 10
227.77055693272999
 20
415.37809479084967
 30
0.0
 11
227.77055693272999
 21
411.57809479084972
 31
0.0
  0
LINE
  5
3BC8
  8
0
 10
229.77055693272999
 20
415.37809479084967
 30
0.0
 11
229.77055693272999
 21
411.57809479084972
 31
0.0
  0
LINE
  5
3BE7
  8
2
 10
608.67055693273005
 20
427.43809479084968
 30
0.0
 11
607.07055693273014
 21
427.43809479084968
 31
0.0
  0
LINE
  5
3BE8
  8
2
 10
608.67055693273005
 20
427.93809479084968
 30
0.0
 11
607.07055693273014
 21
427.93809479084968
 31
0.0
  0
LINE
  5
3BE9
  8
0
 10
611.27055693272996
 20
427.43809479084968
 30
0.0
 11
608.67055693273005
 21
427.93809479084968
 31
0.0
  0
LINE
  5
3BEA
  8
0
 10
611.27055693272996
 20
402.78809479084981
 30
0.0
 11
611.27055693272996
 21
408.23927779084983
 31
0.0
  0
LINE
  5
3BEB
  8
0
 10
611.27055693272996
 20
408.23927779084983
 30
0.0
 11
611.27055693272996
 21
402.78809479084981
 31
0.0
  0
LINE
  5
3BEC
  8
0
 10
611.27055693272996
 20
408.23927779084983
 30
0.0
 11
611.27055693272996
 21
402.78809479084981
 31
0.0
  0
LINE
  5
3BED
  8
0
 10
611.27055693272996
 20
402.78809479084981
 30
0.0
 11
611.27055693272996
 21
408.23927779084983
 31
0.0
  0
LINE
  5
3BEE
  8
0
 10
611.27055693272996
 20
402.78809479084981
 30
0.0
 11
611.27055693272996
 21
408.23927779084983
 31
0.0
  0
LINE
  5
3BEF
  8
0
 10
611.27055693272996
 20
402.76309479084972
 30
0.0
 11
611.27055693272996
 21
408.23927779084983
 31
0.0
  0
POINT
  5
3BF0
  8
0
 10
611.27055693272996
 20
402.78809479084981
 30
0.0
  0
POINT
  5
3BF1
  8
0
 10
611.27055693272996
 20
402.78809479084981
 30
0.0
  0
LINE
  5
3BF2
  8
2
 10
608.67055693273005
 20
412.93809479084968
 30
0.0
 11
607.07055693273014
 21
412.93809479084968
 31
0.0
  0
LINE
  5
3BF3
  8
2
 10
608.67055693273005
 20
413.43809479084968
 30
0.0
 11
607.07055693273014
 21
413.43809479084968
 31
0.0
  0
LINE
  5
3BF4
  8
0
 10
611.27055693272996
 20
413.43809479084968
 30
0.0
 11
608.67055693273005
 21
412.93809479084968
 31
0.0
  0
LINE
  5
3BF5
  8
2
 10
607.07055693273014
 20
412.93809479084968
 30
0.0
 11
607.07055693273014
 21
427.93809479084968
 31
0.0
  0
LINE
  5
3BF6
  8
0
 10
608.67055693273005
 20
412.93809479084968
 30
0.0
 11
608.67055693273005
 21
427.93809479084968
 31
0.0
  0
LINE
  5
3BF7
  8
0
 10
611.27055693272996
 20
402.76309479084972
 30
0.0
 11
611.27055693272996
 21
413.43809479084968
 31
0.0
  0
LINE
  5
3BF8
  8
2
 10
393.8205569327302
 20
408.01587179084993
 30
0.0
 11
393.8205569327302
 21
432.8603187908497
 31
0.0
  0
LINE
  5
3BF9
  8
0
 10
611.27055693272996
 20
438.11309479084969
 30
0.0
 11
154.07055693273011
 21
438.11309479084969
 31
0.0
  0
LINE
  5
3BFA
  8
0
 10
611.27055693272996
 20
402.76309479084972
 30
0.0
 11
154.07055693273011
 21
402.76309479084972
 31
0.0
  0
LINE
  5
3BFB
  8
0
 10
156.92411093272989
 20
409.75954179084988
 30
0.0
 11
154.07055693273011
 21
407.81309479084968
 31
0.0
1001
ACAD
1000
ASC_BOUNDS
1002
{
1070
    19
1002
}
  0
LINE
  5
3BFC
  8
0
 10
156.92411093272989
 20
431.0666487908498
 30
0.0
 11
154.07055693273011
 21
433.01309479084972
 31
0.0
1001
ACAD
1000
ASC_BOUNDS
1002
{
1070
    19
1002
}
  0
LINE
  5
3BFD
  8
0
 10
156.57055693273011
 20
430.21309479084971
 30
0.0
 11
154.07055693273011
 21
430.21309479084971
 31
0.0
1001
ACAD
1000
ASC_BOUNDS
1002
{
1070
    19
1002
}
  0
LINE
  5
3BFE
  8
0
 10
156.57055693273011
 20
410.61309479084957
 30
0.0
 11
154.07055693273011
 21
410.61309479084957
 31
0.0
1001
ACAD
1000
ASC_BOUNDS
1002
{
1070
    19
1002
}
  0
LINE
  5
3BFF
  8
0
 10
1015.07055693273
 20
415.37809479084967
 30
0.0
 11
1015.07055693273
 21
411.57809479084972
 31
0.0
  0
LINE
  5
3C00
  8
0
 10
1017.07055693273
 20
415.37809479084967
 30
0.0
 11
1017.07055693273
 21
411.57809479084972
 31
0.0
  0
LINE
  5
3C01
  8
0
 10
1021.47055693273
 20
411.57809479084972
 30
0.0
 11
1015.07055693273
 21
411.57809479084972
 31
0.0
  0
LINE
  5
3C02
  8
0
 10
1021.47055693273
 20
415.37809479084967
 30
0.0
 11
1015.07055693273
 21
415.37809479084967
 31
0.0
  0
LINE
  5
3C03
  8
0
 10
1021.47055693273
 20
425.49809479084979
 30
0.0
 11
1015.07055693273
 21
425.49809479084979
 31
0.0
  0
LINE
  5
3C04
  8
0
 10
1021.47055693273
 20
429.29809479084969
 30
0.0
 11
1015.07055693273
 21
429.29809479084969
 31
0.0
  0
LINE
  5
3C05
  8
0
 10
1017.07055693273
 20
429.29809479084969
 30
0.0
 11
1017.07055693273
 21
425.49809479084979
 31
0.0
  0
LINE
  5
3C06
  8
0
 10
1015.07055693273
 20
429.29809479084969
 30
0.0
 11
1015.07055693273
 21
425.49809479084979
 31
0.0
  0
LINE
  5
3C07
  8
0
 10
611.27055693272996
 20
402.76309479084972
 30
0.0
 11
611.27055693272996
 21
413.43809479084968
 31
0.0
  0
LINE
  5
3C08
  8
2
 10
633.57055693273014
 20
427.43809479084968
 30
0.0
 11
636.17055693273005
 21
427.93809479084968
 31
0.0
  0
LINE
  5
3C09
  8
2
 10
636.17055693273005
 20
413.43809479084968
 30
0.0
 11
637.77055693272985
 21
413.43809479084968
 31
0.0
  0
LINE
  5
3C0A
  8
2
 10
633.57055693273014
 20
413.43809479084968
 30
0.0
 11
636.17055693273005
 21
412.93809479084968
 31
0.0
  0
LINE
  5
3C0B
  8
2
 10
636.17055693273005
 20
412.93809479084968
 30
0.0
 11
636.17055693273005
 21
427.93809479084968
 31
0.0
  0
LINE
  5
3C0C
  8
2
 10
636.17055693273005
 20
427.43809479084968
 30
0.0
 11
637.77055693272985
 21
427.43809479084968
 31
0.0
  0
LINE
  5
3C0D
  8
2
 10
636.17055693273005
 20
412.93809479084968
 30
0.0
 11
637.77055693272985
 21
412.93809479084968
 31
0.0
  0
LINE
  5
3C0E
  8
2
 10
636.17055693273005
 20
427.93809479084968
 30
0.0
 11
637.77055693272985
 21
427.93809479084968
 31
0.0
  0
LINE
  5
3C0F
  8
0
 10
1089.1705569327301
 20
430.21309479084971
 30
0.0
 11
1089.1705569327301
 21
410.61309479084957
 31
0.0
  0
LINE
  5
3C10
  8
0
 10
1090.77055693273
 20
407.81309479084968
 30
0.0
 11
1090.77055693273
 21
402.76309479084972
 31
0.0
  0
LINE
  5
3C11
  8
0
 10
1090.77055693273
 20
430.21309479084971
 30
0.0
 11
1090.77055693273
 21
410.61309479084957
 31
0.0
  0
LINE
  5
3C12
  8
0
 10
1090.77055693273
 20
438.11309479084969
 30
0.0
 11
1090.77055693273
 21
433.01309479084972
 31
0.0
  0
POINT
  5
3C13
  8
0
 10
844.3589669327298
 20
432.63691179084958
 30
0.0
  0
POINT
  5
3C14
  8
0
 10
844.3589669327298
 20
432.63691179084958
 30
0.0
  0
LINE
  5
3C15
  8
0
 10
846.02055693272996
 20
432.31657479084981
 30
0.0
 11
851.02055693272985
 21
431.81657479084981
 31
0.0
  0
LINE
  5
3C16
  8
0
 10
846.02055693272996
 20
430.86203479084969
 30
0.0
 11
851.02055693272985
 21
430.3620347908498
 31
0.0
  0
LINE
  5
3C17
  8
0
 10
846.02055693272996
 20
430.25309479084979
 30
0.0
 11
851.02055693272985
 21
429.75309479084967
 31
0.0
  0
LINE
  5
3C18
  8
0
 10
664.47055693273023
 20
432.8603187908497
 30
0.0
 11
851.02055693272985
 21
432.8603187908497
 31
0.0
  0
LINE
  5
3C19
  8
0
 10
653.47055693273023
 20
432.8603187908497
 30
0.0
 11
851.02055693272985
 21
432.8603187908497
 31
0.0
  0
POINT
  5
3C1A
  8
0
 10
844.3589669327298
 20
408.23927779084983
 30
0.0
  0
POINT
  5
3C1B
  8
0
 10
844.3589669327298
 20
408.23927779084983
 30
0.0
  0
LINE
  5
3C1C
  8
0
 10
846.02055693272996
 20
410.01415479084989
 30
0.0
 11
851.02055693272985
 21
410.51415479084989
 31
0.0
  0
LINE
  5
3C1D
  8
0
 10
846.02055693272996
 20
410.62309479084979
 30
0.0
 11
851.02055693272985
 21
411.12309479084979
 31
0.0
  0
LINE
  5
3C1E
  8
0
 10
846.02055693272996
 20
410.62309479084979
 30
0.0
 11
851.02055693272985
 21
411.12309479084979
 31
0.0
  0
LINE
  5
3C1F
  8
0
 10
846.02055693272996
 20
410.01415479084989
 30
0.0
 11
851.02055693272985
 21
410.51415479084989
 31
0.0
  0
LINE
  5
3C20
  8
0
 10
846.02055693272996
 20
408.55961579084982
 30
0.0
 11
851.02055693272985
 21
409.05961579084982
 31
0.0
  0
POINT
  5
3C21
  8
0
 10
844.3589669327298
 20
408.23927779084983
 30
0.0
  0
POINT
  5
3C22
  8
0
 10
844.3589669327298
 20
408.23927779084983
 30
0.0
  0
LINE
  5
3C23
  8
0
 10
653.47055693273023
 20
408.01587179084993
 30
0.0
 11
851.02055693272985
 21
408.01587179084993
 31
0.0
  0
LINE
  5
3C24
  8
0
 10
664.47055693273023
 20
408.01587179084993
 30
0.0
 11
851.02055693272985
 21
408.01587179084993
 31
0.0
  0
LINE
  5
3C25
  8
0
 10
653.47055693273023
 20
408.01587179084993
 30
0.0
 11
851.02055693272985
 21
408.01587179084993
 31
0.0
  0
LINE
  5
3C26
  8
0
 10
664.47055693273023
 20
408.01587179084993
 30
0.0
 11
851.02055693272985
 21
408.01587179084993
 31
0.0
  0
LINE
  5
3C2D
  8
0
 10
851.02055693272985
 20
432.8603187908497
 30
0.0
 11
851.02055693272985
 21
408.01587179084993
 31
0.0
  0
LINE
  5
3C2E
  8
2
 10
396.82055693273009
 20
429.91635579084982
 30
0.0
 11
398.42055693273011
 21
430.43809479084968
 31
0.0
  0
LINE
  5
3C2F
  8
2
 10
396.82055693273009
 20
410.9598337908497
 30
0.0
 11
398.42055693273011
 21
410.43809479084968
 31
0.0
  0
LINE
  5
3C30
  8
2
 10
396.82055693273009
 20
410.9598337908497
 30
0.0
 11
398.42055693273011
 21
410.43809479084968
 31
0.0
  0
LINE
  5
3C31
  8
2
 10
396.82055693273009
 20
429.91635579084982
 30
0.0
 11
396.82055693273009
 21
410.9598337908497
 31
0.0
  0
LINE
  5
3C32
  8
2
 10
398.42055693273011
 20
432.8603187908497
 30
0.0
 11
398.42055693273011
 21
408.01587179084993
 31
0.0
  0
LINE
  5
3C39
  8
0
 10
653.47055693273023
 20
432.8603187908497
 30
0.0
 11
611.27055693272996
 21
432.8603187908497
 31
0.0
  0
LINE
  5
3C3A
  8
0
 10
611.27055693272996
 20
430.86203479084969
 30
0.0
 11
846.02055693272996
 21
430.86203479084969
 31
0.0
  0
LINE
  5
3C3B
  8
0
 10
611.27055693272996
 20
410.62309479084979
 30
0.0
 11
846.02055693272996
 21
410.62309479084979
 31
0.0
  0
LINE
  5
3C3C
  8
0
 10
611.27055693272996
 20
410.01415479084989
 30
0.0
 11
846.02055693272996
 21
410.01415479084989
 31
0.0
  0
LINE
  5
3C3D
  8
0
 10
653.47055693273023
 20
408.01587179084993
 30
0.0
 11
611.27055693272996
 21
408.01587179084993
 31
0.0
  0
LINE
  5
3C3E
  8
0
 10
611.27055693272996
 20
430.25309479084979
 30
0.0
 11
846.02055693272996
 21
430.25309479084979
 31
0.0
  0
LINE
  5
3C3F
  8
0
 10
611.27055693272996
 20
410.62309479084979
 30
0.0
 11
846.02055693272996
 21
410.62309479084979
 31
0.0
  0
LINE
  5
3C40
  8
0
 10
611.27055693272996
 20
410.01415479084989
 30
0.0
 11
846.02055693272996
 21
410.01415479084989
 31
0.0
  0
LINE
  5
3C41
  8
0
 10
653.47055693273023
 20
408.01587179084993
 30
0.0
 11
611.27055693272996
 21
408.01587179084993
 31
0.0
  0
LINE
  5
3C42
  8
2
 10
846.42055693273005
 20
408.01587179084993
 30
0.0
 11
846.42055693273005
 21
432.8603187908497
 31
0.0
  0
LINE
  5
3C43
  8
2
 10
637.77055693272985
 20
412.93809479084968
 30
0.0
 11
637.77055693272985
 21
427.93809479084968
 31
0.0
  0
LINE
  5
3C44
  8
0
 10
1090.77055693273
 20
438.0880947908496
 30
0.0
 11
1090.77055693273
 21
434.38809479084972
 31
0.0
  0
LINE
  5
3C45
  8
0
 10
1090.77055693273
 20
434.0880947908496
 30
0.0
 11
1090.77055693273
 21
438.0880947908496
 31
0.0
  0
LINE
  5
3C46
  8
0
 10
1090.77055693273
 20
434.0880947908496
 30
0.0
 11
1090.77055693273
 21
438.0880947908496
 31
0.0
  0
POINT
  5
3C47
  8
0
 10
1090.77055693273
 20
438.0880947908496
 30
0.0
  0
POINT
  5
3C48
  8
0
 10
1090.77055693273
 20
438.0880947908496
 30
0.0
  0
POINT
  5
3C49
  8
0
 10
1090.77055693273
 20
438.0880947908496
 30
0.0
  0
POINT
  5
3C4A
  8
0
 10
1090.77055693273
 20
438.0880947908496
 30
0.0
  0
POINT
  5
3C4B
  8
0
 10
1090.77055693273
 20
438.0880947908496
 30
0.0
  0
POINT
  5
3C4C
  8
0
 10
1090.77055693273
 20
438.0880947908496
 30
0.0
  0
POINT
  5
3C4D
  8
0
 10
1090.77055693273
 20
438.0880947908496
 30
0.0
  0
POINT
  5
3C4E
  8
0
 10
1090.77055693273
 20
438.0880947908496
 30
0.0
  0
POINT
  5
3C4F
  8
0
 10
1090.77055693273
 20
438.0880947908496
 30
0.0
  0
LINE
  5
3C50
  8
0
 10
1090.77055693273
 20
438.11309479084969
 30
0.0
 11
1090.77055693273
 21
434.38809479084972
 31
0.0
  0
LINE
  5
3C51
  8
0
 10
1090.77055693273
 20
438.0880947908496
 30
0.0
 11
1090.77055693273
 21
433.01309479084972
 31
0.0
1001
ACAD
1000
ASC_BOUNDS
1002
{
1070
    19
1002
}
  0
ARC
  5
3C58
  8
0
 10
1088.27055693273
 20
430.71309479084971
 30
0.0
 40
0.5
 50
134.9999999999977
 51
270.0
1001
ACAD
1000
ASC_BOUNDS
1002
{
1070
    19
1002
}
  0
LINE
  5
3C59
  8
0
 10
1088.27055693273
 20
430.21309479084971
 30
0.0
 11
1090.77055693273
 21
430.21309479084971
 31
0.0
1001
ACAD
1000
ASC_BOUNDS
1002
{
1070
    19
1002
}
  0
LINE
  5
3C5A
  8
0
 10
1087.91700393273
 20
431.0666487908498
 30
0.0
 11
1090.77055693273
 21
433.01309479084972
 31
0.0
1001
ACAD
1000
ASC_BOUNDS
1002
{
1070
    19
1002
}
  0
LINE
  5
3C5B
  8
0
 10
1090.77055693273
 20
402.78809479084981
 30
0.0
 11
1090.77055693273
 21
406.48809479084969
 31
0.0
  0
LINE
  5
3C5C
  8
0
 10
1090.77055693273
 20
402.78809479084981
 30
0.0
 11
1090.77055693273
 21
406.48809479084969
 31
0.0
  0
LINE
  5
3C5D
  8
0
 10
1090.77055693273
 20
406.7880947908497
 30
0.0
 11
1090.77055693273
 21
402.78809479084981
 31
0.0
  0
LINE
  5
3C5E
  8
0
 10
1090.77055693273
 20
406.7880947908497
 30
0.0
 11
1090.77055693273
 21
402.78809479084981
 31
0.0
  0
LINE
  5
3C5F
  8
0
 10
1090.77055693273
 20
407.81309479084968
 30
0.0
 11
1090.77055693273
 21
402.76309479084972
 31
0.0
1001
ACAD
1000
ASC_BOUNDS
1002
{
1070
    19
1002
}
  0
POINT
  5
3C60
  8
0
 10
1090.77055693273
 20
402.78809479084981
 30
0.0
  0
POINT
  5
3C61
  8
0
 10
1090.77055693273
 20
402.78809479084981
 30
0.0
  0
ARC
  5
3C62
  8
0
 10
1088.27055693273
 20
410.11309479084957
 30
0.0
 40
0.5
 50
90.0
 51
225.0000000000023
1001
ACAD
1000
ASC_BOUNDS
1002
{
1070
    19
1002
}
  0
LINE
  5
3C63
  8
0
 10
1087.91700393273
 20
409.75954179084988
 30
0.0
 11
1090.77055693273
 21
407.81309479084968
 31
0.0
1001
ACAD
1000
ASC_BOUNDS
1002
{
1070
    19
1002
}
  0
LINE
  5
3C64
  8
0
 10
1088.27055693273
 20
410.61309479084957
 30
0.0
 11
1090.77055693273
 21
410.61309479084957
 31
0.0
1001
ACAD
1000
ASC_BOUNDS
1002
{
1070
    19
1002
}
  0
POINT
  5
3C89
  8
0
 10
633.57055693273014
 20
402.78809479084981
 30
0.0
  0
POINT
  5
3C8A
  8
0
 10
633.57055693273014
 20
402.78809479084981
 30
0.0
  0
LINE
  5
3C8B
  8
0
 10
633.57055693273014
 20
402.76309479084972
 30
0.0
 11
633.57055693273014
 21
408.23927779084983
 31
0.0
  0
LINE
  5
3C8C
  8
0
 10
633.57055693273014
 20
402.78809479084981
 30
0.0
 11
633.57055693273014
 21
408.23927779084983
 31
0.0
  0
LINE
  5
3C8D
  8
0
 10
633.57055693273014
 20
402.78809479084981
 30
0.0
 11
633.57055693273014
 21
408.23927779084983
 31
0.0
  0
LINE
  5
3C8E
  8
0
 10
633.57055693273014
 20
408.23927779084983
 30
0.0
 11
633.57055693273014
 21
402.78809479084981
 31
0.0
  0
LINE
  5
3C8F
  8
0
 10
633.57055693273014
 20
408.23927779084983
 30
0.0
 11
633.57055693273014
 21
402.78809479084981
 31
0.0
  0
LINE
  5
3C90
  8
0
 10
633.57055693273014
 20
402.78809479084981
 30
0.0
 11
633.57055693273014
 21
408.23927779084983
 31
0.0
  0
LINE
  5
3C91
  8
0
 10
633.57055693273014
 20
402.76309479084972
 30
0.0
 11
633.57055693273014
 21
408.01587179084993
 31
0.0
  0
LINE
  5
3C92
  8
0
 10
633.57055693273014
 20
402.76309479084972
 30
0.0
 11
1090.77055693273
 21
402.76309479084972
 31
0.0
  0
LINE
  5
3C93
  8
0
 10
154.07055693273011
 20
405.6446337908497
 30
0.0
 11
611.27055693272996
 21
405.6446337908497
 31
0.0
  0
LINE
  5
3C94
  8
0
 10
154.07055693273011
 20
404.54838579084969
 30
0.0
 11
611.27055693272996
 21
404.54838579084981
 31
0.0
  0
LINE
  5
3C95
  8
0
 10
154.07055693273011
 20
436.32780379084971
 30
0.0
 11
611.27055693272996
 21
436.32780379084971
 31
0.0
  0
LINE
  5
3C96
  8
0
 10
154.07055693273011
 20
435.23155679084971
 30
0.0
 11
611.27055693272996
 21
435.23155679084971
 31
0.0
  0
LINE
  5
3C97
  8
0
 10
633.57055693273014
 20
438.11309479084969
 30
0.0
 11
1090.77055693273
 21
438.11309479084969
 31
0.0
  0
LINE
  5
3C98
  8
1
 10
144.07055693273011
 20
420.43809479084968
 30
0.0
 11
1100.77055693273
 21
420.43809479084968
 31
0.0
  0
ARC
  5
3EB4
  8
0
 10
182.67055693272999
 20
420.03809479084981
 30
0.0
 40
2.25
 50
180.0
 51
0.0
  0
LINE
  5
3EB5
  8
1
 10
169.97055693273001
 20
426.08809479084982
 30
0.0
 11
169.97055693273001
 21
414.78809479084993
 31
0.0
  0
LINE
  5
3EB6
  8
1
 10
182.67055693272999
 20
426.08809479084982
 30
0.0
 11
182.67055693272999
 21
414.78809479084993
 31
0.0
  0
ARC
  5
3EB7
  8
0
 10
169.97055693273001
 20
420.03809479084981
 30
0.0
 40
2.25
 50
180.0
 51
0.0
  0
ARC
  5
3EB8
  8
0
 10
169.97055693273001
 20
420.83809479084982
 30
0.0
 40
2.25
 50
0.0
 51
180.0
  0
LINE
  5
3EB9
  8
0
 10
167.72055693273001
 20
420.83809479084982
 30
0.0
 11
167.72055693273001
 21
420.03809479084981
 31
0.0
  0
LINE
  5
3EBA
  8
0
 10
172.22055693273001
 20
420.83809479084982
 30
0.0
 11
172.22055693273001
 21
420.03809479084981
 31
0.0
  0
LINE
  5
3EBB
  8
0
 10
184.92055693272999
 20
420.83809479084982
 30
0.0
 11
184.92055693272999
 21
420.03809479084981
 31
0.0
  0
LINE
  5
3EBC
  8
0
 10
180.42055693272999
 20
420.83809479084982
 30
0.0
 11
180.42055693272999
 21
420.03809479084981
 31
0.0
  0
ARC
  5
3EBD
  8
0
 10
182.67055693272999
 20
420.83809479084982
 30
0.0
 40
2.25
 50
0.0
 51
180.0
  0
LINE
  5
3EBE
  8
1
 10
293.77055693273002
 20
426.08809479084982
 30
0.0
 11
293.77055693273002
 21
414.78809479084993
 31
0.0
  0
ARC
  5
3EBF
  8
0
 10
293.37055693272998
 20
420.43809479084979
 30
0.0
 40
2.25
 50
90.0
 51
270.0
  0
ARC
  5
3EC0
  8
0
 10
294.17055693272988
 20
420.43809479084979
 30
0.0
 40
2.25
 50
270.0
 51
90.0
  0
LINE
  5
3EC1
  8
0
 10
293.37055693272998
 20
418.18809479084979
 30
0.0
 11
294.17055693272988
 21
418.18809479084979
 31
0.0
  0
LINE
  5
3EC2
  8
0
 10
293.37055693272998
 20
422.68809479084979
 30
0.0
 11
294.17055693272988
 21
422.68809479084979
 31
0.0
  0
LINE
  5
3EC4
  8
1
 10
382.67055693272999
 20
426.0880947908496
 30
0.0
 11
382.67055693272999
 21
414.7880947908497
 31
0.0
  0
ARC
  5
3EC5
  8
0
 10
383.07055693273003
 20
420.43809479084968
 30
0.0
 40
2.25
 50
270.0
 51
90.0
  0
LINE
  5
3EC6
  8
0
 10
382.27055693273007
 20
422.68809479084962
 30
0.0
 11
383.07055693273003
 21
422.68809479084962
 31
0.0
  0
LINE
  5
3EC7
  8
0
 10
382.27055693273007
 20
418.18809479084968
 30
0.0
 11
383.07055693273003
 21
418.18809479084968
 31
0.0
  0
ARC
  5
3EC8
  8
0
 10
382.27055693273007
 20
420.43809479084968
 30
0.0
 40
2.25
 50
90.0
 51
270.0
  0
LINE
  5
3EC9
  8
1
 10
484.2705569327299
 20
426.0880947908496
 30
0.0
 11
484.2705569327299
 21
414.7880947908497
 31
0.0
  0
ARC
  5
3ECA
  8
0
 10
483.87055693272998
 20
420.43809479084979
 30
0.0
 40
2.25
 50
90.0
 51
270.0
  0
ARC
  5
3ECB
  8
0
 10
484.67055693272988
 20
420.43809479084979
 30
0.0
 40
2.25
 50
270.0
 51
90.0
  0
LINE
  5
3ECC
  8
0
 10
483.87055693272998
 20
418.18809479084968
 30
0.0
 11
484.67055693272988
 21
418.18809479084968
 31
0.0
  0
LINE
  5
3ECD
  8
0
 10
483.87055693272998
 20
422.68809479084962
 30
0.0
 11
484.67055693272988
 21
422.68809479084962
 31
0.0
  0
ARC
  5
3ECE
  8
0
 10
595.3705569327301
 20
420.0380947908497
 30
0.0
 40
2.25
 50
180.0
 51
0.0
  0
ARC
  5
3ECF
  8
0
 10
595.3705569327301
 20
420.83809479084971
 30
0.0
 40
2.25
 50
0.0
 51
180.0
  0
ARC
  5
3ED0
  8
0
 10
582.67055693273005
 20
420.0380947908497
 30
0.0
 40
2.25
 50
180.0
 51
0.0
  0
LINE
  5
3ED1
  8
1
 10
569.97055693272989
 20
426.0880947908496
 30
0.0
 11
569.97055693272989
 21
414.7880947908497
 31
0.0
  0
LINE
  5
3ED2
  8
1
 10
582.67055693273005
 20
426.0880947908496
 30
0.0
 11
582.67055693273005
 21
414.7880947908497
 31
0.0
  0
LINE
  5
3ED3
  8
1
 10
595.3705569327301
 20
426.0880947908496
 30
0.0
 11
595.3705569327301
 21
414.7880947908497
 31
0.0
  0
ARC
  5
3ED4
  8
0
 10
570.37055693272998
 20
420.43809479084979
 30
0.0
 40
2.25
 50
270.0
 51
90.0
  0
LINE
  5
3ED5
  8
0
 10
569.57055693273003
 20
418.18809479084968
 30
0.0
 11
570.37055693272998
 21
418.18809479084968
 31
0.0
  0
LINE
  5
3ED6
  8
0
 10
569.57055693273003
 20
422.68809479084962
 30
0.0
 11
570.37055693272998
 21
422.68809479084962
 31
0.0
  0
ARC
  5
3ED7
  8
0
 10
569.57055693273003
 20
420.43809479084979
 30
0.0
 40
2.25
 50
90.0
 51
270.0
  0
ARC
  5
3ED8
  8
0
 10
582.67055693273005
 20
420.83809479084971
 30
0.0
 40
2.25
 50
0.0
 51
180.0
  0
LINE
  5
3ED9
  8
0
 10
580.42055693273005
 20
420.83809479084971
 30
0.0
 11
580.42055693273005
 21
420.0380947908497
 31
0.0
  0
LINE
  5
3EDA
  8
0
 10
584.92055693273005
 20
420.83809479084971
 30
0.0
 11
584.92055693273005
 21
420.0380947908497
 31
0.0
  0
LINE
  5
3EDB
  8
0
 10
593.1205569327301
 20
420.83809479084971
 30
0.0
 11
593.1205569327301
 21
420.0380947908497
 31
0.0
  0
LINE
  5
3EDC
  8
0
 10
597.6205569327301
 20
420.83809479084971
 30
0.0
 11
597.6205569327301
 21
420.0380947908497
 31
0.0
  0
POLYLINE
  5
3EDD
  8
0
 66
     1
 10
0.0
 20
0.0
 30
0.0
 70
     1
  0
VERTEX
  5
3EDE
  8
0
 10
594.77055693272985
 20
415.38809479084961
 30
0.0
 42
-1.0
  0
VERTEX
  5
3EDF
  8
0
 10
594.77055693272985
 20
425.48809479084957
 30
0.0
  0
VERTEX
  5
3EE0
  8
0
 10
597.37055693272976
 20
425.48809479084957
 30
0.0
 42
-1.0
  0
VERTEX
  5
3EE1
  8
0
 10
597.37055693272976
 20
415.38809479084961
 30
0.0
  0
SEQEND
  5
3EE2
  8
0
  0
ARC
  5
3EE3
  8
2
 10
662.17055693273005
 20
420.0380947908497
 30
0.0
 40
2.25
 50
180.0
 51
0.0
  0
ARC
  5
3EE4
  8
2
 10
649.47055693273023
 20
420.0380947908497
 30
0.0
 40
2.25
 50
180.0
 51
0.0
  0
LINE
  5
3EE5
  8
1
 10
662.17055693273005
 20
426.0880947908496
 30
0.0
 11
662.17055693273005
 21
414.7880947908497
 31
0.0
  0
LINE
  5
3EE6
  8
1
 10
649.47055693273023
 20
426.0880947908496
 30
0.0
 11
649.47055693273023
 21
414.7880947908497
 31
0.0
  0
POLYLINE
  5
3EE7
  8
2
 66
     1
 10
0.0
 20
0.0
 30
0.0
 70
     1
  0
VERTEX
  5
3EE8
  8
2
 10
647.47055693273023
 20
415.38809479084961
 30
0.0
 42
-1.0
  0
VERTEX
  5
3EE9
  8
2
 10
647.47055693273023
 20
425.48809479084957
 30
0.0
  0
VERTEX
  5
3EEA
  8
2
 10
650.07055693273014
 20
425.48809479084957
 30
0.0
 42
-1.0
  0
VERTEX
  5
3EEB
  8
2
 10
650.07055693273014
 20
415.38809479084961
 30
0.0
  0
SEQEND
  5
3EEC
  8
2
  0
ARC
  5
3EED
  8
2
 10
649.47055693273023
 20
420.83809479084971
 30
0.0
 40
2.25
 50
0.0
 51
180.0
  0
LINE
  5
3EEE
  8
2
 10
647.22055693273023
 20
420.83809479084971
 30
0.0
 11
647.22055693273023
 21
420.0380947908497
 31
0.0
  0
LINE
  5
3EEF
  8
2
 10
651.72055693273023
 20
420.83809479084971
 30
0.0
 11
651.72055693273023
 21
420.0380947908497
 31
0.0
  0
ARC
  5
3EF0
  8
2
 10
662.17055693273005
 20
420.83809479084971
 30
0.0
 40
2.25
 50
0.0
 51
180.0
  0
LINE
  5
3EF1
  8
2
 10
659.92055693273005
 20
420.83809479084971
 30
0.0
 11
659.92055693273005
 21
420.0380947908497
 31
0.0
  0
LINE
  5
3EF2
  8
2
 10
664.42055693273005
 20
420.83809479084971
 30
0.0
 11
664.42055693273005
 21
420.0380947908497
 31
0.0
  0
LINE
  5
3EF3
  8
1
 10
674.8705569327301
 20
426.0880947908496
 30
0.0
 11
674.8705569327301
 21
414.7880947908497
 31
0.0
  0
ARC
  5
3EF4
  8
2
 10
675.27055693272996
 20
420.43809479084979
 30
0.0
 40
2.25
 50
270.0
 51
90.0
  0
LINE
  5
3EF5
  8
2
 10
674.47055693273012
 20
418.18809479084968
 30
0.0
 11
675.27055693272996
 21
418.18809479084968
 31
0.0
  0
LINE
  5
3EF6
  8
2
 10
674.47055693273012
 20
422.68809479084962
 30
0.0
 11
675.27055693272996
 21
422.68809479084962
 31
0.0
  0
ARC
  5
3EF7
  8
2
 10
674.47055693273012
 20
420.43809479084979
 30
0.0
 40
2.25
 50
90.0
 51
270.0
  0
LINE
  5
3EF8
  8
1
 10
760.57055693273014
 20
426.0880947908496
 30
0.0
 11
760.57055693273014
 21
414.7880947908497
 31
0.0
  0
ARC
  5
3EF9
  8
2
 10
760.17055693273005
 20
420.43809479084979
 30
0.0
 40
2.25
 50
90.0
 51
270.0
  0
LINE
  5
3EFA
  8
2
 10
760.17055693273005
 20
418.18809479084968
 30
0.0
 11
760.97055693273012
 21
418.18809479084968
 31
0.0
  0
LINE
  5
3EFB
  8
2
 10
760.17055693273005
 20
422.68809479084962
 30
0.0
 11
760.97055693273012
 21
422.68809479084962
 31
0.0
  0
ARC
  5
3EFC
  8
2
 10
760.97055693273012
 20
420.43809479084979
 30
0.0
 40
2.25
 50
270.0
 51
90.0
  0
LINE
  5
3EFD
  8
1
 10
951.07055693273014
 20
426.08809479084948
 30
0.0
 11
951.07055693273014
 21
414.78809479084958
 31
0.0
  0
ARC
  5
3EFE
  8
0
 10
950.67055693273005
 20
420.43809479084968
 30
0.0
 40
2.25
 50
90.0
 51
270.0
  0
LINE
  5
3EFF
  8
0
 10
950.67055693273005
 20
422.68809479084962
 30
0.0
 11
951.47055693273023
 21
422.68809479084962
 31
0.0
  0
LINE
  5
3F00
  8
0
 10
950.67055693273005
 20
418.18809479084962
 30
0.0
 11
951.47055693273023
 21
418.18809479084962
 31
0.0
  0
ARC
  5
3F01
  8
0
 10
951.47055693273023
 20
420.43809479084968
 30
0.0
 40
2.25
 50
270.0
 51
90.0
  0
ARC
  5
3F02
  8
0
 10
1062.1705569327301
 20
420.06309479084968
 30
0.0
 40
2.25
 50
180.0
 51
0.0
  0
LINE
  5
3F03
  8
1
 10
1062.1705569327301
 20
426.11309479084969
 30
0.0
 11
1062.1705569327301
 21
414.81309479084968
 31
0.0
  0
ARC
  5
3F04
  8
0
 10
1062.1705569327301
 20
420.86309479084957
 30
0.0
 40
2.25
 50
0.0
 51
180.0
  0
LINE
  5
3F05
  8
0
 10
1059.9205569327301
 20
420.86309479084957
 30
0.0
 11
1059.9205569327301
 21
420.06309479084968
 31
0.0
  0
LINE
  5
3F06
  8
0
 10
1064.4205569327301
 20
420.86309479084957
 30
0.0
 11
1064.4205569327301
 21
420.06309479084968
 31
0.0
  0
ARC
  5
3F07
  8
0
 10
1074.8705569327301
 20
420.06309479084968
 30
0.0
 40
2.25
 50
180.0
 51
0.0
  0
LINE
  5
3F08
  8
1
 10
1074.8705569327301
 20
426.11309479084969
 30
0.0
 11
1074.8705569327301
 21
414.81309479084968
 31
0.0
  0
LINE
  5
3F09
  8
0
 10
1077.1205569327301
 20
420.86309479084957
 30
0.0
 11
1077.1205569327301
 21
420.06309479084968
 31
0.0
  0
LINE
  5
3F0A
  8
0
 10
1072.6205569327301
 20
420.86309479084957
 30
0.0
 11
1072.6205569327301
 21
420.06309479084968
 31
0.0
  0
ARC
  5
3F0B
  8
0
 10
1074.8705569327301
 20
420.86309479084957
 30
0.0
 40
2.25
 50
0.0
 51
180.0
  0
LINE
  5
3F0D
  8
1
 10
862.17055693273005
 20
426.0880947908496
 30
0.0
 11
862.17055693273005
 21
414.7880947908497
 31
0.0
  0
ARC
  5
3F0E
  8
0
 10
862.57055693273014
 20
420.43809479084979
 30
0.0
 40
2.25
 50
270.0
 51
90.0
  0
LINE
  5
3F0F
  8
0
 10
861.77055693272985
 20
418.18809479084968
 30
0.0
 11
862.57055693273014
 21
418.18809479084968
 31
0.0
  0
LINE
  5
3F10
  8
0
 10
861.77055693272985
 20
422.68809479084962
 30
0.0
 11
862.57055693273014
 21
422.68809479084962
 31
0.0
  0
ARC
  5
3F11
  8
0
 10
861.77055693272985
 20
420.43809479084979
 30
0.0
 40
2.25
 50
90.0
 51
270.0
  0
LINE
  5
3F19
  8
0
 10
633.57055693273014
 20
405.6446337908497
 30
0.0
 11
1090.77055693273
 21
405.6446337908497
 31
0.0
  0
LINE
  5
3F1A
  8
0
 10
633.57055693273014
 20
404.54838579084981
 30
0.0
 11
1090.77055693273
 21
404.54838579084969
 31
0.0
  0
LINE
  5
3F1B
  8
0
 10
633.57055693273014
 20
435.23155679084971
 30
0.0
 11
1090.77055693273
 21
435.23155679084971
 31
0.0
  0
LINE
  5
3F1C
  8
0
 10
633.57055693273003
 20
436.3278037908496
 30
0.0
 11
1001.07055693273
 21
436.32780379084971
 31
0.0
  0
LINE
  5
3F2B
  8
2
 10
633.57055693273014
 20
432.8603187908497
 30
0.0
 11
633.57055693273014
 21
427.43809479084968
 31
0.0
  0
LINE
  5
3F2C
  8
2
 10
633.57055693273014
 20
413.43809479084968
 30
0.0
 11
633.57055693273014
 21
408.23927779084983
 31
0.0
  0
TEXT
  5
3FDF
  8
0
 62
     3
 10
0.0
 20
0.0
 30
0.0
 40
10.0
  1
RS35D-18
  7
STANDARD1
  0
ENDSEC
  0
EOF
