  0
SECTION
  2
HEADER
  9
$ACADVER
  1
AC1009
  9
$INSBASE
 10
0.0
 20
0.0
 30
0.0
  9
$EXTMIN
 10
0.0
 20
-2.960436562073669
 30
0.0
  9
$EXTMAX
 10
1202.3705569327301
 20
488.90316379589552
 30
0.0
  9
$LIMMIN
 10
0.0
 20
0.0
  9
$LIMMAX
 10
187.5
 20
135.0
  9
$ORTHOMODE
 70
     1
  9
$REGENMODE
 70
     1
  9
$FILLMODE
 70
     1
  9
$QTEXTMODE
 70
     0
  9
$MIRRTEXT
 70
     0
  9
$DRAGMODE
 70
     2
  9
$LTSCALE
 40
5.0
  9
$OSMODE
 70
    55
  9
$ATTMODE
 70
     1
  9
$TEXTSIZE
 40
2.5
  9
$TRACEWID
 40
0.05
  9
$TEXTSTYLE
  7
STANDARD
  9
$CLAYER
  8
2
  9
$CELTYPE
  6
BYLAYER
  9
$CECOLOR
 62
   256
  9
$DIMSCALE
 40
0.5
  9
$DIMASZ
 40
3.0
  9
$DIMEXO
 40
2.0
  9
$DIMDLI
 40
10.0
  9
$DIMRND
 40
0.0
  9
$DIMDLE
 40
0.0
  9
$DIMEXE
 40
2.0
  9
$DIMTP
 40
0.0
  9
$DIMTM
 40
0.0
  9
$DIMTXT
 40
3.0
  9
$DIMCEN
 40
0.09
  9
$DIMTSZ
 40
0.0
  9
$DIMTOL
 70
     0
  9
$DIMLIM
 70
     0
  9
$DIMTIH
 70
     0
  9
$DIMTOH
 70
     0
  9
$DIMSE1
 70
     0
  9
$DIMSE2
 70
     0
  9
$DIMTAD
 70
     1
  9
$DIMZIN
 70
     0
  9
$DIMBLK
  1

  9
$DIMASO
 70
     0
  9
$DIMSHO
 70
     0
  9
$DIMPOST
  1

  9
$DIMAPOST
  1

  9
$DIMALT
 70
     0
  9
$DIMALTD
 70
     2
  9
$DIMALTF
 40
25.399999999999999
  9
$DIMLFAC
 40
1.0
  9
$DIMTOFL
 70
     1
  9
$DIMTVP
 40
1.6000000000000001
  9
$DIMTIX
 70
     1
  9
$DIMSOXD
 70
     0
  9
$DIMSAH
 70
     0
  9
$DIMBLK1
  1

  9
$DIMBLK2
  1

  9
$DIMSTYLE
  2
STANDARD
  9
$DIMCLRD
 70
     0
  9
$DIMCLRE
 70
     0
  9
$DIMCLRT
 70
     0
  9
$DIMTFAC
 40
1.0
  9
$DIMGAP
 40
0.09
  9
$LUNITS
 70
     2
  9
$LUPREC
 70
     4
  9
$SKETCHINC
 40
0.1
  9
$FILLETRAD
 40
0.0
  9
$AUNITS
 70
     0
  9
$AUPREC
 70
     0
  9
$MENU
  1
E:\r13\win\SUPPORT\ACAD
  9
$ELEVATION
 40
0.0
  9
$PELEVATION
 40
0.0
  9
$THICKNESS
 40
0.0
  9
$LIMCHECK
 70
     0
  9
$BLIPMODE
 70
     0
  9
$CHAMFERA
 40
1.6000000000000001
  9
$CHAMFERB
 40
1.6000000000000001
  9
$SKPOLY
 70
     0
  9
$TDCREATE
 40
2449840.5944097228
  9
$TDUPDATE
 40
2456598.6045289929
  9
$TDINDWG
 40
0.1797286111
  9
$TDUSRTIMER
 40
0.1797286111
  9
$USRTIMER
 70
     1
  9
$ANGBASE
 50
0.0
  9
$ANGDIR
 70
     0
  9
$PDMODE
 70
     0
  9
$PDSIZE
 40
0.0
  9
$PLINEWID
 40
0.0
  9
$COORDS
 70
     1
  9
$SPLFRAME
 70
     0
  9
$SPLINETYPE
 70
     6
  9
$SPLINESEGS
 70
     8
  9
$ATTDIA
 70
     0
  9
$ATTREQ
 70
     1
  9
$HANDLING
 70
     1
  9
$HANDSEED
  5
4D94
  9
$SURFTAB1
 70
     6
  9
$SURFTAB2
 70
     6
  9
$SURFTYPE
 70
     6
  9
$SURFU
 70
     6
  9
$SURFV
 70
     6
  9
$UCSNAME
  2

  9
$UCSORG
 10
0.0
 20
0.0
 30
0.0
  9
$UCSXDIR
 10
1.0
 20
0.0
 30
0.0
  9
$UCSYDIR
 10
0.0
 20
1.0
 30
0.0
  9
$PUCSNAME
  2

  9
$PUCSORG
 10
0.0
 20
0.0
 30
0.0
  9
$PUCSXDIR
 10
1.0
 20
0.0
 30
0.0
  9
$PUCSYDIR
 10
0.0
 20
1.0
 30
0.0
  9
$USERI1
 70
     0
  9
$USERI2
 70
     1
  9
$USERI3
 70
     1
  9
$USERI4
 70
     0
  9
$USERI5
 70
     0
  9
$USERR1
 40
0.0
  9
$USERR2
 40
0.0
  9
$USERR3
 40
0.0
  9
$USERR4
 40
0.0
  9
$USERR5
 40
0.0
  9
$WORLDVIEW
 70
     1
  9
$SHADEDGE
 70
     3
  9
$SHADEDIF
 70
    70
  9
$TILEMODE
 70
     1
  9
$MAXACTVP
 70
    16
  9
$PLIMCHECK
 70
     0
  9
$PEXTMIN
 10
1.0000000000000000E+020
 20
1.0000000000000000E+020
 30
1.0000000000000000E+020
  9
$PEXTMAX
 10
-1.0000000000000000E+020
 20
-1.0000000000000000E+020
 30
-1.0000000000000000E+020
  9
$PLIMMIN
 10
0.0
 20
0.0
  9
$PLIMMAX
 10
12.0
 20
9.0
  9
$UNITMODE
 70
     0
  9
$VISRETAIN
 70
     0
  9
$PLINEGEN
 70
     0
  9
$PSLTSCALE
 70
     0
  0
ENDSEC
  0
SECTION
  2
TABLES
  0
TABLE
  2
VPORT
 70
     1
  0
VPORT
  2
*ACTIVE
 70
     0
 10
0.0
 20
0.0
 11
1.0
 21
1.0
 12
601.18528126585261
 22
353.38672379812579
 13
0.0
 23
0.0
 14
5.0
 24
5.0
 15
5.0
 25
5.0
 16
0.0
 26
0.0
 36
1.0
 17
0.0
 27
0.0
 37
0.0
 40
719.59225136298198
 41
1.7807262569832401
 42
50.0
 43
0.0
 44
0.0
 50
0.0
 51
0.0
 71
     0
 72
   100
 73
     1
 74
     0
 75
     0
 76
     0
 77
     0
 78
     0
  0
ENDTAB
  0
TABLE
  2
LTYPE
 70
     4
  0
LTYPE
  2
CONTINUOUS
 70
     0
  3
Solid Line
 72
    65
 73
     0
 40
0.0
  0
LTYPE
  2
CENTER
 70
     0
  3
____ _ ____ _ ____ _ ____ _ ____ _ ____ _ ____
 72
    65
 73
     4
 40
2.0
 49
1.25
 49
-0.25
 49
0.25
 49
-0.25
  0
LTYPE
  2
HIDDEN
 70
     0
  3
_ _ _ _ _ _ _ _ _ _ _ _ _ _ _ _ _ _ _ _ _ _ _
 72
    65
 73
     2
 40
0.375
 49
0.25
 49
-0.125
  0
LTYPE
  2
PHANTOM2
 70
     0
  3
___ _ _ ___ _ _ ___ _ _ ___ _ _
 72
    65
 73
     6
 40
1.25
 49
0.625
 49
-0.125
 49
0.125
 49
-0.125
 49
0.125
 49
-0.125
  0
ENDTAB
  0
TABLE
  2
LAYER
 70
     4
  0
LAYER
  2
0
 70
     0
 62
     7
  6
CONTINUOUS
  0
LAYER
  2
1
 70
     0
 62
     1
  6
CENTER
  0
LAYER
  2
2
 70
     0
 62
     2
  6
HIDDEN
  0
LAYER
  2
4
 70
     0
 62
     1
  6
CONTINUOUS
  0
ENDTAB
  0
TABLE
  2
STYLE
 70
     5
  0
STYLE
  2
STANDARD
 70
     0
 40
0.0
 41
1.0
 50
0.0
 71
     0
 42
2.5
  3
TXT
  4
BIGFONT
  0
STYLE
  2
KANJI
 70
     0
 40
0.0
 41
1.0
 50
0.0
 71
     0
 42
5.0
  3
TXT.SHX
  4
bigfont
  0
STYLE
  2
STYLE2
 70
     0
 40
13.0
 41
1.0
 50
0.0
 71
     0
 42
2.5
  3
C:\Program Files\AutoCAD LT\txt.shx
  4
C:\Program Files\AutoCAD LT\bigfont.shx
  0
STYLE
  2
STANDARD2
 70
     0
 40
8.0
 41
1.0
 50
0.0
 71
     0
 42
0.2
  3
C:\Program Files\AutoCAD LT\txt.shx
  4
C:\Program Files\AutoCAD LT\bigfont.shx
  0
STYLE
  2
STANDARD1
 70
     0
 40
0.0
 41
1.0
 50
0.0
 71
     0
 42
3.0
  3
txt
  4

  0
ENDTAB
  0
TABLE
  2
VIEW
 70
     1
  0
VIEW
  2
ALL
 70
     0
 40
135.0
 10
110.49579799999999
 20
67.5
 41
0.0
 11
0.0
 21
0.0
 31
1.0
 12
0.0
 22
0.0
 32
0.0
 42
0.0
 43
0.0
 44
0.0
 50
0.0
 71
     0
  0
ENDTAB
  0
TABLE
  2
UCS
 70
     0
  0
ENDTAB
  0
TABLE
  2
APPID
 70
     4
  0
APPID
  2
ACAD
 70
     0
  0
APPID
  2
DCO15
 70
     0
  0
APPID
  2
ACAD_MLEADERVER
 70
     0
  0
APPID
  2
ACAD_NAV_VCDISPLAY
 70
     0
  0
ENDTAB
  0
TABLE
  2
DIMSTYLE
 70
     1
  0
DIMSTYLE
  2
STANDARD
 70
     0
  3

  4

  5

  6

  7

 40
1.0
 41
0.18
 42
0.0625
 43
0.38
 44
0.18
 45
0.0
 46
0.0
 47
0.0
 48
0.0
140
0.18
141
0.09
142
0.0
143
25.399999999999999
144
1.0
145
0.0
146
1.0
147
0.09
 71
     0
 72
     0
 73
     1
 74
     1
 75
     0
 76
     0
 77
     0
 78
     0
170
     0
171
     2
172
     0
173
     0
174
     0
175
     0
176
     0
177
     0
178
     0
  0
ENDTAB
  0
ENDSEC
  0
SECTION
  2
BLOCKS
  0
BLOCK
  8
0
  2
$MODEL_SPACE
 70
     0
 10
0.0
 20
0.0
 30
0.0
  3
$MODEL_SPACE
  1

  0
ENDBLK
  5
15D
  8
0
  0
BLOCK
 67
     1
  8
0
  2
$PAPER_SPACE
 70
     0
 10
0.0
 20
0.0
 30
0.0
  3
$PAPER_SPACE
  1

  0
ENDBLK
  5
15B
 67
     1
  8
0
  0
BLOCK
  8
0
  2
STDGX5
 70
     0
 10
0.0
 20
0.0
 30
0.0
  3
STDGX5
  1

  0
ENDBLK
  5
41
  8
0
  0
ENDSEC
  0
SECTION
  2
ENTITIES
  0
INSERT
  5
CA
  8
0
  2
STDGX5
 10
0.0
 20
0.0
 30
0.0
  0
INSERT
  5
69A
  8
0
  2
STDGX5
 10
194.3272563481562
 20
13.52129245667936
 30
0.0
  0
INSERT
  5
1343
  8
0
  2
STDGX5
 10
563.10080863610574
 20
-59.557035590067017
 30
0.0
  0
INSERT
  5
1345
  8
0
  2
STDGX5
 10
757.42806498426194
 20
-46.035743133387648
 30
0.0
  0
ARC
  5
2542
  8
0
 10
77.960556932730015
 20
481.99038779589517
 30
0.0
 40
1.659999999999999
 50
0.0
 51
131.5067160000028
  0
LINE
  5
2543
  8
0
 10
73.635927932729814
 20
483.1066437958952
 30
0.0
 11
73.02055693272996
 21
482.29001779589532
 31
0.0
  0
LINE
  5
2544
  8
0
 10
73.02055693272996
 20
482.29001779589532
 30
0.0
 11
73.02055693272996
 21
481.6521037958953
 31
0.0
  0
ARC
  5
2545
  8
0
 10
77.960556932730015
 20
481.99038779589517
 30
0.0
 40
0.11
 50
0.0
 51
131.5067160000028
  0
ARC
  5
2546
  8
0
 10
75.170556932730051
 20
485.14316379589519
 30
0.0
 40
2.5499999999999989
 50
232.99999999999821
 51
311.45000000000618
  0
ARC
  5
2547
  8
0
 10
75.170556932730051
 20
485.14316379589519
 30
0.0
 40
4.0999999999999988
 50
238.37279600001011
 51
311.50671600000288
  0
LINE
  5
2548
  8
0
 10
73.635927932729814
 20
459.3496847958952
 30
0.0
 11
73.02055693272996
 21
460.16631079589519
 31
0.0
  0
LINE
  5
2549
  8
0
 10
73.02055693272996
 20
460.16631079589519
 30
0.0
 11
73.02055693272996
 21
460.80422379589533
 31
0.0
  0
ARC
  5
254A
  8
0
 10
77.960556932730015
 20
460.46594079589522
 30
0.0
 40
1.659999999999999
 50
228.4932839999972
 51
0.0
  0
ARC
  5
254B
  8
0
 10
77.960556932730015
 20
460.46594079589522
 30
0.0
 40
0.11
 50
228.4932839999972
 51
0.0
  0
ARC
  5
254C
  8
0
 10
75.170556932730051
 20
457.31316379589532
 30
0.0
 40
4.0999999999999988
 50
48.493283999997161
 51
121.6272039999898
  0
ARC
  5
254D
  8
0
 10
75.170556932730051
 20
457.31316379589532
 30
0.0
 40
2.5499999999999989
 50
48.549999999993823
 51
127.00000000000171
  0
LINE
  5
254E
  8
0
 10
78.070556932730142
 20
460.46594079589522
 30
0.0
 11
78.070556932730142
 21
481.99038779589517
 31
0.0
  0
LINE
  5
254F
  8
0
 10
79.620556932729855
 20
460.46594079589522
 30
0.0
 11
79.620556932729855
 21
481.99038779589517
 31
0.0
  0
LINE
  5
2550
  8
0
 10
79.620556932729855
 20
460.46594079589522
 30
0.0
 11
79.620556932729855
 21
481.99038779589517
 31
0.0
  0
ARC
  5
2551
  8
0
 10
84.070556932730128
 20
485.14316379589519
 30
0.0
 40
4.0999999999999988
 50
228.4932839999972
 51
301.62720399998989
  0
ARC
  5
2552
  8
0
 10
84.070556932730128
 20
485.14316379589519
 30
0.0
 40
2.5499999999999989
 50
228.5499999999939
 51
307.00000000000182
  0
ARC
  5
2553
  8
0
 10
81.280556932730164
 20
481.99038779589517
 30
0.0
 40
0.11
 50
48.493283999997161
 51
180.0
  0
LINE
  5
2554
  8
0
 10
86.220556932729778
 20
482.29001779589532
 30
0.0
 11
86.220556932729778
 21
481.6521037958953
 31
0.0
  0
LINE
  5
2555
  8
0
 10
85.605184932729557
 20
483.1066437958952
 30
0.0
 11
86.220556932729778
 21
482.29001779589532
 31
0.0
  0
ARC
  5
2556
  8
0
 10
81.280556932730164
 20
481.99038779589517
 30
0.0
 40
1.659999999999999
 50
48.493283999997161
 51
180.0
  0
ARC
  5
2557
  8
0
 10
84.070556932730128
 20
457.31316379589532
 30
0.0
 40
2.5499999999999989
 50
52.999999999998252
 51
131.45000000000621
  0
ARC
  5
2558
  8
0
 10
84.070556932730128
 20
457.31316379589532
 30
0.0
 40
4.0999999999999988
 50
58.372796000010119
 51
131.5067160000028
  0
ARC
  5
2559
  8
0
 10
81.280556932730164
 20
460.46594079589522
 30
0.0
 40
0.11
 50
180.0
 51
311.50671600000288
  0
ARC
  5
255A
  8
0
 10
81.280556932730164
 20
460.46594079589522
 30
0.0
 40
1.659999999999999
 50
180.0
 51
311.50671600000288
  0
LINE
  5
255B
  8
0
 10
86.220556932729778
 20
460.16631079589519
 30
0.0
 11
86.220556932729778
 21
460.80422379589533
 31
0.0
  0
LINE
  5
255C
  8
0
 10
85.605184932729557
 20
459.3496847958952
 30
0.0
 11
86.220556932729778
 21
460.16631079589519
 31
0.0
  0
LINE
  5
255D
  8
0
 10
79.620556932729855
 20
460.46594079589522
 30
0.0
 11
79.620556932729855
 21
481.99038779589517
 31
0.0
  0
LINE
  5
255E
  8
0
 10
79.620556932729855
 20
460.46594079589522
 30
0.0
 11
79.620556932729855
 21
481.99038779589517
 31
0.0
  0
LINE
  5
255F
  8
0
 10
81.170556932730051
 20
460.46594079589522
 30
0.0
 11
81.170556932730051
 21
481.99038779589517
 31
0.0
  0
POINT
  5
2671
  8
0
 10
89.170556932730136
 20
457.66714579589518
 30
0.0
  0
LINE
  5
2672
  8
0
 10
89.170556932730136
 20
457.66714579589518
 30
0.0
 11
89.170556932730136
 21
484.78918179589522
 31
0.0
  0
ARC
  5
2673
  8
0
 10
84.070556932730128
 20
484.97316379589518
 30
0.0
 40
2.379999999999999
 50
188.56954700000199
 51
345.43045300000171
  0
ARC
  5
2674
  8
0
 10
84.170556932730136
 20
484.80316379589522
 30
0.0
 40
4.0999999999999988
 50
44.999999999995389
 51
135.0000000000046
  0
LINE
  5
2676
  8
0
 10
85.9558239327298
 20
486.5202157958953
 30
0.0
 11
87.450932932729756
 21
484.96228479589519
 31
0.0
  0
LINE
  5
2677
  8
0
 10
87.069693932729564
 20
487.70230179589521
 30
0.0
 11
88.669263932729876
 21
486.03551979589531
 31
0.0
  0
LINE
  5
2678
  8
0
 10
77.969694735595141
 20
487.7023015987599
 30
0.0
 11
78.53055754640954
 21
487.11787279589532
 31
0.0
  0
LINE
  5
267A
  8
0
 10
78.940990932730074
 20
485.19346879589523
 30
0.0
 11
78.967158932729944
 21
484.69415479589532
 31
0.0
  0
LINE
  5
267B
  8
0
 10
80.300121932729795
 20
485.19346879589523
 30
0.0
 11
80.27395393272991
 21
484.69415479589532
 31
0.0
  0
LINE
  5
267C
  8
0
 10
86.581023932729735
 20
484.36361479589522
 30
0.0
 11
80.27395393272991
 21
484.69415479589532
 31
0.0
  0
LINE
  5
267D
  8
0
 10
86.60719193272962
 20
484.8629297958953
 30
0.0
 11
80.300121932729795
 21
485.19346879589523
 31
0.0
  0
ARC
  5
267E
  8
0
 10
84.070556932730128
 20
484.97316379589518
 30
0.0
 40
2.379999999999999
 50
357.54585400000121
 51
176.45414600000061
  0
LINE
  5
267F
  8
0
 10
76.973446932729985
 20
486.6060547958952
 30
0.0
 11
77.5343089327298
 21
486.0216257958952
 31
0.0
  0
ARC
  5
2680
  8
0
 10
84.070556932730128
 20
484.80316379589522
 30
0.0
 40
2.5499999999999989
 50
42.326427999999758
 51
135.0000000000046
  0
LINE
  5
2681
  8
0
 10
82.267665932729869
 20
486.6060547958952
 30
0.0
 11
81.706803932730054
 21
486.0216257958952
 31
0.0
  0
LINE
  5
2682
  8
0
 10
81.271419129865052
 20
487.7023015987599
 30
0.0
 11
80.710557319051617
 21
487.11787279589532
 31
0.0
  0
ARC
  5
2683
  8
0
 10
87.27055693272996
 20
484.78918179589522
 30
0.0
 40
0.25
 50
0.0
 51
43.821186999997799
  0
ARC
  5
2684
  8
0
 10
86.570556932730128
 20
484.16388879589528
 30
0.0
 40
0.2
 50
0.0
 51
86.999999999994415
  0
ARC
  5
2685
  8
0
 10
86.570556932730128
 20
484.16388879589528
 30
0.0
 40
0.7
 50
0.0
 51
86.999999999994415
  0
ARC
  5
2686
  8
0
 10
71.870556932729784
 20
484.78918179589522
 30
0.0
 40
1.8
 50
136.17881300000221
 51
180.0
  0
LINE
  5
2687
  8
0
 10
72.171418932729836
 20
487.70230179589521
 30
0.0
 11
70.571848932729978
 21
486.03551979589531
 31
0.0
  0
LINE
  5
2688
  8
0
 10
73.285288932730055
 20
486.5202157958953
 30
0.0
 11
71.790180932729982
 21
484.96228479589519
 31
0.0
  0
ARC
  5
2689
  8
0
 10
71.970556932729778
 20
484.78918179589522
 30
0.0
 40
0.25
 50
136.17881300000221
 51
180.0
  0
ARC
  5
268A
  8
0
 10
72.670556932730051
 20
484.16388879589528
 30
0.0
 40
0.7
 50
93.000000000005585
 51
180.0
  0
ARC
  5
268B
  8
0
 10
72.670556932730051
 20
484.16388879589528
 30
0.0
 40
0.2
 50
93.000000000005585
 51
180.0
  0
ARC
  5
268C
  8
0
 10
75.170556932730051
 20
484.97316379589518
 30
0.0
 40
2.379999999999999
 50
194.56954699999829
 51
351.43045299999801
  0
ARC
  5
268D
  8
0
 10
75.070556932730057
 20
484.80316379589522
 30
0.0
 40
4.0999999999999988
 50
44.999999999995389
 51
135.0000000000046
  0
ARC
  5
268E
  8
0
 10
75.170556932730051
 20
484.97316379589518
 30
0.0
 40
2.379999999999999
 50
3.545853999999327
 51
182.45414599999879
  0
LINE
  5
268F
  8
0
 10
72.633920932729779
 20
484.8629297958953
 30
0.0
 11
78.940990932730074
 21
485.19346879589523
 31
0.0
  0
LINE
  5
2690
  8
0
 10
72.660088932730105
 20
484.36361479589522
 30
0.0
 11
78.967158932729944
 21
484.69415479589532
 31
0.0
  0
ARC
  5
2691
  8
0
 10
75.170556932730051
 20
484.80316379589522
 30
0.0
 40
2.5499999999999989
 50
44.999999999995389
 51
137.67357200000021
  0
LINE
  5
2692
  8
0
 10
87.069693932729564
 20
454.75402679589519
 30
0.0
 11
88.669263932729876
 21
456.4208077958952
 31
0.0
  0
LINE
  5
2693
  8
0
 10
85.9558239327298
 20
455.93611279589521
 30
0.0
 11
87.450932932729756
 21
457.49404379589532
 31
0.0
  0
LINE
  5
2694
  8
0
 10
82.267665932729869
 20
455.8502737958953
 30
0.0
 11
81.706803932730054
 21
456.4347027958953
 31
0.0
  0
LINE
  5
2696
  8
0
 10
81.271418932729475
 20
454.75402679589519
 30
0.0
 11
80.710556932730086
 21
455.3384547958953
 31
0.0
  0
ARC
  5
2697
  8
0
 10
84.170556932730136
 20
457.65316379589518
 30
0.0
 40
4.0999999999999988
 50
224.9999999999954
 51
315.0000000000046
  0
ARC
  5
2698
  8
0
 10
84.070556932730128
 20
457.65316379589518
 30
0.0
 40
2.5499999999999989
 50
224.9999999999954
 51
317.67357200000021
  0
ARC
  5
2699
  8
0
 10
87.27055693272996
 20
457.66714579589518
 30
0.0
 40
0.25
 50
316.17881300000209
 51
0.0
  0
LINE
  5
269B
  8
0
 10
77.969694735595141
 20
454.75402599303061
 30
0.0
 11
78.530558506087772
 21
455.3384547958953
 31
0.0
  0
LINE
  5
269C
  8
0
 10
76.973446932729985
 20
455.8502737958953
 30
0.0
 11
77.5343089327298
 21
456.4347027958953
 31
0.0
  0
ARC
  5
269D
  8
0
 10
84.870556932729869
 20
475.72816379589528
 30
0.0
 40
0.3
 50
90.0
 51
180.0
  0
LINE
  5
269E
  8
0
 10
86.470556932729778
 20
476.02816379589518
 30
0.0
 11
84.870556932729869
 21
476.02816379589518
 31
0.0
  0
ARC
  5
269F
  8
0
 10
86.470556932729778
 20
476.82816379589531
 30
0.0
 40
0.8
 50
270.0
 51
0.0
  0
ARC
  5
26A0
  8
0
 10
86.470556932729778
 20
476.82816379589531
 30
0.0
 40
0.3
 50
270.0
 51
0.0
  0
LINE
  5
26A1
  8
0
 10
86.470556932729778
 20
476.52816379589518
 30
0.0
 11
84.870556932729869
 21
476.52816379589518
 31
0.0
  0
ARC
  5
26A2
  8
0
 10
84.870556932729869
 20
475.72816379589528
 30
0.0
 40
0.8
 50
90.0
 51
180.0
  0
LINE
  5
26A3
  8
0
 10
84.570556932730142
 20
475.72816379589528
 30
0.0
 11
84.570556932730142
 21
466.72816379589528
 31
0.0
  0
LINE
  5
26A4
  8
0
 10
84.070556932730128
 20
475.72816379589528
 30
0.0
 11
84.070556932730128
 21
466.72816379589528
 31
0.0
  0
LINE
  5
26A5
  8
0
 10
87.27055693272996
 20
458.29243979589529
 30
0.0
 11
87.27055693272996
 21
465.62816379589532
 31
0.0
  0
LINE
  5
26A6
  8
0
 10
86.770556932729946
 20
458.29243979589529
 30
0.0
 11
86.770556932729946
 21
465.62816379589532
 31
0.0
  0
ARC
  5
26A7
  8
0
 10
86.470556932729778
 20
465.62816379589532
 30
0.0
 40
0.8
 50
0.0
 51
90.0
  0
LINE
  5
26A8
  8
0
 10
86.470556932729778
 20
466.42816379589527
 30
0.0
 11
84.870556932729869
 21
466.42816379589527
 31
0.0
  0
ARC
  5
26A9
  8
0
 10
84.870556932729869
 20
466.72816379589528
 30
0.0
 40
0.3
 50
180.0
 51
270.0
  0
ARC
  5
26AA
  8
0
 10
86.470556932729778
 20
465.62816379589532
 30
0.0
 40
0.3
 50
0.0
 51
90.0
  0
LINE
  5
26AB
  8
0
 10
86.470556932729778
 20
465.92816379589527
 30
0.0
 11
84.870556932729869
 21
465.92816379589527
 31
0.0
  0
ARC
  5
26AC
  8
0
 10
84.870556932729869
 20
466.72816379589528
 30
0.0
 40
0.8
 50
180.0
 51
270.0
  0
LINE
  5
26AD
  8
0
 10
80.300121932729795
 20
457.26285879589523
 30
0.0
 11
80.27395393272991
 21
457.76217379589519
 31
0.0
  0
LINE
  5
26AE
  8
0
 10
78.940990932730074
 20
457.26285879589523
 30
0.0
 11
78.967158932729944
 21
457.76217379589519
 31
0.0
  0
LINE
  5
26AF
  8
0
 10
86.581023932729735
 20
458.09271379589518
 30
0.0
 11
80.27395393272991
 21
457.76217379589519
 31
0.0
  0
ARC
  5
26B0
  8
0
 10
84.070556932730128
 20
457.48316379589522
 30
0.0
 40
2.379999999999999
 50
14.569546999998311
 51
171.43045299999801
  0
LINE
  5
26B1
  8
0
 10
86.60719193272962
 20
457.59339879589521
 30
0.0
 11
80.300121932729795
 21
457.26285879589523
 31
0.0
  0
ARC
  5
26B2
  8
0
 10
84.070556932730128
 20
457.48316379589522
 30
0.0
 40
2.379999999999999
 50
183.54585399999931
 51
2.454145999998802
  0
ARC
  5
26B3
  8
0
 10
86.570556932730128
 20
458.29243979589529
 30
0.0
 40
0.2
 50
273.00000000000563
 51
0.0
  0
ARC
  5
26B4
  8
0
 10
86.570556932730128
 20
458.29243979589529
 30
0.0
 40
0.7
 50
273.00000000000563
 51
0.0
  0
LINE
  5
26B5
  8
0
 10
74.670556932730051
 20
475.72816379589528
 30
0.0
 11
74.670556932730051
 21
466.72816379589528
 31
0.0
  0
LINE
  5
26B6
  8
0
 10
75.170556932730051
 20
475.72816379589528
 30
0.0
 11
75.170556932730051
 21
466.72816379589528
 31
0.0
  0
ARC
  5
26B7
  8
0
 10
71.870556932729784
 20
457.66714579589518
 30
0.0
 40
1.8
 50
180.0
 51
223.82118699999779
  0
LINE
  5
26B8
  8
0
 10
72.171418932729836
 20
454.75402679589519
 30
0.0
 11
70.571848932729978
 21
456.4208077958952
 31
0.0
  0
LINE
  5
26B9
  8
0
 10
73.285288932730055
 20
455.93611279589521
 30
0.0
 11
71.790180932729982
 21
457.49404379589532
 31
0.0
  0
ARC
  5
26BA
  8
0
 10
71.970556932729778
 20
457.66714579589518
 30
0.0
 40
0.25
 50
180.0
 51
223.82118699999779
  0
POINT
  5
26BB
  8
0
 10
70.070556932730057
 20
457.66714579589518
 30
0.0
  0
ARC
  5
26BC
  8
0
 10
72.77055693272996
 20
476.82816379589531
 30
0.0
 40
0.8
 50
180.0
 51
270.0
  0
ARC
  5
26BD
  8
0
 10
72.77055693272996
 20
476.82816379589531
 30
0.0
 40
0.3
 50
180.0
 51
270.0
  0
LINE
  5
26BE
  8
0
 10
72.77055693272996
 20
476.02816379589518
 30
0.0
 11
74.370556932729869
 21
476.02816379589518
 31
0.0
  0
LINE
  5
26BF
  8
0
 10
72.77055693272996
 20
476.52816379589518
 30
0.0
 11
74.370556932729869
 21
476.52816379589518
 31
0.0
  0
LINE
  5
26C0
  8
0
 10
71.970556932729778
 20
458.29243979589529
 30
0.0
 11
71.970556932729778
 21
465.62816379589532
 31
0.0
  0
LINE
  5
26C1
  8
0
 10
72.470556932729778
 20
458.29243979589529
 30
0.0
 11
72.470556932729778
 21
465.62816379589532
 31
0.0
  0
ARC
  5
26C2
  8
0
 10
72.77055693272996
 20
465.62816379589532
 30
0.0
 40
0.8
 50
90.0
 51
180.0
  0
ARC
  5
26C3
  8
0
 10
72.77055693272996
 20
465.62816379589532
 30
0.0
 40
0.3
 50
90.0
 51
180.0
  0
LINE
  5
26C4
  8
0
 10
72.77055693272996
 20
466.42816379589527
 30
0.0
 11
74.370556932729869
 21
466.42816379589527
 31
0.0
  0
LINE
  5
26C5
  8
0
 10
72.77055693272996
 20
465.92816379589527
 30
0.0
 11
74.370556932729869
 21
465.92816379589527
 31
0.0
  0
ARC
  5
26C6
  8
0
 10
72.670556932730051
 20
458.29243979589529
 30
0.0
 40
0.7
 50
180.0
 51
266.99999999999437
  0
ARC
  5
26C7
  8
0
 10
72.670556932730051
 20
458.29243979589529
 30
0.0
 40
0.2
 50
180.0
 51
266.99999999999437
  0
ARC
  5
26C8
  8
0
 10
74.370556932729869
 20
475.72816379589528
 30
0.0
 40
0.3
 50
0.0
 51
90.0
  0
ARC
  5
26C9
  8
0
 10
74.370556932729869
 20
475.72816379589528
 30
0.0
 40
0.8
 50
0.0
 51
90.0
  0
ARC
  5
26CA
  8
0
 10
74.370556932729869
 20
466.72816379589528
 30
0.0
 40
0.3
 50
270.0
 51
0.0
  0
ARC
  5
26CB
  8
0
 10
74.370556932729869
 20
466.72816379589528
 30
0.0
 40
0.8
 50
270.0
 51
0.0
  0
ARC
  5
26CC
  8
0
 10
75.070556932730057
 20
457.65316379589518
 30
0.0
 40
4.0999999999999988
 50
224.9999999999954
 51
315.0000000000046
  0
ARC
  5
26CD
  8
0
 10
75.170556932730051
 20
457.65316379589518
 30
0.0
 40
2.5499999999999989
 50
222.32642799999979
 51
315.0000000000046
  0
ARC
  5
26CE
  8
0
 10
75.170556932730051
 20
457.48316379589522
 30
0.0
 40
2.379999999999999
 50
8.5695470000019647
 51
165.43045300000159
  0
ARC
  5
26CF
  8
0
 10
75.170556932730051
 20
457.48316379589522
 30
0.0
 40
2.379999999999999
 50
177.54585400000121
 51
356.45414600000072
  0
LINE
  5
26D0
  8
0
 10
72.660088932730105
 20
458.09271379589518
 30
0.0
 11
78.967158932729944
 21
457.76217379589519
 31
0.0
  0
LINE
  5
26D1
  8
0
 10
72.633920932729779
 20
457.59339879589521
 30
0.0
 11
78.940990932730074
 21
457.26285879589523
 31
0.0
  0
LINE
  5
26D2
  8
0
 10
87.52055693272996
 20
457.66714579589518
 30
0.0
 11
87.52055693272996
 21
484.78918179589522
 31
0.0
  0
LINE
  5
26D3
  8
0
 10
71.720556932729764
 20
457.66714579589518
 30
0.0
 11
71.720556932729764
 21
484.78918179589522
 31
0.0
  0
LINE
  5
26D4
  8
0
 10
70.070556932730057
 20
457.66714579589518
 30
0.0
 11
70.070556932730057
 21
484.78918179589522
 31
0.0
  0
LINE
  5
26D5
  8
0
 10
71.970556932729778
 20
484.16388879589528
 30
0.0
 11
71.970556932729778
 21
476.82816379589531
 31
0.0
  0
LINE
  5
26D6
  8
0
 10
72.470556932729778
 20
484.16388879589528
 30
0.0
 11
72.470556932729778
 21
476.82816379589531
 31
0.0
  0
LINE
  5
26D7
  8
0
 10
87.27055693272996
 20
484.16388879589528
 30
0.0
 11
87.27055693272996
 21
476.82816379589531
 31
0.0
  0
LINE
  5
26D8
  8
0
 10
86.770556932729946
 20
484.16388879589528
 30
0.0
 11
86.770556932729946
 21
476.82816379589531
 31
0.0
  0
LINE
  5
26D9
  8
1
 10
65.170556932730051
 20
471.22816379589528
 30
0.0
 11
94.070556932730128
 21
471.22816379589528
 31
0.0
  0
ARC
  5
26DA
  8
0
 10
87.370556932729954
 20
457.66714579589518
 30
0.0
 40
1.8
 50
316.17881300000209
 51
0.0
  0
ARC
  5
26DB
  8
0
 10
87.370556932729954
 20
484.78918179589522
 30
0.0
 40
1.8
 50
0.0
 51
43.821186999997799
  0
LINE
  5
2B56
  8
0
 10
80.710557319051645
 20
487.11787279589532
 30
0.0
 11
81.706803932730054
 21
486.0216257958952
 31
0.0
  0
LINE
  5
2B57
  8
0
 10
77.534308932729857
 20
486.02162579589532
 30
0.0
 11
78.53055754640954
 21
487.11787279589532
 31
0.0
  0
LINE
  5
2B5A
  8
0
 10
77.534308932729743
 20
456.4347027958953
 30
0.0
 11
78.530558506087743
 21
455.3384547958953
 31
0.0
  0
LINE
  5
2B5B
  8
0
 10
80.710556932730086
 20
455.3384547958953
 30
0.0
 11
81.706803932730054
 21
456.4347027958953
 31
0.0
  0
LINE
  5
41E4
  8
0
 10
684.37055693273032
 20
453.55316379589522
 30
0.0
 11
684.37055693273032
 21
458.80593979589543
 31
0.0
  0
LINE
  5
41E5
  8
0
 10
684.37055693273032
 20
453.57816379589542
 30
0.0
 11
684.37055693273032
 21
459.02934679589532
 31
0.0
  0
LINE
  5
41E6
  8
0
 10
684.37055693273032
 20
459.02934679589532
 30
0.0
 11
684.37055693273032
 21
453.57816379589542
 31
0.0
  0
LINE
  5
41E7
  8
0
 10
684.37055693273032
 20
459.02934679589532
 30
0.0
 11
684.37055693273032
 21
453.57816379589542
 31
0.0
  0
LINE
  5
41E8
  8
0
 10
684.37055693273032
 20
453.57816379589542
 30
0.0
 11
684.37055693273032
 21
459.02934679589532
 31
0.0
  0
LINE
  5
41E9
  8
0
 10
684.37055693273032
 20
453.57816379589542
 30
0.0
 11
684.37055693273032
 21
459.02934679589532
 31
0.0
  0
LINE
  5
41EA
  8
0
 10
684.37055693273032
 20
453.55316379589522
 30
0.0
 11
684.37055693273032
 21
459.02934679589532
 31
0.0
  0
POINT
  5
41EB
  8
0
 10
684.37055693273032
 20
453.57816379589542
 30
0.0
  0
POINT
  5
41EC
  8
0
 10
684.37055693273032
 20
453.57816379589542
 30
0.0
  0
LINE
  5
4205
  8
2
 10
688.57055693273014
 20
463.72816379589523
 30
0.0
 11
688.57055693273014
 21
478.72816379589528
 31
0.0
  0
LINE
  5
420C
  8
2
 10
686.97055693273023
 20
478.72816379589528
 30
0.0
 11
688.57055693273014
 21
478.72816379589528
 31
0.0
  0
LINE
  5
420D
  8
2
 10
686.97055693273023
 20
463.72816379589523
 30
0.0
 11
688.57055693273014
 21
463.72816379589523
 31
0.0
  0
LINE
  5
420E
  8
2
 10
686.97055693273023
 20
478.22816379589523
 30
0.0
 11
688.57055693273014
 21
478.22816379589523
 31
0.0
  0
LINE
  5
420F
  8
2
 10
686.97055693273023
 20
463.72816379589523
 30
0.0
 11
686.97055693273023
 21
478.72816379589528
 31
0.0
  0
LINE
  5
4210
  8
2
 10
684.37055693273032
 20
464.22816379589523
 30
0.0
 11
686.97055693273023
 21
463.72816379589523
 31
0.0
  0
LINE
  5
4211
  8
2
 10
686.97055693273023
 20
464.22816379589523
 30
0.0
 11
688.57055693273014
 21
464.22816379589523
 31
0.0
  0
LINE
  5
4212
  8
2
 10
684.37055693273032
 20
478.22816379589523
 30
0.0
 11
686.97055693273023
 21
478.72816379589528
 31
0.0
  0
LINE
  5
4213
  8
0
 10
684.37055693273032
 20
483.65038679589532
 30
0.0
 11
684.37055693273032
 21
488.90316379589552
 31
0.0
  0
POINT
  5
4214
  8
0
 10
684.37055693273032
 20
488.90316379589552
 30
0.0
  0
POINT
  5
4215
  8
0
 10
688.57055693273014
 20
483.65038679589532
 30
0.0
  0
POINT
  5
4216
  8
0
 10
684.37055693273032
 20
488.90316379589552
 30
0.0
  0
POINT
  5
4217
  8
0
 10
684.37055693273032
 20
483.65038679589532
 30
0.0
  0
POINT
  5
4218
  8
0
 10
688.57055693273014
 20
483.65038679589532
 30
0.0
  0
POINT
  5
4219
  8
0
 10
684.37055693273032
 20
481.6521027958953
 30
0.0
  0
POINT
  5
421D
  8
0
 10
1116.6705569327301
 20
462.36816379589533
 30
0.0
  0
POINT
  5
421E
  8
0
 10
1192.3705569327301
 20
461.40316379589541
 30
0.0
  0
POINT
  5
421F
  8
0
 10
1104.6705569327301
 20
453.55316379589522
 30
0.0
  0
POINT
  5
4220
  8
0
 10
1192.3705569327301
 20
488.90316379589552
 30
0.0
  0
POINT
  5
4222
  8
0
 10
1192.3705569327301
 20
488.90316379589552
 30
0.0
  0
LINE
  5
4224
  8
0
 10
1104.1463379327299
 20
455.33845479589542
 30
0.0
 11
1104.6705569327301
 21
455.33845479589542
 31
0.0
  0
LINE
  5
4225
  8
0
 10
1102.6705569327301
 20
487.11787179589538
 30
0.0
 11
1192.3705569327301
 21
487.11787179589538
 31
0.0
  0
LINE
  5
4226
  8
0
 10
1102.3351589327301
 20
453.55316379589522
 30
0.0
 11
1104.1463379327299
 21
455.33845479589542
 31
0.0
  0
LINE
  5
4227
  8
0
 10
1104.6705569327301
 20
453.55316379589522
 30
0.0
 11
1104.6705569327301
 21
455.33845479589542
 31
0.0
  0
LINE
  5
4228
  8
0
 10
1116.6705569327301
 20
466.16816379589528
 30
0.0
 11
1116.6705569327301
 21
462.36816379589533
 31
0.0
  0
LINE
  5
4229
  8
0
 10
1118.6705569327301
 20
466.16816379589528
 30
0.0
 11
1118.6705569327301
 21
462.36816379589533
 31
0.0
  0
LINE
  5
422A
  8
0
 10
1123.0705569327299
 20
462.36816379589533
 30
0.0
 11
1116.6705569327301
 21
462.36816379589533
 31
0.0
  0
LINE
  5
422B
  8
0
 10
1123.0705569327299
 20
466.16816379589528
 30
0.0
 11
1116.6705569327301
 21
466.16816379589528
 31
0.0
  0
LINE
  5
422C
  8
0
 10
1123.0705569327299
 20
476.2881637958954
 30
0.0
 11
1116.6705569327301
 21
476.2881637958954
 31
0.0
  0
LINE
  5
422D
  8
0
 10
1123.0705569327299
 20
480.08816379589541
 30
0.0
 11
1116.6705569327301
 21
480.08816379589541
 31
0.0
  0
LINE
  5
422E
  8
0
 10
1118.6705569327301
 20
480.08816379589541
 30
0.0
 11
1118.6705569327301
 21
476.2881637958954
 31
0.0
  0
LINE
  5
422F
  8
0
 10
1116.6705569327301
 20
480.08816379589541
 30
0.0
 11
1116.6705569327301
 21
476.2881637958954
 31
0.0
  0
LINE
  5
4230
  8
0
 10
1190.77055693273
 20
481.00316379589532
 30
0.0
 11
1190.77055693273
 21
461.40316379589541
 31
0.0
  0
LINE
  5
4231
  8
0
 10
1192.3705569327301
 20
458.60316379589523
 30
0.0
 11
1192.3705569327301
 21
453.55316379589522
 31
0.0
  0
LINE
  5
4232
  8
0
 10
1192.3705569327301
 20
481.00316379589532
 30
0.0
 11
1192.3705569327301
 21
461.40316379589541
 31
0.0
  0
LINE
  5
4233
  8
0
 10
1192.3705569327301
 20
488.90316379589552
 30
0.0
 11
1192.3705569327301
 21
483.80316379589527
 31
0.0
  0
LINE
  5
4234
  8
0
 10
1192.3705569327301
 20
488.87816379589532
 30
0.0
 11
1192.3705569327301
 21
485.17816379589527
 31
0.0
  0
LINE
  5
4235
  8
0
 10
1192.3705569327301
 20
484.87816379589532
 30
0.0
 11
1192.3705569327301
 21
488.87816379589532
 31
0.0
  0
LINE
  5
4236
  8
0
 10
1192.3705569327301
 20
484.87816379589532
 30
0.0
 11
1192.3705569327301
 21
488.87816379589532
 31
0.0
  0
POINT
  5
4237
  8
0
 10
1192.3705569327301
 20
488.87816379589532
 30
0.0
  0
POINT
  5
4238
  8
0
 10
1192.3705569327301
 20
488.87816379589532
 30
0.0
  0
POINT
  5
4239
  8
0
 10
1192.3705569327301
 20
488.87816379589532
 30
0.0
  0
POINT
  5
423A
  8
0
 10
1192.3705569327301
 20
488.87816379589532
 30
0.0
  0
POINT
  5
423B
  8
0
 10
1192.3705569327301
 20
488.87816379589532
 30
0.0
  0
POINT
  5
423C
  8
0
 10
1192.3705569327301
 20
488.87816379589532
 30
0.0
  0
POINT
  5
423D
  8
0
 10
1192.3705569327301
 20
488.87816379589532
 30
0.0
  0
POINT
  5
423E
  8
0
 10
1192.3705569327301
 20
488.87816379589532
 30
0.0
  0
POINT
  5
423F
  8
0
 10
1192.3705569327301
 20
488.87816379589532
 30
0.0
  0
LINE
  5
4240
  8
0
 10
1192.3705569327301
 20
488.90316379589552
 30
0.0
 11
1192.3705569327301
 21
485.17816379589527
 31
0.0
  0
LINE
  5
4241
  8
0
 10
1192.3705569327301
 20
488.87816379589532
 30
0.0
 11
1192.3705569327301
 21
483.80316379589527
 31
0.0
1001
ACAD
1000
ASC_BOUNDS
1002
{
1070
    19
1002
}
  0
ARC
  5
4248
  8
0
 10
1189.8705569327301
 20
481.50316379589532
 30
0.0
 40
0.5
 50
135.0
 51
270.0
1001
ACAD
1000
ASC_BOUNDS
1002
{
1070
    19
1002
}
  0
LINE
  5
4249
  8
0
 10
1189.8705569327301
 20
481.00316379589532
 30
0.0
 11
1192.3705569327301
 21
481.00316379589532
 31
0.0
1001
ACAD
1000
ASC_BOUNDS
1002
{
1070
    19
1002
}
  0
LINE
  5
424A
  8
0
 10
1189.5170039327299
 20
481.85671679589552
 30
0.0
 11
1192.3705569327301
 21
483.80316379589527
 31
0.0
1001
ACAD
1000
ASC_BOUNDS
1002
{
1070
    19
1002
}
  0
LINE
  5
424B
  8
0
 10
1192.3705569327301
 20
453.57816379589542
 30
0.0
 11
1192.3705569327301
 21
457.27816379589541
 31
0.0
  0
LINE
  5
424C
  8
0
 10
1192.3705569327301
 20
453.57816379589542
 30
0.0
 11
1192.3705569327301
 21
457.27816379589541
 31
0.0
  0
LINE
  5
424D
  8
0
 10
1192.3705569327301
 20
457.57816379589542
 30
0.0
 11
1192.3705569327301
 21
453.57816379589542
 31
0.0
  0
LINE
  5
424E
  8
0
 10
1192.3705569327301
 20
457.57816379589542
 30
0.0
 11
1192.3705569327301
 21
453.57816379589542
 31
0.0
  0
LINE
  5
424F
  8
0
 10
1192.3705569327301
 20
458.60316379589523
 30
0.0
 11
1192.3705569327301
 21
453.55316379589522
 31
0.0
1001
ACAD
1000
ASC_BOUNDS
1002
{
1070
    19
1002
}
  0
POINT
  5
4250
  8
0
 10
1192.3705569327301
 20
453.57816379589542
 30
0.0
  0
POINT
  5
4251
  8
0
 10
1192.3705569327301
 20
453.57816379589542
 30
0.0
  0
ARC
  5
4252
  8
0
 10
1189.8705569327301
 20
460.90316379589541
 30
0.0
 40
0.5
 50
90.0
 51
225.0
1001
ACAD
1000
ASC_BOUNDS
1002
{
1070
    19
1002
}
  0
LINE
  5
4253
  8
0
 10
1189.5170039327299
 20
460.54960979589538
 30
0.0
 11
1192.3705569327301
 21
458.60316379589523
 31
0.0
1001
ACAD
1000
ASC_BOUNDS
1002
{
1070
    19
1002
}
  0
LINE
  5
4254
  8
0
 10
1189.8705569327301
 20
461.40316379589541
 30
0.0
 11
1192.3705569327301
 21
461.40316379589541
 31
0.0
1001
ACAD
1000
ASC_BOUNDS
1002
{
1070
    19
1002
}
  0
LINE
  5
4261
  8
0
 10
684.37055693273032
 20
453.55316379589522
 30
0.0
 11
1192.3705569327301
 21
453.55316379589522
 31
0.0
  0
LINE
  5
4262
  8
0
 10
154.07055693273011
 20
456.43470179589542
 30
0.0
 11
662.07055693273003
 21
456.43470179589542
 31
0.0
  0
LINE
  5
4263
  8
0
 10
154.07055693273011
 20
455.33845479589542
 30
0.0
 11
662.07055693273003
 21
455.33845479589542
 31
0.0
  0
LINE
  5
4264
  8
0
 10
154.07055693273011
 20
487.11787179589538
 30
0.0
 11
662.07055693273014
 21
487.11787179589538
 31
0.0
  0
LINE
  5
4265
  8
0
 10
154.07055693273011
 20
486.02162479589549
 30
0.0
 11
662.07055693273003
 21
486.02162479589549
 31
0.0
  0
LINE
  5
4266
  8
0
 10
684.37055693273032
 20
488.90316379589552
 30
0.0
 11
1192.3705569327301
 21
488.90316379589552
 31
0.0
  0
LINE
  5
42FB
  8
1
 10
144.07055693273011
 20
471.22816379589528
 30
0.0
 11
1202.3705569327301
 21
471.22816379589528
 31
0.0
  0
POINT
  5
42FC
  8
0
 10
154.07055693273011
 20
458.60316379589523
 30
0.0
  0
POINT
  5
42FD
  8
0
 10
229.77055693273039
 20
462.36816379589533
 30
0.0
  0
POINT
  5
42FE
  8
0
 10
154.07055693273011
 20
455.33845479589542
 30
0.0
  0
POINT
  5
42FF
  8
0
 10
154.07055693273011
 20
488.90316379589552
 30
0.0
  0
POINT
  5
4300
  8
0
 10
154.07055693273011
 20
488.90316379589552
 30
0.0
  0
LINE
  5
4301
  8
0
 10
154.07055693273011
 20
488.90316379589552
 30
0.0
 11
154.07055693273011
 21
485.17816379589527
 31
0.0
  0
POINT
  5
4302
  8
0
 10
154.07055693273011
 20
488.87816379589532
 30
0.0
  0
POINT
  5
4303
  8
0
 10
154.07055693273011
 20
488.87816379589532
 30
0.0
  0
POINT
  5
4304
  8
0
 10
154.07055693273011
 20
488.87816379589532
 30
0.0
  0
POINT
  5
4305
  8
0
 10
154.07055693273011
 20
488.87816379589532
 30
0.0
  0
POINT
  5
4306
  8
0
 10
154.07055693273011
 20
488.87816379589532
 30
0.0
  0
POINT
  5
4307
  8
0
 10
154.07055693273011
 20
488.87816379589532
 30
0.0
  0
POINT
  5
4308
  8
0
 10
154.07055693273011
 20
488.87816379589532
 30
0.0
  0
POINT
  5
4309
  8
0
 10
154.07055693273011
 20
488.87816379589532
 30
0.0
  0
POINT
  5
430A
  8
0
 10
154.07055693273011
 20
488.87816379589532
 30
0.0
  0
LINE
  5
430B
  8
0
 10
154.07055693273011
 20
484.87816379589532
 30
0.0
 11
154.07055693273011
 21
488.87816379589532
 31
0.0
  0
LINE
  5
430C
  8
0
 10
154.07055693273011
 20
484.87816379589532
 30
0.0
 11
154.07055693273011
 21
488.87816379589532
 31
0.0
  0
LINE
  5
430D
  8
0
 10
154.07055693273011
 20
488.87816379589532
 30
0.0
 11
154.07055693273011
 21
485.17816379589527
 31
0.0
  0
POINT
  5
430E
  8
0
 10
154.07055693273011
 20
453.57816379589542
 30
0.0
  0
POINT
  5
430F
  8
0
 10
154.07055693273011
 20
453.57816379589542
 30
0.0
  0
LINE
  5
4310
  8
0
 10
154.07055693273011
 20
458.60316379589523
 30
0.0
 11
154.07055693273011
 21
453.55316379589522
 31
0.0
1001
ACAD
1000
ASC_BOUNDS
1002
{
1070
    19
1002
}
  0
LINE
  5
4311
  8
0
 10
154.07055693273011
 20
457.57816379589542
 30
0.0
 11
154.07055693273011
 21
453.57816379589542
 31
0.0
  0
LINE
  5
4312
  8
0
 10
154.07055693273011
 20
457.57816379589542
 30
0.0
 11
154.07055693273011
 21
453.57816379589542
 31
0.0
  0
LINE
  5
4313
  8
0
 10
154.07055693273011
 20
453.57816379589542
 30
0.0
 11
154.07055693273011
 21
457.27816379589541
 31
0.0
  0
LINE
  5
4314
  8
0
 10
154.07055693273011
 20
453.57816379589542
 30
0.0
 11
154.07055693273011
 21
457.27816379589541
 31
0.0
  0
LINE
  5
4315
  8
0
 10
154.07055693273011
 20
458.60316379589523
 30
0.0
 11
154.07055693273011
 21
453.55316379589522
 31
0.0
  0
LINE
  5
4316
  8
0
 10
154.07055693273011
 20
481.00316379589532
 30
0.0
 11
154.07055693273011
 21
461.40316379589541
 31
0.0
  0
LINE
  5
4317
  8
0
 10
154.07055693273011
 20
488.87816379589532
 30
0.0
 11
154.07055693273011
 21
483.80316379589527
 31
0.0
1001
ACAD
1000
ASC_BOUNDS
1002
{
1070
    19
1002
}
  0
LINE
  5
4318
  8
0
 10
154.07055693273011
 20
488.90316379589552
 30
0.0
 11
154.07055693273011
 21
483.80316379589527
 31
0.0
  0
ARC
  5
4319
  8
0
 10
156.57055693273011
 20
481.50316379589532
 30
0.0
 40
0.5
 50
270.0
 51
45.0
1001
ACAD
1000
ASC_BOUNDS
1002
{
1070
    19
1002
}
  0
ARC
  5
4326
  8
0
 10
156.57055693273011
 20
460.90316379589541
 30
0.0
 40
0.5
 50
315.0
 51
90.0
1001
ACAD
1000
ASC_BOUNDS
1002
{
1070
    19
1002
}
  0
LINE
  5
4327
  8
0
 10
155.67055693273051
 20
481.00316379589532
 30
0.0
 11
155.67055693273051
 21
461.40316379589541
 31
0.0
  0
LINE
  5
4328
  8
0
 10
223.3705569327303
 20
480.08816379589541
 30
0.0
 11
229.77055693273039
 21
480.08816379589541
 31
0.0
  0
LINE
  5
4329
  8
0
 10
223.3705569327303
 20
476.2881637958954
 30
0.0
 11
229.77055693273039
 21
476.2881637958954
 31
0.0
  0
LINE
  5
432A
  8
0
 10
223.3705569327303
 20
466.16816379589528
 30
0.0
 11
229.77055693273039
 21
466.16816379589528
 31
0.0
  0
LINE
  5
432B
  8
0
 10
227.77055693273039
 20
480.08816379589541
 30
0.0
 11
227.77055693273039
 21
476.2881637958954
 31
0.0
  0
LINE
  5
432C
  8
0
 10
229.77055693273039
 20
480.08816379589541
 30
0.0
 11
229.77055693273039
 21
476.2881637958954
 31
0.0
  0
LINE
  5
432D
  8
0
 10
223.3705569327303
 20
462.36816379589533
 30
0.0
 11
229.77055693273039
 21
462.36816379589533
 31
0.0
  0
LINE
  5
432E
  8
0
 10
227.77055693273039
 20
466.16816379589528
 30
0.0
 11
227.77055693273039
 21
462.36816379589533
 31
0.0
  0
LINE
  5
432F
  8
0
 10
229.77055693273039
 20
466.16816379589528
 30
0.0
 11
229.77055693273039
 21
462.36816379589533
 31
0.0
  0
LINE
  5
4336
  8
0
 10
156.9241109327304
 20
460.54960979589538
 30
0.0
 11
154.07055693273011
 21
458.60316379589523
 31
0.0
1001
ACAD
1000
ASC_BOUNDS
1002
{
1070
    19
1002
}
  0
LINE
  5
4337
  8
0
 10
156.9241109327304
 20
481.85671679589552
 30
0.0
 11
154.07055693273011
 21
483.80316379589527
 31
0.0
1001
ACAD
1000
ASC_BOUNDS
1002
{
1070
    19
1002
}
  0
LINE
  5
4338
  8
0
 10
156.57055693273011
 20
481.00316379589532
 30
0.0
 11
154.07055693273011
 21
481.00316379589532
 31
0.0
1001
ACAD
1000
ASC_BOUNDS
1002
{
1070
    19
1002
}
  0
LINE
  5
4339
  8
0
 10
156.57055693273011
 20
461.40316379589541
 30
0.0
 11
154.07055693273011
 21
461.40316379589541
 31
0.0
1001
ACAD
1000
ASC_BOUNDS
1002
{
1070
    19
1002
}
  0
LINE
  5
433F
  8
0
 10
662.07055693273014
 20
453.55316379589522
 30
0.0
 11
154.07055693273011
 21
453.55316379589522
 31
0.0
  0
LINE
  5
4340
  8
0
 10
662.07055693273014
 20
488.90316379589552
 30
0.0
 11
154.07055693273011
 21
488.90316379589552
 31
0.0
  0
POINT
  5
4345
  8
2
 10
657.87055693273032
 20
464.22816379589523
 30
0.0
  0
POINT
  5
4346
  8
0
 10
662.07055693273014
 20
464.22816379589523
 30
0.0
  0
POINT
  5
4347
  8
2
 10
657.87055693273032
 20
464.22816379589523
 30
0.0
  0
POINT
  5
4348
  8
0
 10
662.07055693273014
 20
453.55316379589522
 30
0.0
  0
POINT
  5
4349
  8
0
 10
662.07055693273014
 20
481.04316379589528
 30
0.0
  0
LINE
  5
434A
  8
0
 10
662.07055693273014
 20
478.22816379589523
 30
0.0
 11
662.07055693273014
 21
488.90316379589552
 31
0.0
  0
LINE
  5
434B
  8
0
 10
662.07055693273014
 20
478.22816379589523
 30
0.0
 11
662.07055693273014
 21
488.90316379589552
 31
0.0
  0
LINE
  5
4364
  8
2
 10
659.47055693273023
 20
478.22816379589523
 30
0.0
 11
657.87055693273032
 21
478.22816379589523
 31
0.0
  0
LINE
  5
4365
  8
2
 10
659.47055693273023
 20
478.72816379589528
 30
0.0
 11
657.87055693273032
 21
478.72816379589528
 31
0.0
  0
LINE
  5
4366
  8
0
 10
662.07055693273014
 20
478.22816379589523
 30
0.0
 11
659.47055693273023
 21
478.72816379589528
 31
0.0
  0
LINE
  5
4367
  8
0
 10
662.07055693273014
 20
453.57816379589542
 30
0.0
 11
662.07055693273014
 21
459.02934679589532
 31
0.0
  0
LINE
  5
4368
  8
0
 10
662.07055693273014
 20
459.02934679589532
 30
0.0
 11
662.07055693273014
 21
453.57816379589542
 31
0.0
  0
LINE
  5
4369
  8
0
 10
662.07055693273014
 20
459.02934679589532
 30
0.0
 11
662.07055693273014
 21
453.57816379589542
 31
0.0
  0
LINE
  5
436A
  8
0
 10
662.07055693273014
 20
453.57816379589542
 30
0.0
 11
662.07055693273014
 21
459.02934679589532
 31
0.0
  0
LINE
  5
436B
  8
0
 10
662.07055693273014
 20
453.57816379589542
 30
0.0
 11
662.07055693273014
 21
459.02934679589532
 31
0.0
  0
LINE
  5
436C
  8
0
 10
662.07055693273014
 20
453.55316379589522
 30
0.0
 11
662.07055693273014
 21
459.02934679589532
 31
0.0
  0
POINT
  5
436D
  8
0
 10
662.07055693273014
 20
453.57816379589542
 30
0.0
  0
POINT
  5
436E
  8
0
 10
662.07055693273014
 20
453.57816379589542
 30
0.0
  0
LINE
  5
436F
  8
2
 10
659.47055693273023
 20
463.72816379589523
 30
0.0
 11
657.87055693273032
 21
463.72816379589523
 31
0.0
  0
LINE
  5
4370
  8
2
 10
659.47055693273023
 20
464.22816379589523
 30
0.0
 11
657.87055693273032
 21
464.22816379589523
 31
0.0
  0
LINE
  5
4371
  8
0
 10
662.07055693273014
 20
464.22816379589523
 30
0.0
 11
659.47055693273023
 21
463.72816379589523
 31
0.0
  0
LINE
  5
4372
  8
2
 10
657.87055693273032
 20
463.72816379589523
 30
0.0
 11
657.87055693273032
 21
478.72816379589528
 31
0.0
  0
LINE
  5
4373
  8
0
 10
659.47055693273023
 20
463.72816379589523
 30
0.0
 11
659.47055693273023
 21
478.72816379589528
 31
0.0
  0
LINE
  5
4374
  8
0
 10
662.07055693273014
 20
453.55316379589522
 30
0.0
 11
662.07055693273014
 21
464.22816379589523
 31
0.0
  0
LINE
  5
4375
  8
0
 10
662.07055693273014
 20
453.55316379589522
 30
0.0
 11
662.07055693273014
 21
464.22816379589523
 31
0.0
  0
LINE
  5
437C
  8
0
 10
704.27055693273041
 20
483.65038679589532
 30
0.0
 11
662.07055693273014
 21
483.65038679589532
 31
0.0
  0
LINE
  5
437D
  8
0
 10
704.27055693273041
 20
458.80593979589543
 30
0.0
 11
662.07055693273014
 21
458.80593979589543
 31
0.0
  0
LINE
  5
437E
  8
0
 10
704.27055693273041
 20
458.80593979589543
 30
0.0
 11
662.07055693273014
 21
458.80593979589543
 31
0.0
  0
LINE
  5
438A
  8
0
 10
662.07055693273014
 20
460.80422379589538
 30
0.0
 11
947.62055693273032
 21
460.80422379589538
 31
0.0
  0
LINE
  5
438B
  8
0
 10
662.07055693273014
 20
461.4131637958954
 30
0.0
 11
947.62055693273032
 21
461.4131637958954
 31
0.0
  0
LINE
  5
438C
  8
0
 10
662.07055693273014
 20
481.04316379589528
 30
0.0
 11
947.62055693273032
 21
481.04316379589528
 31
0.0
  0
LINE
  5
438D
  8
0
 10
662.07055693273014
 20
460.80422379589538
 30
0.0
 11
947.62055693273032
 21
460.80422379589538
 31
0.0
  0
LINE
  5
438E
  8
0
 10
662.07055693273014
 20
461.4131637958954
 30
0.0
 11
947.62055693273032
 21
461.4131637958954
 31
0.0
  0
LINE
  5
438F
  8
0
 10
662.07055693273014
 20
481.6521027958953
 30
0.0
 11
947.62055693273032
 21
481.6521027958953
 31
0.0
  0
POLYLINE
  5
4390
  8
0
 66
     1
 10
0.0
 20
0.0
 30
0.0
  0
VERTEX
  5
4391
  8
0
 10
662.07055693273014
 20
483.10664279589548
 30
0.0
  0
VERTEX
  5
4392
  8
0
 10
947.62055693273032
 20
483.10664279589548
 30
0.0
  0
SEQEND
  5
4393
  8
0
  0
POLYLINE
  5
4394
  8
0
 66
     1
 10
0.0
 20
0.0
 30
0.0
  0
VERTEX
  5
4395
  8
0
 10
662.07055693273014
 20
459.34968379589537
 30
0.0
  0
VERTEX
  5
4396
  8
0
 10
947.62055693273032
 20
459.34968379589537
 30
0.0
  0
SEQEND
  5
4397
  8
0
  0
POINT
  5
4398
  8
0
 10
952.62055693273021
 20
459.84968379589537
 30
0.0
  0
POINT
  5
4399
  8
0
 10
952.62055693273021
 20
486.02162479589549
 30
0.0
  0
POINT
  5
439A
  8
0
 10
948.02055693273053
 20
486.02162479589549
 30
0.0
  0
POINT
  5
439B
  8
0
 10
948.02055693273053
 20
483.65038679589532
 30
0.0
  0
LINE
  5
439C
  8
2
 10
950.02055693273041
 20
458.80593979589543
 30
0.0
 11
950.02055693273041
 21
483.65038679589532
 31
0.0
  0
POINT
  5
439D
  8
0
 10
945.95896693273016
 20
483.42697979589531
 30
0.0
  0
POINT
  5
439E
  8
0
 10
945.95896693273016
 20
483.42697979589531
 30
0.0
  0
LINE
  5
439F
  8
0
 10
947.62055693273032
 20
483.10664279589548
 30
0.0
 11
952.62055693273021
 21
482.60664279589548
 31
0.0
  0
LINE
  5
43A0
  8
0
 10
947.62055693273032
 20
481.6521027958953
 30
0.0
 11
952.62055693273021
 21
481.1521027958953
 31
0.0
  0
LINE
  5
43A1
  8
0
 10
947.62055693273032
 20
481.04316379589528
 30
0.0
 11
952.62055693273021
 21
480.54316379589528
 31
0.0
  0
LINE
  5
43A2
  8
0
 10
715.27055693273041
 20
483.65038679589532
 30
0.0
 11
952.62055693273021
 21
483.65038679589532
 31
0.0
  0
LINE
  5
43A3
  8
0
 10
704.27055693273041
 20
483.65038679589532
 30
0.0
 11
952.62055693273021
 21
483.65038679589532
 31
0.0
  0
POINT
  5
43A4
  8
0
 10
945.95896693273016
 20
459.02934679589532
 30
0.0
  0
POINT
  5
43A5
  8
0
 10
945.95896693273016
 20
459.02934679589532
 30
0.0
  0
LINE
  5
43A6
  8
0
 10
947.62055693273032
 20
460.80422379589538
 30
0.0
 11
952.62055693273021
 21
461.30422379589533
 31
0.0
  0
LINE
  5
43A7
  8
0
 10
947.62055693273032
 20
461.4131637958954
 30
0.0
 11
952.62055693273021
 21
461.9131637958954
 31
0.0
  0
LINE
  5
43A8
  8
0
 10
947.62055693273032
 20
461.4131637958954
 30
0.0
 11
952.62055693273021
 21
461.9131637958954
 31
0.0
  0
LINE
  5
43A9
  8
0
 10
947.62055693273032
 20
460.80422379589538
 30
0.0
 11
952.62055693273021
 21
461.30422379589533
 31
0.0
  0
LINE
  5
43AA
  8
0
 10
947.62055693273032
 20
459.34968379589537
 30
0.0
 11
952.62055693273021
 21
459.84968379589537
 31
0.0
  0
POINT
  5
43AB
  8
0
 10
945.95896693273016
 20
459.02934679589532
 30
0.0
  0
POINT
  5
43AC
  8
0
 10
945.95896693273016
 20
459.02934679589532
 30
0.0
  0
LINE
  5
43AD
  8
0
 10
704.27055693273041
 20
458.80593979589543
 30
0.0
 11
952.62055693273021
 21
458.80593979589543
 31
0.0
  0
LINE
  5
43AE
  8
0
 10
715.27055693273041
 20
458.80593979589543
 30
0.0
 11
952.62055693273021
 21
458.80593979589543
 31
0.0
  0
LINE
  5
43AF
  8
0
 10
704.27055693273041
 20
458.80593979589543
 30
0.0
 11
952.62055693273021
 21
458.80593979589543
 31
0.0
  0
LINE
  5
43B0
  8
0
 10
715.27055693273041
 20
458.80593979589543
 30
0.0
 11
952.62055693273021
 21
458.80593979589543
 31
0.0
  0
LINE
  5
43B1
  8
0
 10
952.62055693273021
 20
483.65038679589532
 30
0.0
 11
952.62055693273021
 21
458.80593979589543
 31
0.0
  0
LINE
  5
43B2
  8
2
 10
948.02055693273053
 20
458.80593979589543
 30
0.0
 11
948.02055693273053
 21
483.65038679589532
 31
0.0
  0
LINE
  5
43B3
  8
2
 10
398.42055693273051
 20
483.65038679589532
 30
0.0
 11
398.42055693273051
 21
458.80593979589543
 31
0.0
  0
LINE
  5
43B4
  8
2
 10
396.82055693273009
 20
480.70642379589532
 30
0.0
 11
396.82055693273009
 21
461.7499027958952
 31
0.0
  0
LINE
  5
43B5
  8
2
 10
396.82055693273009
 20
461.7499027958952
 30
0.0
 11
398.42055693273051
 21
461.22816379589523
 31
0.0
  0
LINE
  5
43B6
  8
2
 10
396.82055693273009
 20
461.7499027958952
 30
0.0
 11
398.42055693273051
 21
461.22816379589523
 31
0.0
  0
LINE
  5
43B7
  8
2
 10
396.82055693273009
 20
480.70642379589532
 30
0.0
 11
398.42055693273051
 21
481.22816379589523
 31
0.0
  0
LINE
  5
43B8
  8
2
 10
393.8205569327302
 20
458.80593979589543
 30
0.0
 11
393.8205569327302
 21
483.65038679589532
 31
0.0
  0
LINE
  5
43B9
  8
2
 10
662.07055693273014
 20
483.65038679589532
 30
0.0
 11
393.8205569327302
 21
483.65038679589532
 31
0.0
  0
LINE
  5
43BA
  8
2
 10
662.07055693273014
 20
458.80593979589543
 30
0.0
 11
393.8205569327302
 21
458.80593979589543
 31
0.0
  0
POINT
  5
43BB
  8
2
 10
393.8205569327302
 20
453.55316379589522
 30
0.0
  0
POINT
  5
43BC
  8
2
 10
398.42055693273051
 20
458.80593979589543
 30
0.0
  0
POINT
  5
43BD
  8
2
 10
393.8205569327302
 20
458.80593979589543
 30
0.0
  0
POINT
  5
43BE
  8
2
 10
398.42055693273051
 20
459.34968379589537
 30
0.0
  0
ARC
  5
4582
  8
0
 10
169.97055693273001
 20
471.60316379589551
 30
0.0
 40
2.25
 50
0.0
 51
180.0
  0
ARC
  5
4583
  8
0
 10
169.97055693273001
 20
470.8031637958955
 30
0.0
 40
2.25
 50
180.0
 51
0.0
  0
LINE
  5
4584
  8
0
 10
167.72055693273001
 20
471.60316379589551
 30
0.0
 11
167.72055693273001
 21
470.8031637958955
 31
0.0
  0
LINE
  5
4585
  8
1
 10
169.97055693273001
 20
476.85316379589551
 30
0.0
 11
169.97055693273001
 21
465.5531637958955
 31
0.0
  0
LINE
  5
4586
  8
1
 10
182.67055693272999
 20
476.85316379589551
 30
0.0
 11
182.67055693272999
 21
465.5531637958955
 31
0.0
  0
LINE
  5
4587
  8
0
 10
172.22055693273001
 20
471.60316379589551
 30
0.0
 11
172.22055693273001
 21
470.8031637958955
 31
0.0
  0
LINE
  5
4588
  8
0
 10
184.92055693272999
 20
471.60316379589551
 30
0.0
 11
184.92055693272999
 21
470.8031637958955
 31
0.0
  0
LINE
  5
4589
  8
0
 10
180.42055693272999
 20
471.60316379589551
 30
0.0
 11
180.42055693272999
 21
470.8031637958955
 31
0.0
  0
ARC
  5
458A
  8
0
 10
182.67055693272999
 20
471.60316379589551
 30
0.0
 40
2.25
 50
0.0
 51
180.0
  0
ARC
  5
458B
  8
0
 10
182.67055693272999
 20
470.8031637958955
 30
0.0
 40
2.25
 50
180.0
 51
0.0
  0
LINE
  5
458C
  8
1
 10
293.77055693273002
 20
476.85316379589551
 30
0.0
 11
293.77055693273002
 21
465.5531637958955
 31
0.0
  0
ARC
  5
458D
  8
0
 10
293.37055693272998
 20
471.20316379589548
 30
0.0
 40
2.25
 50
90.0
 51
270.0
  0
ARC
  5
458E
  8
0
 10
294.17055693272988
 20
471.20316379589548
 30
0.0
 40
2.25
 50
270.0
 51
90.0
  0
LINE
  5
458F
  8
0
 10
293.37055693272998
 20
473.45316379589548
 30
0.0
 11
294.17055693272988
 21
473.45316379589548
 31
0.0
  0
LINE
  5
4590
  8
0
 10
293.37055693272998
 20
468.95316379589548
 30
0.0
 11
294.17055693272988
 21
468.95316379589548
 31
0.0
  0
LINE
  5
4592
  8
1
 10
408.07055693273031
 20
476.8781637958952
 30
0.0
 11
408.07055693273031
 21
465.57816379589531
 31
0.0
  0
LINE
  5
4593
  8
0
 10
407.67055693273028
 20
468.97816379589528
 30
0.0
 11
408.47055693273029
 21
468.97816379589528
 31
0.0
  0
LINE
  5
4594
  8
0
 10
407.67055693273028
 20
473.47816379589528
 30
0.0
 11
408.47055693273029
 21
473.47816379589528
 31
0.0
  0
ARC
  5
4595
  8
0
 10
408.47055693273029
 20
471.22816379589528
 30
0.0
 40
2.25
 50
270.0
 51
90.0
  0
ARC
  5
4596
  8
0
 10
407.67055693273028
 20
471.22816379589528
 30
0.0
 40
2.25
 50
90.0
 51
270.0
  0
POLYLINE
  5
4597
  8
0
 66
     1
 10
0.0
 20
0.0
 30
0.0
 70
     1
  0
VERTEX
  5
4598
  8
0
 10
645.57055693273014
 20
466.1781637958951
 30
0.0
 42
-1.0
  0
VERTEX
  5
4599
  8
0
 10
645.57055693273014
 20
476.27816379589518
 30
0.0
  0
VERTEX
  5
459A
  8
0
 10
648.17055693273005
 20
476.27816379589518
 30
0.0
 42
-1.0
  0
VERTEX
  5
459B
  8
0
 10
648.17055693273005
 20
466.1781637958951
 30
0.0
  0
SEQEND
  5
459C
  8
0
  0
LINE
  5
459D
  8
1
 10
633.47055693273023
 20
476.8781637958952
 30
0.0
 11
633.47055693273023
 21
465.57816379589531
 31
0.0
  0
LINE
  5
459E
  8
1
 10
620.77055693273019
 20
476.8781637958952
 30
0.0
 11
620.77055693273019
 21
465.57816379589531
 31
0.0
  0
LINE
  5
459F
  8
1
 10
535.07055693273014
 20
476.8781637958952
 30
0.0
 11
535.07055693273014
 21
465.57816379589531
 31
0.0
  0
ARC
  5
45A0
  8
0
 10
535.47055693273001
 20
471.2281637958954
 30
0.0
 40
2.25
 50
270.0
 51
90.0
  0
LINE
  5
45A1
  8
0
 10
534.67055693273005
 20
473.47816379589528
 30
0.0
 11
535.47055693273001
 21
473.47816379589528
 31
0.0
  0
LINE
  5
45A2
  8
0
 10
534.67055693273005
 20
468.97816379589528
 30
0.0
 11
535.47055693273001
 21
468.97816379589528
 31
0.0
  0
ARC
  5
45A3
  8
0
 10
534.67055693273005
 20
471.2281637958954
 30
0.0
 40
2.25
 50
90.0
 51
270.0
  0
ARC
  5
45A4
  8
0
 10
621.17055693273016
 20
471.2281637958954
 30
0.0
 40
2.25
 50
270.0
 51
90.0
  0
ARC
  5
45A5
  8
0
 10
620.3705569327301
 20
471.2281637958954
 30
0.0
 40
2.25
 50
90.0
 51
270.0
  0
LINE
  5
45A6
  8
0
 10
620.3705569327301
 20
473.47816379589528
 30
0.0
 11
621.17055693273016
 21
473.47816379589528
 31
0.0
  0
LINE
  5
45A7
  8
0
 10
620.3705569327301
 20
468.97816379589528
 30
0.0
 11
621.17055693273016
 21
468.97816379589528
 31
0.0
  0
ARC
  5
45A8
  8
0
 10
633.47055693273023
 20
471.6281637958952
 30
0.0
 40
2.25
 50
0.0
 51
180.0
  0
ARC
  5
45A9
  8
0
 10
633.47055693273023
 20
470.82816379589531
 30
0.0
 40
2.25
 50
180.0
 51
0.0
  0
LINE
  5
45AA
  8
0
 10
631.22055693273023
 20
471.6281637958952
 30
0.0
 11
631.22055693273023
 21
470.82816379589531
 31
0.0
  0
LINE
  5
45AB
  8
0
 10
635.72055693273023
 20
471.6281637958952
 30
0.0
 11
635.72055693273023
 21
470.82816379589531
 31
0.0
  0
LINE
  5
45AC
  8
1
 10
646.17055693273016
 20
476.8781637958952
 30
0.0
 11
646.17055693273016
 21
465.57816379589531
 31
0.0
  0
LINE
  5
45AD
  8
0
 10
648.42055693273016
 20
471.6281637958952
 30
0.0
 11
648.42055693273016
 21
470.82816379589531
 31
0.0
  0
LINE
  5
45AE
  8
0
 10
643.92055693273016
 20
471.6281637958952
 30
0.0
 11
643.92055693273016
 21
470.82816379589531
 31
0.0
  0
ARC
  5
45AF
  8
0
 10
646.17055693273016
 20
471.6281637958952
 30
0.0
 40
2.25
 50
0.0
 51
180.0
  0
ARC
  5
45B0
  8
0
 10
646.17055693273016
 20
470.82816379589531
 30
0.0
 40
2.25
 50
180.0
 51
0.0
  0
POLYLINE
  5
45B1
  8
2
 66
     1
 10
0.0
 20
0.0
 30
0.0
 70
     1
  0
VERTEX
  5
45B2
  8
2
 10
698.27055693273041
 20
466.1781637958951
 30
0.0
 42
-1.0
  0
VERTEX
  5
45B3
  8
2
 10
698.27055693273041
 20
476.27816379589518
 30
0.0
  0
VERTEX
  5
45B4
  8
2
 10
700.87055693273032
 20
476.27816379589518
 30
0.0
 42
-1.0
  0
VERTEX
  5
45B5
  8
2
 10
700.87055693273032
 20
466.1781637958951
 30
0.0
  0
SEQEND
  5
45B6
  8
2
  0
LINE
  5
45B7
  8
1
 10
700.27055693273041
 20
476.8781637958952
 30
0.0
 11
700.27055693273041
 21
465.57816379589531
 31
0.0
  0
LINE
  5
45B8
  8
1
 10
712.97055693273023
 20
476.8781637958952
 30
0.0
 11
712.97055693273023
 21
465.57816379589531
 31
0.0
  0
LINE
  5
45B9
  8
1
 10
725.67055693273016
 20
476.8781637958952
 30
0.0
 11
725.67055693273016
 21
465.57816379589531
 31
0.0
  0
ARC
  5
45BA
  8
2
 10
712.97055693273023
 20
471.6281637958952
 30
0.0
 40
2.25
 50
0.0
 51
180.0
  0
ARC
  5
45BB
  8
2
 10
712.97055693273023
 20
470.82816379589531
 30
0.0
 40
2.25
 50
180.0
 51
0.0
  0
ARC
  5
45BC
  8
2
 10
700.27055693273041
 20
471.6281637958952
 30
0.0
 40
2.25
 50
0.0
 51
180.0
  0
ARC
  5
45BD
  8
2
 10
700.27055693273041
 20
470.82816379589531
 30
0.0
 40
2.25
 50
180.0
 51
0.0
  0
LINE
  5
45BE
  8
2
 10
698.02055693273041
 20
471.6281637958952
 30
0.0
 11
698.02055693273041
 21
470.82816379589531
 31
0.0
  0
LINE
  5
45BF
  8
2
 10
710.72055693273023
 20
471.6281637958952
 30
0.0
 11
710.72055693273023
 21
470.82816379589531
 31
0.0
  0
LINE
  5
45C0
  8
2
 10
702.52055693273041
 20
471.6281637958952
 30
0.0
 11
702.52055693273041
 21
470.82816379589531
 31
0.0
  0
LINE
  5
45C1
  8
2
 10
715.22055693273023
 20
471.6281637958952
 30
0.0
 11
715.22055693273023
 21
470.82816379589531
 31
0.0
  0
ARC
  5
45C2
  8
2
 10
726.07055693273026
 20
471.2281637958954
 30
0.0
 40
2.25
 50
270.0
 51
90.0
  0
ARC
  5
45C3
  8
2
 10
725.2705569327303
 20
471.2281637958954
 30
0.0
 40
2.25
 50
90.0
 51
270.0
  0
LINE
  5
45C4
  8
2
 10
725.2705569327303
 20
473.47816379589528
 30
0.0
 11
726.07055693273026
 21
473.47816379589528
 31
0.0
  0
LINE
  5
45C5
  8
2
 10
725.2705569327303
 20
468.97816379589528
 30
0.0
 11
726.07055693273026
 21
468.97816379589528
 31
0.0
  0
LINE
  5
45C6
  8
1
 10
811.37055693273032
 20
476.8781637958952
 30
0.0
 11
811.37055693273032
 21
465.57816379589531
 31
0.0
  0
LINE
  5
45C7
  8
2
 10
810.97055693273035
 20
473.47816379589528
 30
0.0
 11
811.77055693273019
 21
473.47816379589528
 31
0.0
  0
LINE
  5
45C8
  8
2
 10
810.97055693273035
 20
468.97816379589528
 30
0.0
 11
811.77055693273019
 21
468.97816379589528
 31
0.0
  0
ARC
  5
45C9
  8
2
 10
810.97055693273035
 20
471.2281637958954
 30
0.0
 40
2.25
 50
90.0
 51
270.0
  0
ARC
  5
45CA
  8
2
 10
811.77055693273019
 20
471.2281637958954
 30
0.0
 40
2.25
 50
270.0
 51
90.0
  0
LINE
  5
4C26
  8
1
 10
938.37055693273021
 20
476.8781637958952
 30
0.0
 11
938.37055693273021
 21
465.57816379589531
 31
0.0
  0
ARC
  5
4C27
  8
2
 10
938.7705569327303
 20
471.2281637958954
 30
0.0
 40
2.25
 50
270.0
 51
90.0
  0
ARC
  5
4C28
  8
2
 10
937.97055693273035
 20
471.2281637958954
 30
0.0
 40
2.25
 50
90.0
 51
270.0
  0
LINE
  5
4C29
  8
2
 10
937.97055693273035
 20
468.97816379589528
 30
0.0
 11
938.7705569327303
 21
468.97816379589528
 31
0.0
  0
LINE
  5
4C2A
  8
2
 10
937.97055693273035
 20
473.47816379589528
 30
0.0
 11
938.7705569327303
 21
473.47816379589528
 31
0.0
  0
LINE
  5
4C2B
  8
1
 10
1052.6705569327301
 20
476.8781637958952
 30
0.0
 11
1052.6705569327301
 21
465.57816379589531
 31
0.0
  0
ARC
  5
4C2C
  8
0
 10
1053.0705569327299
 20
471.2281637958954
 30
0.0
 40
2.25
 50
270.0
 51
90.0
  0
LINE
  5
4C2D
  8
0
 10
1052.27055693273
 20
468.97816379589528
 30
0.0
 11
1053.0705569327299
 21
468.97816379589528
 31
0.0
  0
LINE
  5
4C2E
  8
0
 10
1052.27055693273
 20
473.47816379589528
 30
0.0
 11
1053.0705569327299
 21
473.47816379589528
 31
0.0
  0
ARC
  5
4C2F
  8
0
 10
1052.27055693273
 20
471.2281637958954
 30
0.0
 40
2.25
 50
90.0
 51
270.0
  0
LINE
  5
4C30
  8
1
 10
1176.47055693273
 20
476.90316379589541
 30
0.0
 11
1176.47055693273
 21
465.6031637958954
 31
0.0
  0
LINE
  5
4C31
  8
1
 10
1163.7705569327311
 20
476.90316379589541
 30
0.0
 11
1163.7705569327311
 21
465.6031637958954
 31
0.0
  0
LINE
  5
4C32
  8
0
 10
1166.02055693273
 20
471.6531637958953
 30
0.0
 11
1166.02055693273
 21
470.8531637958954
 31
0.0
  0
LINE
  5
4C33
  8
0
 10
1161.52055693273
 20
471.6531637958953
 30
0.0
 11
1161.52055693273
 21
470.8531637958954
 31
0.0
  0
ARC
  5
4C34
  8
0
 10
1163.7705569327311
 20
471.6531637958953
 30
0.0
 40
2.25
 50
0.0
 51
180.0
  0
ARC
  5
4C35
  8
0
 10
1163.7705569327311
 20
470.8531637958954
 30
0.0
 40
2.25
 50
180.0
 51
0.0
  0
LINE
  5
4C36
  8
0
 10
1178.7205569327309
 20
471.6531637958953
 30
0.0
 11
1178.7205569327309
 21
470.8531637958954
 31
0.0
  0
LINE
  5
4C37
  8
0
 10
1174.2205569327309
 20
471.6531637958953
 30
0.0
 11
1174.2205569327309
 21
470.8531637958954
 31
0.0
  0
ARC
  5
4C38
  8
0
 10
1176.47055693273
 20
471.6531637958953
 30
0.0
 40
2.25
 50
0.0
 51
180.0
  0
ARC
  5
4C39
  8
0
 10
1176.47055693273
 20
470.8531637958954
 30
0.0
 40
2.25
 50
180.0
 51
0.0
  0
LINE
  5
4C3A
  8
0
 10
684.37055693273032
 20
456.43470179589542
 30
0.0
 11
1192.3705569327301
 21
456.43470179589542
 31
0.0
  0
LINE
  5
4C3B
  8
0
 10
684.37055693273032
 20
455.33845479589542
 30
0.0
 11
1192.3705569327301
 21
455.33845479589542
 31
0.0
  0
LINE
  5
4C3C
  8
0
 10
684.37055693273032
 20
486.02162479589549
 30
0.0
 11
1192.3705569327301
 21
486.02162479589549
 31
0.0
  0
LINE
  5
4C3D
  8
0
 10
684.37055693273021
 20
487.11787179589533
 30
0.0
 11
1102.6705569327301
 21
487.11787179589538
 31
0.0
  0
LINE
  5
4C45
  8
2
 10
684.37055693273032
 20
483.65038679589532
 30
0.0
 11
684.37055693273032
 21
478.22816379589523
 31
0.0
  0
LINE
  5
4C46
  8
2
 10
684.37055693273032
 20
464.22816379589523
 30
0.0
 11
684.37055693273032
 21
458.80593979589543
 31
0.0
  0
TEXT
  5
4CF9
  8
0
 62
     3
 10
0.0
 20
0.0
 30
0.0
 40
10.0
  1
RS35D-20
  7
STANDARD1
  0
ENDSEC
  0
EOF
