  0
SECTION
  2
HEADER
  9
$ACADVER
  1
AC1009
  9
$INSBASE
 10
0.0
 20
0.0
 30
0.0
  9
$EXTMIN
 10
0.0
 20
-2.960436562073669
 30
0.0
  9
$EXTMAX
 10
1327.8369545164089
 20
525.77429154967103
 30
0.0
  9
$LIMMIN
 10
0.0
 20
0.0
  9
$LIMMAX
 10
187.5
 20
135.0
  9
$ORTHOMODE
 70
     0
  9
$REGENMODE
 70
     1
  9
$FILLMODE
 70
     1
  9
$QTEXTMODE
 70
     0
  9
$MIRRTEXT
 70
     0
  9
$DRAGMODE
 70
     2
  9
$LTSCALE
 40
10.0
  9
$OSMODE
 70
    55
  9
$ATTMODE
 70
     1
  9
$TEXTSIZE
 40
2.5
  9
$TRACEWID
 40
0.05
  9
$TEXTSTYLE
  7
STANDARD
  9
$CLAYER
  8
0
  9
$CELTYPE
  6
BYLAYER
  9
$CECOLOR
 62
   256
  9
$DIMSCALE
 40
0.5
  9
$DIMASZ
 40
3.0
  9
$DIMEXO
 40
2.0
  9
$DIMDLI
 40
10.0
  9
$DIMRND
 40
0.0
  9
$DIMDLE
 40
0.0
  9
$DIMEXE
 40
2.0
  9
$DIMTP
 40
0.0
  9
$DIMTM
 40
0.0
  9
$DIMTXT
 40
3.0
  9
$DIMCEN
 40
0.09
  9
$DIMTSZ
 40
0.0
  9
$DIMTOL
 70
     0
  9
$DIMLIM
 70
     0
  9
$DIMTIH
 70
     0
  9
$DIMTOH
 70
     0
  9
$DIMSE1
 70
     0
  9
$DIMSE2
 70
     0
  9
$DIMTAD
 70
     1
  9
$DIMZIN
 70
     0
  9
$DIMBLK
  1

  9
$DIMASO
 70
     0
  9
$DIMSHO
 70
     0
  9
$DIMPOST
  1

  9
$DIMAPOST
  1

  9
$DIMALT
 70
     0
  9
$DIMALTD
 70
     2
  9
$DIMALTF
 40
25.399999999999999
  9
$DIMLFAC
 40
1.0
  9
$DIMTOFL
 70
     1
  9
$DIMTVP
 40
1.6000000000000001
  9
$DIMTIX
 70
     1
  9
$DIMSOXD
 70
     0
  9
$DIMSAH
 70
     0
  9
$DIMBLK1
  1

  9
$DIMBLK2
  1

  9
$DIMSTYLE
  2
STANDARD
  9
$DIMCLRD
 70
     0
  9
$DIMCLRE
 70
     0
  9
$DIMCLRT
 70
     0
  9
$DIMTFAC
 40
1.0
  9
$DIMGAP
 40
0.09
  9
$LUNITS
 70
     2
  9
$LUPREC
 70
     4
  9
$SKETCHINC
 40
0.1
  9
$FILLETRAD
 40
0.0
  9
$AUNITS
 70
     0
  9
$AUPREC
 70
     0
  9
$MENU
  1
E:\r13\win\SUPPORT\ACAD
  9
$ELEVATION
 40
0.0
  9
$PELEVATION
 40
0.0
  9
$THICKNESS
 40
0.0
  9
$LIMCHECK
 70
     0
  9
$BLIPMODE
 70
     0
  9
$CHAMFERA
 40
1.6000000000000001
  9
$CHAMFERB
 40
1.6000000000000001
  9
$SKPOLY
 70
     0
  9
$TDCREATE
 40
2449840.5944097228
  9
$TDUPDATE
 40
2456598.6046449081
  9
$TDINDWG
 40
0.3953733102
  9
$TDUSRTIMER
 40
0.3953733102
  9
$USRTIMER
 70
     1
  9
$ANGBASE
 50
0.0
  9
$ANGDIR
 70
     0
  9
$PDMODE
 70
     0
  9
$PDSIZE
 40
0.0
  9
$PLINEWID
 40
0.0
  9
$COORDS
 70
     1
  9
$SPLFRAME
 70
     0
  9
$SPLINETYPE
 70
     6
  9
$SPLINESEGS
 70
     8
  9
$ATTDIA
 70
     0
  9
$ATTREQ
 70
     1
  9
$HANDLING
 70
     1
  9
$HANDSEED
  5
4000
  9
$SURFTAB1
 70
     6
  9
$SURFTAB2
 70
     6
  9
$SURFTYPE
 70
     6
  9
$SURFU
 70
     6
  9
$SURFV
 70
     6
  9
$UCSNAME
  2

  9
$UCSORG
 10
0.0
 20
0.0
 30
0.0
  9
$UCSXDIR
 10
1.0
 20
0.0
 30
0.0
  9
$UCSYDIR
 10
0.0
 20
1.0
 30
0.0
  9
$PUCSNAME
  2

  9
$PUCSORG
 10
0.0
 20
0.0
 30
0.0
  9
$PUCSXDIR
 10
1.0
 20
0.0
 30
0.0
  9
$PUCSYDIR
 10
0.0
 20
1.0
 30
0.0
  9
$USERI1
 70
     0
  9
$USERI2
 70
     1
  9
$USERI3
 70
     1
  9
$USERI4
 70
     0
  9
$USERI5
 70
     0
  9
$USERR1
 40
0.0
  9
$USERR2
 40
0.0
  9
$USERR3
 40
0.0
  9
$USERR4
 40
0.0
  9
$USERR5
 40
0.0
  9
$WORLDVIEW
 70
     1
  9
$SHADEDGE
 70
     3
  9
$SHADEDIF
 70
    70
  9
$TILEMODE
 70
     1
  9
$MAXACTVP
 70
    16
  9
$PLIMCHECK
 70
     0
  9
$PEXTMIN
 10
1.0000000000000000E+020
 20
1.0000000000000000E+020
 30
1.0000000000000000E+020
  9
$PEXTMAX
 10
-1.0000000000000000E+020
 20
-1.0000000000000000E+020
 30
-1.0000000000000000E+020
  9
$PLIMMIN
 10
0.0
 20
0.0
  9
$PLIMMAX
 10
12.0
 20
9.0
  9
$UNITMODE
 70
     0
  9
$VISRETAIN
 70
     0
  9
$PLINEGEN
 70
     0
  9
$PSLTSCALE
 70
     0
  0
ENDSEC
  0
SECTION
  2
TABLES
  0
TABLE
  2
VPORT
 70
     1
  0
VPORT
  2
*ACTIVE
 70
     0
 10
0.0
 20
0.0
 11
1.0
 21
1.0
 12
663.91848034981615
 22
380.09300558447183
 13
0.0
 23
0.0
 14
5.0
 24
5.0
 15
5.0
 25
5.0
 16
0.0
 26
0.0
 36
1.0
 17
0.0
 27
0.0
 37
0.0
 40
773.56761238010347
 41
1.7807262569832401
 42
50.0
 43
0.0
 44
0.0
 50
0.0
 51
0.0
 71
     0
 72
   100
 73
     1
 74
     0
 75
     0
 76
     0
 77
     0
 78
     0
  0
ENDTAB
  0
TABLE
  2
LTYPE
 70
     4
  0
LTYPE
  2
CONTINUOUS
 70
     0
  3
Solid Line
 72
    65
 73
     0
 40
0.0
  0
LTYPE
  2
CENTER
 70
     0
  3
____ _ ____ _ ____ _ ____ _ ____ _ ____ _ ____
 72
    65
 73
     4
 40
2.0
 49
1.25
 49
-0.25
 49
0.25
 49
-0.25
  0
LTYPE
  2
HIDDEN
 70
     0
  3
_ _ _ _ _ _ _ _ _ _ _ _ _ _ _ _ _ _ _ _ _ _ _
 72
    65
 73
     2
 40
0.375
 49
0.25
 49
-0.125
  0
LTYPE
  2
PHANTOM2
 70
     0
  3
___ _ _ ___ _ _ ___ _ _ ___ _ _
 72
    65
 73
     6
 40
1.25
 49
0.625
 49
-0.125
 49
0.125
 49
-0.125
 49
0.125
 49
-0.125
  0
ENDTAB
  0
TABLE
  2
LAYER
 70
     4
  0
LAYER
  2
0
 70
     0
 62
     7
  6
CONTINUOUS
  0
LAYER
  2
1
 70
     0
 62
     1
  6
CENTER
  0
LAYER
  2
2
 70
     0
 62
     2
  6
HIDDEN
  0
LAYER
  2
4
 70
     0
 62
     1
  6
CONTINUOUS
  0
ENDTAB
  0
TABLE
  2
STYLE
 70
     5
  0
STYLE
  2
STANDARD
 70
     0
 40
0.0
 41
1.0
 50
0.0
 71
     0
 42
2.5
  3
TXT
  4
BIGFONT
  0
STYLE
  2
KANJI
 70
     0
 40
0.0
 41
1.0
 50
0.0
 71
     0
 42
5.0
  3
TXT.SHX
  4
bigfont
  0
STYLE
  2
STYLE2
 70
     0
 40
13.0
 41
1.0
 50
0.0
 71
     0
 42
2.5
  3
C:\Program Files\AutoCAD LT\txt.shx
  4
C:\Program Files\AutoCAD LT\bigfont.shx
  0
STYLE
  2
STANDARD2
 70
     0
 40
8.0
 41
1.0
 50
0.0
 71
     0
 42
0.2
  3
C:\Program Files\AutoCAD LT\txt.shx
  4
C:\Program Files\AutoCAD LT\bigfont.shx
  0
STYLE
  2
STANDARD1
 70
     0
 40
0.0
 41
1.0
 50
0.0
 71
     0
 42
3.0
  3
txt
  4

  0
ENDTAB
  0
TABLE
  2
VIEW
 70
     1
  0
VIEW
  2
ALL
 70
     0
 40
135.0
 10
110.49579799999999
 20
67.5
 41
0.0
 11
0.0
 21
0.0
 31
1.0
 12
0.0
 22
0.0
 32
0.0
 42
0.0
 43
0.0
 44
0.0
 50
0.0
 71
     0
  0
ENDTAB
  0
TABLE
  2
UCS
 70
     0
  0
ENDTAB
  0
TABLE
  2
APPID
 70
     4
  0
APPID
  2
ACAD
 70
     0
  0
APPID
  2
DCO15
 70
     0
  0
APPID
  2
ACAD_MLEADERVER
 70
     0
  0
APPID
  2
ACAD_NAV_VCDISPLAY
 70
     0
  0
ENDTAB
  0
TABLE
  2
DIMSTYLE
 70
     1
  0
DIMSTYLE
  2
STANDARD
 70
     0
  3

  4

  5

  6

  7

 40
1.0
 41
0.18
 42
0.0625
 43
0.38
 44
0.18
 45
0.0
 46
0.0
 47
0.0
 48
0.0
140
0.18
141
0.09
142
0.0
143
25.399999999999999
144
1.0
145
0.0
146
1.0
147
0.09
 71
     0
 72
     0
 73
     1
 74
     1
 75
     0
 76
     0
 77
     0
 78
     0
170
     0
171
     2
172
     0
173
     0
174
     0
175
     0
176
     0
177
     0
178
     0
  0
ENDTAB
  0
ENDSEC
  0
SECTION
  2
BLOCKS
  0
BLOCK
  8
0
  2
$MODEL_SPACE
 70
     0
 10
0.0
 20
0.0
 30
0.0
  3
$MODEL_SPACE
  1

  0
ENDBLK
  5
15D
  8
0
  0
BLOCK
 67
     1
  8
0
  2
$PAPER_SPACE
 70
     0
 10
0.0
 20
0.0
 30
0.0
  3
$PAPER_SPACE
  1

  0
ENDBLK
  5
15B
 67
     1
  8
0
  0
BLOCK
  8
0
  2
STDGX5
 70
     0
 10
0.0
 20
0.0
 30
0.0
  3
STDGX5
  1

  0
ENDBLK
  5
41
  8
0
  0
ENDSEC
  0
SECTION
  2
ENTITIES
  0
INSERT
  5
CA
  8
0
  2
STDGX5
 10
0.0
 20
0.0
 30
0.0
  0
INSERT
  5
69A
  8
0
  2
STDGX5
 10
194.3272563481562
 20
13.52129245667936
 30
0.0
  0
INSERT
  5
1343
  8
0
  2
STDGX5
 10
563.10080863610574
 20
-59.557035590067017
 30
0.0
  0
INSERT
  5
1345
  8
0
  2
STDGX5
 10
757.42806498426194
 20
-46.035743133387648
 30
0.0
  0
LINE
  5
2641
  8
0
 10
109.6369545164093
 20
497.33706854967102
 30
0.0
 11
109.6369545164093
 21
518.86151554967091
 31
0.0
  0
LINE
  5
2642
  8
0
 10
108.08695451640931
 20
497.33706854967102
 30
0.0
 11
108.08695451640931
 21
518.86151554967091
 31
0.0
  0
LINE
  5
2643
  8
0
 10
98.536954516409423
 20
497.33706854967102
 30
0.0
 11
98.536954516409423
 21
518.86151554967091
 31
0.0
  0
LINE
  5
2644
  8
0
 10
103.03695451640939
 20
497.03743854967092
 30
0.0
 11
103.03695451640939
 21
497.67535154967089
 31
0.0
  0
ARC
  5
2645
  8
0
 10
105.1869545164094
 20
494.18429154967089
 30
0.0
 40
4.0999999999999988
 50
48.493283999998241
 51
121.62720400000229
  0
LINE
  5
2646
  8
0
 10
93.486954516409355
 20
497.03743854967092
 30
0.0
 11
93.486954516409355
 21
497.67535154967089
 31
0.0
  0
ARC
  5
2647
  8
0
 10
95.636954516409332
 20
494.18429154967089
 30
0.0
 40
4.0999999999999988
 50
48.493283999998241
 51
121.62720400000229
  0
LINE
  5
2648
  8
0
 10
101.7369545164093
 20
494.53827354967098
 30
0.0
 11
101.7369545164093
 21
521.66030954967096
 31
0.0
  0
LINE
  5
2649
  8
0
 10
100.08695451640941
 20
494.53827354967098
 30
0.0
 11
100.08695451640941
 21
521.66030954967096
 31
0.0
  0
LINE
  5
264A
  8
0
 10
92.186954516409401
 20
494.53827354967098
 30
0.0
 11
92.186954516409401
 21
521.66030954967096
 31
0.0
  0
LINE
  5
264B
  8
0
 10
101.9869545164093
 20
495.16356654967092
 30
0.0
 11
101.9869545164093
 21
502.24929154967111
 31
0.0
  0
LINE
  5
264C
  8
0
 10
102.4869545164093
 20
495.16356654967092
 30
0.0
 11
102.4869545164093
 21
502.24929154967111
 31
0.0
  0
LINE
  5
264D
  8
0
 10
92.936954516409415
 20
495.16356654967092
 30
0.0
 11
92.936954516409415
 21
502.24929154967111
 31
0.0
  0
LINE
  5
264E
  8
0
 10
92.436954516409401
 20
495.16356654967092
 30
0.0
 11
92.436954516409401
 21
502.24929154967111
 31
0.0
  0
LINE
  5
264F
  8
0
 10
90.536954516409423
 20
494.53827354967098
 30
0.0
 11
90.536954516409423
 21
521.66030954967096
 31
0.0
  0
ARC
  5
2650
  8
0
 10
107.97695451640929
 20
497.33706854967102
 30
0.0
 40
0.11
 50
228.4932839999982
 51
0.0
  0
ARC
  5
2651
  8
0
 10
98.426954516409424
 20
497.33706854967102
 30
0.0
 40
0.11
 50
228.4932839999982
 51
0.0
  0
ARC
  5
2652
  8
0
 10
105.1883845164094
 20
494.38158054967101
 30
0.0
 40
2.399999999999999
 50
7.8069229999993377
 51
21.539564000001231
  0
LINE
  5
2653
  8
0
 10
107.85470151640951
 20
495.44349154967091
 30
0.0
 11
107.4207785164094
 21
495.26272554967102
 31
0.0
  0
ARC
  5
2654
  8
0
 10
105.1883845164094
 20
494.38158054967101
 30
0.0
 40
2.8700000000000001
 50
6.0208820000001513
 51
21.71585500000073
  0
LINE
  5
2655
  8
0
 10
108.9573885164093
 20
494.13398654967102
 30
0.0
 11
108.98355651640939
 21
494.63330154967088
 31
0.0
  0
ARC
  5
2656
  8
0
 10
101.9869545164093
 20
494.53827354967098
 30
0.0
 40
0.25
 50
180.0
 51
223.82118700000069
  0
ARC
  5
2657
  8
0
 10
102.6869545164094
 20
495.16356654967092
 30
0.0
 40
0.7
 50
180.0
 51
267.00000000000091
  0
ARC
  5
2658
  8
0
 10
102.6869545164094
 20
495.16356654967092
 30
0.0
 40
0.2
 50
180.0
 51
267.00000000000091
  0
LINE
  5
2659
  8
0
 10
102.6764875164094
 20
494.96384054967098
 30
0.0
 11
108.98355651640939
 21
494.63330154967088
 31
0.0
  0
LINE
  5
265A
  8
0
 10
102.6503195164093
 20
494.46452654967101
 30
0.0
 11
108.9573885164093
 21
494.13398654967102
 31
0.0
  0
ARC
  5
265B
  8
0
 10
105.1491325164094
 20
493.63260854967092
 30
0.0
 40
2.0
 50
33.869898000000177
 51
140.13010199999951
  0
LINE
  5
265C
  8
0
 10
99.407388516409355
 20
494.13398654967102
 30
0.0
 11
99.433556516409453
 21
494.63330154967088
 31
0.0
  0
ARC
  5
265D
  8
0
 10
95.638384516409474
 20
494.38158054967101
 30
0.0
 40
2.8700000000000001
 50
6.0208820000001513
 51
21.71585500000073
  0
LINE
  5
265E
  8
0
 10
98.304701516409409
 20
495.44349154967091
 30
0.0
 11
97.870778516409374
 21
495.26272554967102
 31
0.0
  0
ARC
  5
265F
  8
0
 10
95.638384516409474
 20
494.38158054967101
 30
0.0
 40
2.399999999999999
 50
7.8069229999993377
 51
21.539564000001231
  0
ARC
  5
2660
  8
0
 10
93.136954516409332
 20
495.16356654967092
 30
0.0
 40
0.2
 50
180.0
 51
267.00000000000091
  0
ARC
  5
2661
  8
0
 10
93.136954516409332
 20
495.16356654967092
 30
0.0
 40
0.7
 50
180.0
 51
267.00000000000091
  0
ARC
  5
2662
  8
0
 10
92.436954516409401
 20
494.53827354967098
 30
0.0
 40
0.25
 50
180.0
 51
223.82118700000069
  0
ARC
  5
2663
  8
0
 10
95.599132516409441
 20
493.63260854967092
 30
0.0
 40
2.0
 50
33.869898000000177
 51
140.13010199999951
  0
LINE
  5
2664
  8
0
 10
93.1003195164094
 20
494.46452654967101
 30
0.0
 11
99.407388516409355
 21
494.13398654967102
 31
0.0
  0
LINE
  5
2665
  8
0
 10
93.126487516409384
 20
494.96384054967098
 30
0.0
 11
99.433556516409453
 21
494.63330154967088
 31
0.0
  0
LINE
  5
2666
  8
0
 10
107.55070651640951
 20
493.30583054967087
 30
0.0
 11
108.64695451640929
 21
492.20958254967093
 31
0.0
  0
LINE
  5
2668
  8
0
 10
106.98984451640941
 20
492.72140154967087
 30
0.0
 11
107.55070651640951
 21
493.30583054967087
 31
0.0
  0
LINE
  5
2669
  8
0
 10
102.1878165164094
 20
491.62515354967098
 30
0.0
 11
100.5882465164094
 21
493.291935549671
 31
0.0
  0
ARC
  5
266A
  8
0
 10
105.1869545164094
 20
494.52429154967092
 30
0.0
 40
2.5499999999999989
 50
222.3264279999992
 51
315.0
  0
ARC
  5
266B
  8
0
 10
105.08695451640931
 20
494.52429154967092
 30
0.0
 40
4.0999999999999988
 50
225.0
 51
315.0
  0
LINE
  5
266C
  8
0
 10
97.439844516409394
 20
492.72140154967087
 30
0.0
 11
98.000706516409437
 21
493.30583054967087
 31
0.0
  0
LINE
  5
266E
  8
0
 10
98.000706516409437
 20
493.30583054967087
 30
0.0
 11
99.096954516409369
 21
492.20958254967093
 31
0.0
  0
ARC
  5
266F
  8
0
 10
95.536954516409423
 20
494.52429154967092
 30
0.0
 40
4.0999999999999988
 50
225.0
 51
315.0
  0
ARC
  5
2670
  8
0
 10
95.636954516409332
 20
494.52429154967092
 30
0.0
 40
2.5499999999999989
 50
222.3264279999992
 51
315.0
  0
ARC
  5
2671
  8
0
 10
101.8869545164093
 20
494.53827354967098
 30
0.0
 40
1.8
 50
180.0
 51
223.82118700000069
  0
LINE
  5
2672
  8
0
 10
103.3016865164094
 20
492.80723954967101
 30
0.0
 11
101.8065785164094
 21
494.36517154967089
 31
0.0
  0
ARC
  5
2673
  8
0
 10
105.1869545164094
 20
494.3542915496709
 30
0.0
 40
2.379999999999999
 50
177.5458540000011
 51
356.45414600000072
  0
LINE
  5
2674
  8
0
 10
93.751686516409464
 20
492.80723954967101
 30
0.0
 11
92.256578516409377
 21
494.36517154967089
 31
0.0
  0
ARC
  5
2675
  8
0
 10
95.636954516409332
 20
494.3542915496709
 30
0.0
 40
2.379999999999999
 50
177.5458540000011
 51
356.45414600000072
  0
ARC
  5
2676
  8
0
 10
107.97695451640929
 20
497.33706854967102
 30
0.0
 40
1.659999999999999
 50
228.4932839999982
 51
0.0
  0
LINE
  5
2677
  8
0
 10
103.6523265164094
 20
496.220812549671
 30
0.0
 11
103.03695451640939
 21
497.03743854967092
 31
0.0
  0
ARC
  5
2678
  8
0
 10
105.1869545164094
 20
494.3542915496709
 30
0.0
 40
2.379999999999999
 50
8.5695469999987441
 51
165.43045300000159
  0
ARC
  5
2679
  8
0
 10
105.1869545164094
 20
494.18429154967089
 30
0.0
 40
2.5499999999999989
 50
48.549999999999031
 51
127.000000000002
  0
ARC
  5
267A
  8
0
 10
98.426954516409424
 20
497.33706854967102
 30
0.0
 40
1.659999999999999
 50
228.4932839999982
 51
0.0
  0
LINE
  5
267B
  8
0
 10
94.102326516409434
 20
496.220812549671
 30
0.0
 11
93.486954516409355
 21
497.03743854967092
 31
0.0
  0
ARC
  5
267C
  8
0
 10
95.636954516409332
 20
494.18429154967089
 30
0.0
 40
2.5499999999999989
 50
48.549999999999031
 51
127.000000000002
  0
ARC
  5
267D
  8
0
 10
95.636954516409332
 20
494.3542915496709
 30
0.0
 40
2.379999999999999
 50
8.5695469999987441
 51
165.43045300000159
  0
ARC
  5
267E
  8
0
 10
92.336954516409378
 20
494.53827354967098
 30
0.0
 40
1.8
 50
180.0
 51
223.82118700000069
  0
LINE
  5
267F
  8
0
 10
92.63781651640943
 20
491.62515354967098
 30
0.0
 11
91.038246516409345
 21
493.291935549671
 31
0.0
  0
LINE
  5
2680
  8
1
 10
85.736954516409355
 20
508.09929154967102
 30
0.0
 11
114.6369545164093
 21
508.09929154967102
 31
0.0
  0
LINE
  5
2682
  8
0
 10
106.98984451640941
 20
523.47718154967095
 30
0.0
 11
107.55070651640951
 21
522.89275354967094
 31
0.0
  0
LINE
  5
2683
  8
0
 10
107.55070651640951
 20
522.89275354967094
 30
0.0
 11
108.64695451640929
 21
523.989000549671
 31
0.0
  0
LINE
  5
2684
  8
0
 10
102.1878165164094
 20
524.573429549671
 30
0.0
 11
100.5882465164094
 21
522.90664754967088
 31
0.0
  0
ARC
  5
2685
  8
0
 10
105.1869545164094
 20
521.67429154967101
 30
0.0
 40
2.5499999999999989
 50
45.0
 51
137.6735720000008
  0
ARC
  5
2686
  8
0
 10
105.08695451640931
 20
521.67429154967101
 30
0.0
 40
4.0999999999999988
 50
45.0
 51
135.0
  0
LINE
  5
2687
  8
0
 10
98.000706516409437
 20
522.89275354967094
 30
0.0
 11
99.096954516409369
 21
523.989000549671
 31
0.0
  0
LINE
  5
2688
  8
0
 10
97.439844516409394
 20
523.47718154967095
 30
0.0
 11
98.000706516409437
 21
522.89275354967094
 31
0.0
  0
ARC
  5
268A
  8
0
 10
95.636954516409332
 20
521.67429154967101
 30
0.0
 40
2.5499999999999989
 50
45.0
 51
137.6735720000008
  0
ARC
  5
268B
  8
0
 10
95.536954516409423
 20
521.67429154967101
 30
0.0
 40
4.0999999999999988
 50
45.0
 51
135.0
  0
LINE
  5
268C
  8
0
 10
105.1869545164094
 20
503.14929154967098
 30
0.0
 11
105.1869545164094
 21
513.0492915496709
 31
0.0
  0
LINE
  5
268D
  8
0
 10
104.6869545164094
 20
503.14929154967098
 30
0.0
 11
104.6869545164094
 21
513.0492915496709
 31
0.0
  0
LINE
  5
268E
  8
0
 10
95.636954516409332
 20
503.14929154967098
 30
0.0
 11
95.636954516409332
 21
513.0492915496709
 31
0.0
  0
LINE
  5
268F
  8
0
 10
95.136954516409318
 20
503.14929154967098
 30
0.0
 11
95.136954516409318
 21
513.0492915496709
 31
0.0
  0
LINE
  5
2690
  8
0
 10
102.6869545164094
 20
502.44929154967099
 30
0.0
 11
104.4869545164093
 21
502.44929154967099
 31
0.0
  0
LINE
  5
2691
  8
0
 10
102.6869545164094
 20
502.94929154967099
 30
0.0
 11
104.4869545164093
 21
502.94929154967099
 31
0.0
  0
ARC
  5
2692
  8
0
 10
102.6869545164094
 20
502.24929154967111
 30
0.0
 40
0.7
 50
90.0
 51
180.0
  0
ARC
  5
2693
  8
0
 10
102.6869545164094
 20
502.24929154967111
 30
0.0
 40
0.2
 50
90.0
 51
180.0
  0
ARC
  5
2694
  8
0
 10
104.4869545164093
 20
503.14929154967098
 30
0.0
 40
0.2
 50
270.0
 51
0.0
  0
ARC
  5
2695
  8
0
 10
104.4869545164093
 20
503.14929154967098
 30
0.0
 40
0.7
 50
270.0
 51
0.0
  0
ARC
  5
2696
  8
0
 10
94.936954516409401
 20
503.14929154967098
 30
0.0
 40
0.2
 50
270.0
 51
0.0
  0
ARC
  5
2697
  8
0
 10
93.136954516409332
 20
502.24929154967111
 30
0.0
 40
0.2
 50
90.0
 51
180.0
  0
ARC
  5
2698
  8
0
 10
93.136954516409332
 20
502.24929154967111
 30
0.0
 40
0.7
 50
90.0
 51
180.0
  0
LINE
  5
2699
  8
0
 10
93.136954516409332
 20
502.94929154967099
 30
0.0
 11
94.936954516409401
 21
502.94929154967099
 31
0.0
  0
LINE
  5
269A
  8
0
 10
93.136954516409332
 20
502.44929154967099
 30
0.0
 11
94.936954516409401
 21
502.44929154967099
 31
0.0
  0
ARC
  5
269B
  8
0
 10
94.936954516409401
 20
503.14929154967098
 30
0.0
 40
0.7
 50
270.0
 51
0.0
  0
ARC
  5
269C
  8
0
 10
107.97695451640929
 20
518.86151554967091
 30
0.0
 40
1.659999999999999
 50
0.0
 51
131.50671600000169
  0
ARC
  5
269D
  8
0
 10
107.97695451640929
 20
518.86151554967091
 30
0.0
 40
0.11
 50
0.0
 51
131.50671600000169
  0
ARC
  5
269E
  8
0
 10
105.1883845164094
 20
521.81700254967097
 30
0.0
 40
2.399999999999999
 50
338.46043599999871
 51
352.1930770000007
  0
ARC
  5
269F
  8
0
 10
105.1883845164094
 20
521.81700254967097
 30
0.0
 40
2.8700000000000001
 50
338.28414499999928
 51
353.97911799999991
  0
LINE
  5
26A0
  8
0
 10
107.85470151640951
 20
520.75509154967096
 30
0.0
 11
107.4207785164094
 21
520.93585854967102
 31
0.0
  0
LINE
  5
26A1
  8
0
 10
103.6523265164094
 20
519.97777154967093
 30
0.0
 11
103.03695451640939
 21
519.16114554967112
 31
0.0
  0
LINE
  5
26A2
  8
0
 10
103.03695451640939
 20
519.16114554967112
 30
0.0
 11
103.03695451640939
 21
518.52323154967087
 31
0.0
  0
ARC
  5
26A3
  8
0
 10
101.9869545164093
 20
521.66030954967096
 30
0.0
 40
0.25
 50
136.17881299999931
 51
180.0
  0
ARC
  5
26A4
  8
0
 10
102.6869545164094
 20
521.03501654967101
 30
0.0
 40
0.7
 50
92.999999999999105
 51
180.0
  0
ARC
  5
26A5
  8
0
 10
102.6869545164094
 20
521.03501654967101
 30
0.0
 40
0.2
 50
92.999999999999105
 51
180.0
  0
ARC
  5
26A6
  8
0
 10
105.1869545164094
 20
522.01429154967104
 30
0.0
 40
4.0999999999999988
 50
238.37279599999769
 51
311.5067160000018
  0
ARC
  5
26A7
  8
0
 10
105.1869545164094
 20
521.84429154967097
 30
0.0
 40
2.379999999999999
 50
194.56954699999829
 51
351.43045300000119
  0
LINE
  5
26A8
  8
0
 10
102.6764875164094
 20
521.23474254967095
 30
0.0
 11
108.98355651640939
 21
521.56528154967089
 31
0.0
  0
ARC
  5
26A9
  8
0
 10
105.1869545164094
 20
522.01429154967104
 30
0.0
 40
2.5499999999999989
 50
232.9999999999979
 51
311.45000000000101
  0
ARC
  5
26AA
  8
0
 10
105.1491325164094
 20
522.56597554967095
 30
0.0
 40
2.0
 50
219.8698980000004
 51
326.13010199999979
  0
LINE
  5
26AB
  8
0
 10
98.304701516409409
 20
520.75509154967096
 30
0.0
 11
97.870778516409374
 21
520.93585854967102
 31
0.0
  0
ARC
  5
26AC
  8
0
 10
95.638384516409474
 20
521.81700254967097
 30
0.0
 40
2.8700000000000001
 50
338.28414499999928
 51
353.97911799999991
  0
ARC
  5
26AD
  8
0
 10
95.638384516409474
 20
521.81700254967097
 30
0.0
 40
2.399999999999999
 50
338.46043599999871
 51
352.1930770000007
  0
ARC
  5
26AE
  8
0
 10
98.426954516409424
 20
518.86151554967091
 30
0.0
 40
0.11
 50
0.0
 51
131.50671600000169
  0
ARC
  5
26AF
  8
0
 10
98.426954516409424
 20
518.86151554967091
 30
0.0
 40
1.659999999999999
 50
0.0
 51
131.50671600000169
  0
LINE
  5
26B0
  8
0
 10
102.6869545164094
 20
513.74929154967106
 30
0.0
 11
104.4869545164093
 21
513.74929154967106
 31
0.0
  0
LINE
  5
26B1
  8
0
 10
102.6869545164094
 20
513.24929154967106
 30
0.0
 11
104.4869545164093
 21
513.24929154967106
 31
0.0
  0
ARC
  5
26B2
  8
0
 10
102.6869545164094
 20
513.94929154967099
 30
0.0
 40
0.7
 50
180.0
 51
270.0
  0
ARC
  5
26B3
  8
0
 10
102.6869545164094
 20
513.94929154967099
 30
0.0
 40
0.2
 50
180.0
 51
270.0
  0
ARC
  5
26B4
  8
0
 10
104.4869545164093
 20
513.0492915496709
 30
0.0
 40
0.2
 50
0.0
 51
90.0
  0
ARC
  5
26B5
  8
0
 10
104.4869545164093
 20
513.0492915496709
 30
0.0
 40
0.7
 50
0.0
 51
90.0
  0
LINE
  5
26B6
  8
0
 10
102.4869545164093
 20
521.03501654967101
 30
0.0
 11
102.4869545164093
 21
513.94929154967099
 31
0.0
  0
LINE
  5
26B7
  8
0
 10
101.9869545164093
 20
521.03501654967101
 30
0.0
 11
101.9869545164093
 21
513.94929154967099
 31
0.0
  0
ARC
  5
26B8
  8
0
 10
93.136954516409332
 20
521.03501654967101
 30
0.0
 40
0.2
 50
92.999999999999105
 51
180.0
  0
ARC
  5
26B9
  8
0
 10
93.136954516409332
 20
521.03501654967101
 30
0.0
 40
0.7
 50
92.999999999999105
 51
180.0
  0
ARC
  5
26BA
  8
0
 10
92.436954516409401
 20
521.66030954967096
 30
0.0
 40
0.25
 50
136.17881299999931
 51
180.0
  0
LINE
  5
26BB
  8
0
 10
93.486954516409355
 20
519.16114554967112
 30
0.0
 11
93.486954516409355
 21
518.52323154967087
 31
0.0
  0
LINE
  5
26BC
  8
0
 10
94.102326516409434
 20
519.97777154967093
 30
0.0
 11
93.486954516409355
 21
519.16114554967112
 31
0.0
  0
ARC
  5
26BD
  8
0
 10
94.936954516409401
 20
513.0492915496709
 30
0.0
 40
0.2
 50
0.0
 51
90.0
  0
ARC
  5
26BE
  8
0
 10
93.136954516409332
 20
513.94929154967099
 30
0.0
 40
0.2
 50
180.0
 51
270.0
  0
ARC
  5
26BF
  8
0
 10
93.136954516409332
 20
513.94929154967099
 30
0.0
 40
0.7
 50
180.0
 51
270.0
  0
LINE
  5
26C0
  8
0
 10
93.136954516409332
 20
513.24929154967106
 30
0.0
 11
94.936954516409401
 21
513.24929154967106
 31
0.0
  0
LINE
  5
26C1
  8
0
 10
93.136954516409332
 20
513.74929154967106
 30
0.0
 11
94.936954516409401
 21
513.74929154967106
 31
0.0
  0
LINE
  5
26C2
  8
0
 10
92.436954516409401
 20
521.03501654967101
 30
0.0
 11
92.436954516409401
 21
513.94929154967099
 31
0.0
  0
LINE
  5
26C3
  8
0
 10
92.936954516409415
 20
521.03501654967101
 30
0.0
 11
92.936954516409415
 21
513.94929154967099
 31
0.0
  0
ARC
  5
26C4
  8
0
 10
95.599132516409441
 20
522.56597554967095
 30
0.0
 40
2.0
 50
219.8698980000004
 51
326.13010199999979
  0
ARC
  5
26C5
  8
0
 10
95.636954516409332
 20
522.01429154967104
 30
0.0
 40
2.5499999999999989
 50
232.9999999999979
 51
311.45000000000101
  0
LINE
  5
26C6
  8
0
 10
93.126487516409384
 20
521.23474254967095
 30
0.0
 11
99.433556516409453
 21
521.56528154967089
 31
0.0
  0
ARC
  5
26C7
  8
0
 10
95.636954516409332
 20
521.84429154967097
 30
0.0
 40
2.379999999999999
 50
194.56954699999829
 51
351.43045300000119
  0
ARC
  5
26C8
  8
0
 10
94.936954516409401
 20
513.0492915496709
 30
0.0
 40
0.7
 50
0.0
 51
90.0
  0
ARC
  5
26C9
  8
0
 10
95.636954516409332
 20
522.01429154967104
 30
0.0
 40
4.0999999999999988
 50
238.37279599999769
 51
311.5067160000018
  0
ARC
  5
26CA
  8
0
 10
101.8869545164093
 20
521.66030954967096
 30
0.0
 40
1.8
 50
136.17881299999931
 51
180.0
  0
LINE
  5
26CB
  8
0
 10
108.9573885164093
 20
522.06459654967102
 30
0.0
 11
108.98355651640939
 21
521.56528154967089
 31
0.0
  0
LINE
  5
26CC
  8
0
 10
103.3016865164094
 20
523.39134354967098
 30
0.0
 11
101.8065785164094
 21
521.83341254967104
 31
0.0
  0
LINE
  5
26CD
  8
0
 10
102.6503195164093
 20
521.73405754967087
 30
0.0
 11
108.9573885164093
 21
522.06459654967102
 31
0.0
  0
ARC
  5
26CE
  8
0
 10
105.1869545164094
 20
521.84429154967097
 30
0.0
 40
2.379999999999999
 50
3.545853999999327
 51
182.45414599999879
  0
LINE
  5
26CF
  8
0
 10
99.407388516409355
 20
522.06459654967102
 30
0.0
 11
99.433556516409453
 21
521.56528154967089
 31
0.0
  0
LINE
  5
26D0
  8
0
 10
93.751686516409464
 20
523.39134354967098
 30
0.0
 11
92.256578516409377
 21
521.83341254967104
 31
0.0
  0
ARC
  5
26D1
  8
0
 10
95.636954516409332
 20
521.84429154967097
 30
0.0
 40
2.379999999999999
 50
3.545853999999327
 51
182.45414599999879
  0
LINE
  5
26D2
  8
0
 10
93.1003195164094
 20
521.73405754967087
 30
0.0
 11
99.407388516409355
 21
522.06459654967102
 31
0.0
  0
ARC
  5
26D3
  8
0
 10
92.336954516409378
 20
521.66030954967096
 30
0.0
 40
1.8
 50
136.17881299999931
 51
180.0
  0
LINE
  5
26D4
  8
0
 10
92.63781651640943
 20
524.573429549671
 30
0.0
 11
91.038246516409345
 21
522.90664754967088
 31
0.0
  0
LINE
  5
2A2E
  8
0
 10
108.64695451640929
 20
523.989000549671
 30
0.0
 11
107.98609231927421
 21
524.57342935253575
 31
0.0
  0
LINE
  5
2A2F
  8
0
 10
107.98609231927421
 20
491.62515374680612
 30
0.0
 11
108.64695451640929
 21
492.20958254967093
 31
0.0
  0
LINE
  5
2A30
  8
0
 10
98.436092319274167
 20
524.57342935253575
 30
0.0
 11
99.096954516409369
 21
523.989000549671
 31
0.0
  0
LINE
  5
2A31
  8
0
 10
98.436092319274167
 20
491.62515374680612
 30
0.0
 11
99.096954516409369
 21
492.20958254967093
 31
0.0
  0
LINE
  5
3832
  8
2
 10
756.7369545164097
 20
495.67706754967088
 30
0.0
 11
1033.1369545164091
 21
495.67706754967088
 31
0.0
  0
LINE
  5
3833
  8
2
 10
756.7369545164097
 20
498.28429154967108
 30
0.0
 11
1034.7369545164099
 21
498.28429154967108
 31
0.0
  0
LINE
  5
3834
  8
2
 10
756.7369545164097
 20
517.91429154967113
 30
0.0
 11
1034.7369545164099
 21
517.91429154967113
 31
0.0
  0
LINE
  5
3835
  8
2
 10
756.7369545164097
 20
520.52151454967111
 30
0.0
 11
1033.1369545164091
 21
520.52151454967111
 31
0.0
  0
LINE
  5
3838
  8
0
 10
498.436954516409
 20
522.89275254967094
 30
0.0
 11
1057.236954516409
 21
522.89275254967094
 31
0.0
  0
LINE
  5
3839
  8
0
 10
498.436954516409
 20
525.77429154967103
 30
0.0
 11
1057.236954516409
 21
525.77429154967103
 31
0.0
  0
LINE
  5
383A
  8
0
 10
498.436954516409
 20
493.30582954967099
 30
0.0
 11
1057.236954516409
 21
493.30582954967099
 31
0.0
  0
LINE
  5
383B
  8
0
 10
498.436954516409
 20
490.42429154967101
 30
0.0
 11
1057.236954516409
 21
490.42429154967101
 31
0.0
  0
LINE
  5
383C
  8
1
 10
164.6369545164093
 20
508.09929154967102
 30
0.0
 11
1327.8369545164089
 21
508.09929154967091
 31
0.0
  0
LINE
  5
383E
  8
2
 10
174.6369545164093
 20
517.91429154967113
 30
0.0
 11
729.43695451640895
 21
517.91429154967113
 31
0.0
  0
LINE
  5
383F
  8
0
 10
174.6369545164093
 20
520.52151454967111
 30
0.0
 11
729.43695451640895
 21
520.52151454967111
 31
0.0
  0
LINE
  5
3840
  8
2
 10
174.6369545164093
 20
498.28429154967108
 30
0.0
 11
729.43695451640895
 21
498.28429154967108
 31
0.0
  0
LINE
  5
3841
  8
0
 10
174.6369545164093
 20
495.67706754967088
 30
0.0
 11
729.43695451640895
 21
495.67706754967088
 31
0.0
  0
LINE
  5
3842
  8
0
 10
174.6369545164093
 20
520.52151454967111
 30
0.0
 11
174.6369545164093
 21
495.67706754967088
 31
0.0
  0
ARC
  5
3843
  8
0
 10
190.536954516409
 20
507.69929154967099
 30
0.0
 40
2.25
 50
180.0
 51
0.0
  0
ARC
  5
3844
  8
0
 10
190.536954516409
 20
508.499291549671
 30
0.0
 40
2.25
 50
0.0
 51
180.0
  0
LINE
  5
3845
  8
0
 10
188.286954516409
 20
507.69929154967099
 30
0.0
 11
188.286954516409
 21
508.499291549671
 31
0.0
  0
LINE
  5
3846
  8
1
 10
190.536954516409
 20
514.09929154967108
 30
0.0
 11
190.536954516409
 21
502.09929154967102
 31
0.0
  0
LINE
  5
3847
  8
0
 10
192.78695451640891
 20
507.69929154967099
 30
0.0
 11
192.78695451640891
 21
508.499291549671
 31
0.0
  0
LINE
  5
3848
  8
0
 10
205.4869545164093
 20
508.499291549671
 30
0.0
 11
205.4869545164093
 21
507.69929154967099
 31
0.0
  0
LINE
  5
3849
  8
0
 10
200.9869545164093
 20
508.499291549671
 30
0.0
 11
200.9869545164093
 21
507.69929154967099
 31
0.0
  0
LINE
  5
384A
  8
1
 10
203.2369545164093
 20
514.09929154967108
 30
0.0
 11
203.2369545164093
 21
502.09929154967102
 31
0.0
  0
ARC
  5
384B
  8
0
 10
203.2369545164093
 20
508.499291549671
 30
0.0
 40
2.25
 50
0.0
 51
180.0
  0
ARC
  5
384C
  8
0
 10
203.2369545164093
 20
507.69929154967099
 30
0.0
 40
2.25
 50
180.0
 51
0.0
  0
LINE
  5
384D
  8
0
 10
313.93695451640912
 20
510.34929154967102
 30
0.0
 11
314.73695451640918
 21
510.34929154967102
 31
0.0
  0
LINE
  5
384E
  8
0
 10
313.93695451640912
 20
505.84929154967102
 30
0.0
 11
314.73695451640918
 21
505.84929154967102
 31
0.0
  0
LINE
  5
384F
  8
1
 10
314.33695451640909
 20
514.09929154967108
 30
0.0
 11
314.33695451640909
 21
502.09929154967102
 31
0.0
  0
ARC
  5
3850
  8
0
 10
313.93695451640912
 20
508.09929154967102
 30
0.0
 40
2.25
 50
90.0
 51
270.0
  0
ARC
  5
3851
  8
0
 10
314.73695451640918
 20
508.09929154967102
 30
0.0
 40
2.25
 50
270.0
 51
90.0
  0
ARC
  5
3852
  8
0
 10
606.03695451640885
 20
508.09929154967102
 30
0.0
 40
2.25
 50
90.0
 51
270.0
  0
LINE
  5
3853
  8
2
 10
495.33695451640921
 20
500.34929154967102
 30
0.0
 11
570.83695451640915
 21
500.34929154967102
 31
0.0
  0
LINE
  5
3854
  8
2
 10
495.33695451640921
 20
515.84929154967108
 30
0.0
 11
570.83695451640915
 21
515.84929154967108
 31
0.0
  0
CIRCLE
  5
3855
  8
2
 10
514.33695451640915
 20
515.24929154967094
 30
0.0
 40
1.149999999999999
  0
CIRCLE
  5
3856
  8
2
 10
514.33695451640915
 20
515.24929154967094
 30
0.0
 40
2.1000000000000001
  0
LINE
  5
3858
  8
2
 10
510.33695451640909
 20
520.52151454967111
 30
0.0
 11
510.33695451640909
 21
495.67706754967088
 31
0.0
  0
LINE
  5
3859
  8
2
 10
518.33695451640915
 20
520.52151454967111
 30
0.0
 11
518.33695451640915
 21
495.67706754967088
 31
0.0
  0
LINE
  5
385A
  8
2
 10
495.33695451640921
 20
515.84929154967108
 30
0.0
 11
479.436954516409
 21
514.39929154967103
 31
0.0
  0
LINE
  5
385C
  8
2
 10
495.33695451640921
 20
500.34929154967102
 30
0.0
 11
479.436954516409
 21
501.79929154967101
 31
0.0
  0
LINE
  5
385D
  8
1
 10
454.03695451640891
 20
514.09929154967108
 30
0.0
 11
454.03695451640891
 21
502.09929154967102
 31
0.0
  0
LINE
  5
385E
  8
0
 10
479.436954516409
 20
504.44929154967099
 30
0.0
 11
479.436954516409
 21
511.74929154967089
 31
0.0
  0
ARC
  5
385F
  8
0
 10
477.436954516409
 20
511.51329054967101
 30
0.0
 40
2.0
 50
110.5560449999921
 51
180.0
  0
ARC
  5
3860
  8
0
 10
477.436954516409
 20
504.68529154967098
 30
0.0
 40
2.0
 50
180.0
 51
249.44395500000789
  0
LINE
  5
3861
  8
0
 10
475.436954516409
 20
504.68529154967098
 30
0.0
 11
475.436954516409
 21
511.51329054967101
 31
0.0
  0
LINE
  5
3862
  8
0
 10
474.23695451640918
 20
504.44929154967099
 30
0.0
 11
474.23695451640918
 21
511.74929154967089
 31
0.0
  0
ARC
  5
3863
  8
0
 10
476.83695451640909
 20
511.74929154967089
 30
0.0
 40
2.6000000000000001
 50
0.0
 51
180.0
  0
LINE
  5
3864
  8
0
 10
478.22794511265499
 20
513.94591285548495
 30
0.0
 11
476.73470751640929
 21
513.38594854967096
 31
0.0
  0
LINE
  5
3865
  8
2
 10
479.436954516409
 20
501.79929154967101
 30
0.0
 11
478.22794466890292
 21
502.25266996285518
 31
0.0
  0
ARC
  5
3866
  8
0
 10
476.83695451640909
 20
504.44929154967099
 30
0.0
 40
2.6000000000000001
 50
180.0
 51
0.0
  0
ARC
  5
3867
  8
0
 10
453.63695451640928
 20
508.09929154967102
 30
0.0
 40
2.25
 50
90.0
 51
270.0
  0
LINE
  5
3868
  8
0
 10
453.63695451640928
 20
510.34929154967102
 30
0.0
 11
454.436954516409
 21
510.34929154967102
 31
0.0
  0
LINE
  5
3869
  8
0
 10
453.63695451640928
 20
505.84929154967102
 30
0.0
 11
454.436954516409
 21
505.84929154967102
 31
0.0
  0
ARC
  5
386A
  8
0
 10
454.436954516409
 20
508.09929154967102
 30
0.0
 40
2.25
 50
270.0
 51
90.0
  0
LINE
  5
386B
  8
2
 10
499.28695451640891
 20
510.749291549671
 30
0.0
 11
504.58695451640909
 21
510.749291549671
 31
0.0
  0
LINE
  5
386C
  8
2
 10
499.28695451640891
 20
505.44929154967099
 30
0.0
 11
504.58695451640909
 21
505.44929154967099
 31
0.0
  0
LINE
  5
386D
  8
2
 10
504.58695451640909
 20
504.09929154967102
 30
0.0
 11
504.58695451640909
 21
512.09929154967097
 31
0.0
  0
LINE
  5
386E
  8
2
 10
504.58695451640909
 20
505.44929154967099
 30
0.0
 11
504.58695451640909
 21
510.749291549671
 31
0.0
  0
LINE
  5
386F
  8
2
 10
499.28695451640891
 20
505.44929154967099
 30
0.0
 11
499.28695451640891
 21
510.749291549671
 31
0.0
  0
LINE
  5
3870
  8
2
 10
501.936954516409
 20
505.44929154967099
 30
0.0
 11
501.936954516409
 21
510.749291549671
 31
0.0
  0
CIRCLE
  5
3871
  8
2
 10
514.33695451640915
 20
500.94929154967099
 30
0.0
 40
1.149999999999999
  0
CIRCLE
  5
3872
  8
2
 10
514.33695451640915
 20
500.94929154967099
 30
0.0
 40
2.1000000000000001
  0
LINE
  5
3873
  8
0
 10
518.33695451640915
 20
493.89929154967109
 30
0.0
 11
518.33695451640915
 21
495.67706754967088
 31
0.0
  0
LINE
  5
3874
  8
0
 10
500.73695451640918
 20
493.80582954967099
 30
0.0
 11
500.73695451640918
 21
493.30582954967099
 31
0.0
  0
POLYLINE
  8
0
  5
3AF0
  66
     1
 10
0.000000
 20
0.000000
 30
0.000000
  70
     8
  0
VERTEX
  8
0
  5
3AF1
 10
500.737
 20
493.806
 30
0.000000
  70
    32
  0
VERTEX
  8
0
  5
3AF2
 10
500.752
 20
493.823
 30
0.000000
  70
    32
  0
VERTEX
  8
0
  5
3AF3
 10
500.768
 20
493.841
 30
0.000000
  70
    32
  0
VERTEX
  8
0
  5
3AF4
 10
500.783
 20
493.859
 30
0.000000
  70
    32
  0
VERTEX
  8
0
  5
3AF5
 10
500.799
 20
493.876
 30
0.000000
  70
    32
  0
VERTEX
  8
0
  5
3AF6
 10
500.814
 20
493.894
 30
0.000000
  70
    32
  0
VERTEX
  8
0
  5
3AF7
 10
500.830
 20
493.912
 30
0.000000
  70
    32
  0
VERTEX
  8
0
  5
3AF8
 10
500.845
 20
493.929
 30
0.000000
  70
    32
  0
VERTEX
  8
0
  5
3AF9
 10
500.860
 20
493.947
 30
0.000000
  70
    32
  0
VERTEX
  8
0
  5
3AFA
 10
500.876
 20
493.964
 30
0.000000
  70
    32
  0
VERTEX
  8
0
  5
3AFB
 10
500.891
 20
493.982
 30
0.000000
  70
    32
  0
VERTEX
  8
0
  5
3AFC
 10
500.907
 20
493.999
 30
0.000000
  70
    32
  0
VERTEX
  8
0
  5
3AFD
 10
500.922
 20
494.017
 30
0.000000
  70
    32
  0
VERTEX
  8
0
  5
3AFE
 10
500.938
 20
494.034
 30
0.000000
  70
    32
  0
VERTEX
  8
0
  5
3AFF
 10
500.953
 20
494.052
 30
0.000000
  70
    32
  0
VERTEX
  8
0
  5
3B00
 10
500.969
 20
494.069
 30
0.000000
  70
    32
  0
VERTEX
  8
0
  5
3B01
 10
500.984
 20
494.087
 30
0.000000
  70
    32
  0
VERTEX
  8
0
  5
3B02
 10
501.000
 20
494.104
 30
0.000000
  70
    32
  0
VERTEX
  8
0
  5
3B03
 10
501.016
 20
494.121
 30
0.000000
  70
    32
  0
VERTEX
  8
0
  5
3B04
 10
501.031
 20
494.139
 30
0.000000
  70
    32
  0
VERTEX
  8
0
  5
3B05
 10
501.047
 20
494.156
 30
0.000000
  70
    32
  0
VERTEX
  8
0
  5
3B06
 10
501.062
 20
494.173
 30
0.000000
  70
    32
  0
VERTEX
  8
0
  5
3B07
 10
501.078
 20
494.191
 30
0.000000
  70
    32
  0
VERTEX
  8
0
  5
3B08
 10
501.094
 20
494.208
 30
0.000000
  70
    32
  0
VERTEX
  8
0
  5
3B09
 10
501.110
 20
494.225
 30
0.000000
  70
    32
  0
VERTEX
  8
0
  5
3B0A
 10
501.125
 20
494.242
 30
0.000000
  70
    32
  0
VERTEX
  8
0
  5
3B0B
 10
501.141
 20
494.259
 30
0.000000
  70
    32
  0
VERTEX
  8
0
  5
3B0C
 10
501.157
 20
494.276
 30
0.000000
  70
    32
  0
VERTEX
  8
0
  5
3B0D
 10
501.173
 20
494.293
 30
0.000000
  70
    32
  0
VERTEX
  8
0
  5
3B0E
 10
501.188
 20
494.310
 30
0.000000
  70
    32
  0
VERTEX
  8
0
  5
3B0F
 10
501.204
 20
494.327
 30
0.000000
  70
    32
  0
VERTEX
  8
0
  5
3B10
 10
501.220
 20
494.344
 30
0.000000
  70
    32
  0
VERTEX
  8
0
  5
3B11
 10
501.236
 20
494.360
 30
0.000000
  70
    32
  0
VERTEX
  8
0
  5
3B12
 10
501.252
 20
494.377
 30
0.000000
  70
    32
  0
VERTEX
  8
0
  5
3B13
 10
501.268
 20
494.394
 30
0.000000
  70
    32
  0
VERTEX
  8
0
  5
3B14
 10
501.284
 20
494.410
 30
0.000000
  70
    32
  0
VERTEX
  8
0
  5
3B15
 10
501.300
 20
494.427
 30
0.000000
  70
    32
  0
VERTEX
  8
0
  5
3B16
 10
501.316
 20
494.443
 30
0.000000
  70
    32
  0
VERTEX
  8
0
  5
3B17
 10
501.332
 20
494.460
 30
0.000000
  70
    32
  0
VERTEX
  8
0
  5
3B18
 10
501.349
 20
494.476
 30
0.000000
  70
    32
  0
VERTEX
  8
0
  5
3B19
 10
501.365
 20
494.492
 30
0.000000
  70
    32
  0
VERTEX
  8
0
  5
3B1A
 10
501.381
 20
494.509
 30
0.000000
  70
    32
  0
VERTEX
  8
0
  5
3B1B
 10
501.397
 20
494.525
 30
0.000000
  70
    32
  0
VERTEX
  8
0
  5
3B1C
 10
501.414
 20
494.541
 30
0.000000
  70
    32
  0
VERTEX
  8
0
  5
3B1D
 10
501.430
 20
494.557
 30
0.000000
  70
    32
  0
VERTEX
  8
0
  5
3B1E
 10
501.447
 20
494.573
 30
0.000000
  70
    32
  0
VERTEX
  8
0
  5
3B1F
 10
501.463
 20
494.589
 30
0.000000
  70
    32
  0
VERTEX
  8
0
  5
3B20
 10
501.480
 20
494.604
 30
0.000000
  70
    32
  0
VERTEX
  8
0
  5
3B21
 10
501.496
 20
494.620
 30
0.000000
  70
    32
  0
VERTEX
  8
0
  5
3B22
 10
501.513
 20
494.636
 30
0.000000
  70
    32
  0
VERTEX
  8
0
  5
3B23
 10
501.529
 20
494.651
 30
0.000000
  70
    32
  0
VERTEX
  8
0
  5
3B24
 10
501.546
 20
494.667
 30
0.000000
  70
    32
  0
VERTEX
  8
0
  5
3B25
 10
501.563
 20
494.682
 30
0.000000
  70
    32
  0
VERTEX
  8
0
  5
3B26
 10
501.580
 20
494.697
 30
0.000000
  70
    32
  0
VERTEX
  8
0
  5
3B27
 10
501.597
 20
494.712
 30
0.000000
  70
    32
  0
VERTEX
  8
0
  5
3B28
 10
501.613
 20
494.728
 30
0.000000
  70
    32
  0
VERTEX
  8
0
  5
3B29
 10
501.630
 20
494.743
 30
0.000000
  70
    32
  0
VERTEX
  8
0
  5
3B2A
 10
501.647
 20
494.757
 30
0.000000
  70
    32
  0
VERTEX
  8
0
  5
3B2B
 10
501.665
 20
494.772
 30
0.000000
  70
    32
  0
VERTEX
  8
0
  5
3B2C
 10
501.682
 20
494.787
 30
0.000000
  70
    32
  0
VERTEX
  8
0
  5
3B2D
 10
501.699
 20
494.801
 30
0.000000
  70
    32
  0
VERTEX
  8
0
  5
3B2E
 10
501.716
 20
494.816
 30
0.000000
  70
    32
  0
VERTEX
  8
0
  5
3B2F
 10
501.734
 20
494.830
 30
0.000000
  70
    32
  0
VERTEX
  8
0
  5
3B30
 10
501.751
 20
494.845
 30
0.000000
  70
    32
  0
VERTEX
  8
0
  5
3B31
 10
501.768
 20
494.859
 30
0.000000
  70
    32
  0
VERTEX
  8
0
  5
3B32
 10
501.786
 20
494.873
 30
0.000000
  70
    32
  0
VERTEX
  8
0
  5
3B33
 10
501.804
 20
494.887
 30
0.000000
  70
    32
  0
VERTEX
  8
0
  5
3B34
 10
501.821
 20
494.901
 30
0.000000
  70
    32
  0
VERTEX
  8
0
  5
3B35
 10
501.839
 20
494.914
 30
0.000000
  70
    32
  0
VERTEX
  8
0
  5
3B36
 10
501.857
 20
494.928
 30
0.000000
  70
    32
  0
VERTEX
  8
0
  5
3B37
 10
501.875
 20
494.941
 30
0.000000
  70
    32
  0
VERTEX
  8
0
  5
3B38
 10
501.893
 20
494.955
 30
0.000000
  70
    32
  0
VERTEX
  8
0
  5
3B39
 10
501.911
 20
494.968
 30
0.000000
  70
    32
  0
VERTEX
  8
0
  5
3B3A
 10
501.929
 20
494.981
 30
0.000000
  70
    32
  0
VERTEX
  8
0
  5
3B3B
 10
501.947
 20
494.994
 30
0.000000
  70
    32
  0
VERTEX
  8
0
  5
3B3C
 10
501.965
 20
495.007
 30
0.000000
  70
    32
  0
VERTEX
  8
0
  5
3B3D
 10
501.983
 20
495.020
 30
0.000000
  70
    32
  0
VERTEX
  8
0
  5
3B3E
 10
502.002
 20
495.032
 30
0.000000
  70
    32
  0
VERTEX
  8
0
  5
3B3F
 10
502.020
 20
495.045
 30
0.000000
  70
    32
  0
VERTEX
  8
0
  5
3B40
 10
502.039
 20
495.057
 30
0.000000
  70
    32
  0
VERTEX
  8
0
  5
3B41
 10
502.057
 20
495.069
 30
0.000000
  70
    32
  0
VERTEX
  8
0
  5
3B42
 10
502.076
 20
495.081
 30
0.000000
  70
    32
  0
VERTEX
  8
0
  5
3B43
 10
502.095
 20
495.093
 30
0.000000
  70
    32
  0
VERTEX
  8
0
  5
3B44
 10
502.114
 20
495.105
 30
0.000000
  70
    32
  0
VERTEX
  8
0
  5
3B45
 10
502.133
 20
495.117
 30
0.000000
  70
    32
  0
VERTEX
  8
0
  5
3B46
 10
502.152
 20
495.128
 30
0.000000
  70
    32
  0
VERTEX
  8
0
  5
3B47
 10
502.171
 20
495.139
 30
0.000000
  70
    32
  0
VERTEX
  8
0
  5
3B48
 10
502.190
 20
495.151
 30
0.000000
  70
    32
  0
VERTEX
  8
0
  5
3B49
 10
502.209
 20
495.162
 30
0.000000
  70
    32
  0
VERTEX
  8
0
  5
3B4A
 10
502.229
 20
495.172
 30
0.000000
  70
    32
  0
VERTEX
  8
0
  5
3B4B
 10
502.248
 20
495.183
 30
0.000000
  70
    32
  0
VERTEX
  8
0
  5
3B4C
 10
502.268
 20
495.194
 30
0.000000
  70
    32
  0
VERTEX
  8
0
  5
3B4D
 10
502.287
 20
495.204
 30
0.000000
  70
    32
  0
VERTEX
  8
0
  5
3B4E
 10
502.307
 20
495.215
 30
0.000000
  70
    32
  0
VERTEX
  8
0
  5
3B4F
 10
502.327
 20
495.225
 30
0.000000
  70
    32
  0
VERTEX
  8
0
  5
3B50
 10
502.347
 20
495.235
 30
0.000000
  70
    32
  0
VERTEX
  8
0
  5
3B51
 10
502.367
 20
495.245
 30
0.000000
  70
    32
  0
VERTEX
  8
0
  5
3B52
 10
502.387
 20
495.254
 30
0.000000
  70
    32
  0
VERTEX
  8
0
  5
3B53
 10
502.407
 20
495.264
 30
0.000000
  70
    32
  0
VERTEX
  8
0
  5
3B54
 10
502.427
 20
495.273
 30
0.000000
  70
    32
  0
VERTEX
  8
0
  5
3B55
 10
502.448
 20
495.283
 30
0.000000
  70
    32
  0
VERTEX
  8
0
  5
3B56
 10
502.468
 20
495.292
 30
0.000000
  70
    32
  0
VERTEX
  8
0
  5
3B57
 10
502.488
 20
495.301
 30
0.000000
  70
    32
  0
VERTEX
  8
0
  5
3B58
 10
502.509
 20
495.310
 30
0.000000
  70
    32
  0
VERTEX
  8
0
  5
3B59
 10
502.530
 20
495.319
 30
0.000000
  70
    32
  0
VERTEX
  8
0
  5
3B5A
 10
502.550
 20
495.327
 30
0.000000
  70
    32
  0
VERTEX
  8
0
  5
3B5B
 10
502.571
 20
495.336
 30
0.000000
  70
    32
  0
VERTEX
  8
0
  5
3B5C
 10
502.592
 20
495.344
 30
0.000000
  70
    32
  0
VERTEX
  8
0
  5
3B5D
 10
502.613
 20
495.353
 30
0.000000
  70
    32
  0
VERTEX
  8
0
  5
3B5E
 10
502.634
 20
495.361
 30
0.000000
  70
    32
  0
VERTEX
  8
0
  5
3B5F
 10
502.655
 20
495.369
 30
0.000000
  70
    32
  0
VERTEX
  8
0
  5
3B60
 10
502.676
 20
495.377
 30
0.000000
  70
    32
  0
VERTEX
  8
0
  5
3B61
 10
502.697
 20
495.385
 30
0.000000
  70
    32
  0
VERTEX
  8
0
  5
3B62
 10
502.718
 20
495.393
 30
0.000000
  70
    32
  0
VERTEX
  8
0
  5
3B63
 10
502.739
 20
495.400
 30
0.000000
  70
    32
  0
VERTEX
  8
0
  5
3B64
 10
502.761
 20
495.408
 30
0.000000
  70
    32
  0
VERTEX
  8
0
  5
3B65
 10
502.782
 20
495.415
 30
0.000000
  70
    32
  0
VERTEX
  8
0
  5
3B66
 10
502.803
 20
495.423
 30
0.000000
  70
    32
  0
VERTEX
  8
0
  5
3B67
 10
502.825
 20
495.430
 30
0.000000
  70
    32
  0
VERTEX
  8
0
  5
3B68
 10
502.847
 20
495.437
 30
0.000000
  70
    32
  0
VERTEX
  8
0
  5
3B69
 10
502.868
 20
495.444
 30
0.000000
  70
    32
  0
VERTEX
  8
0
  5
3B6A
 10
502.890
 20
495.452
 30
0.000000
  70
    32
  0
VERTEX
  8
0
  5
3B6B
 10
502.911
 20
495.458
 30
0.000000
  70
    32
  0
VERTEX
  8
0
  5
3B6C
 10
502.933
 20
495.465
 30
0.000000
  70
    32
  0
VERTEX
  8
0
  5
3B6D
 10
502.955
 20
495.472
 30
0.000000
  70
    32
  0
VERTEX
  8
0
  5
3B6E
 10
502.977
 20
495.479
 30
0.000000
  70
    32
  0
VERTEX
  8
0
  5
3B6F
 10
502.999
 20
495.485
 30
0.000000
  70
    32
  0
VERTEX
  8
0
  5
3B70
 10
503.021
 20
495.492
 30
0.000000
  70
    32
  0
VERTEX
  8
0
  5
3B71
 10
503.043
 20
495.499
 30
0.000000
  70
    32
  0
VERTEX
  8
0
  5
3B72
 10
503.065
 20
495.505
 30
0.000000
  70
    32
  0
VERTEX
  8
0
  5
3B73
 10
503.087
 20
495.511
 30
0.000000
  70
    32
  0
VERTEX
  8
0
  5
3B74
 10
503.109
 20
495.518
 30
0.000000
  70
    32
  0
VERTEX
  8
0
  5
3B75
 10
503.131
 20
495.524
 30
0.000000
  70
    32
  0
VERTEX
  8
0
  5
3B76
 10
503.153
 20
495.530
 30
0.000000
  70
    32
  0
VERTEX
  8
0
  5
3B77
 10
503.175
 20
495.536
 30
0.000000
  70
    32
  0
VERTEX
  8
0
  5
3B78
 10
503.197
 20
495.542
 30
0.000000
  70
    32
  0
VERTEX
  8
0
  5
3B79
 10
503.220
 20
495.548
 30
0.000000
  70
    32
  0
VERTEX
  8
0
  5
3B7A
 10
503.242
 20
495.554
 30
0.000000
  70
    32
  0
VERTEX
  8
0
  5
3B7B
 10
503.264
 20
495.560
 30
0.000000
  70
    32
  0
VERTEX
  8
0
  5
3B7C
 10
503.287
 20
495.566
 30
0.000000
  70
    32
  0
VERTEX
  8
0
  5
3B7D
 10
503.309
 20
495.572
 30
0.000000
  70
    32
  0
VERTEX
  8
0
  5
3B7E
 10
503.331
 20
495.578
 30
0.000000
  70
    32
  0
VERTEX
  8
0
  5
3B7F
 10
503.354
 20
495.583
 30
0.000000
  70
    32
  0
VERTEX
  8
0
  5
3B80
 10
503.376
 20
495.589
 30
0.000000
  70
    32
  0
VERTEX
  8
0
  5
3B81
 10
503.399
 20
495.595
 30
0.000000
  70
    32
  0
VERTEX
  8
0
  5
3B82
 10
503.421
 20
495.600
 30
0.000000
  70
    32
  0
VERTEX
  8
0
  5
3B83
 10
503.444
 20
495.606
 30
0.000000
  70
    32
  0
VERTEX
  8
0
  5
3B84
 10
503.466
 20
495.612
 30
0.000000
  70
    32
  0
VERTEX
  8
0
  5
3B85
 10
503.489
 20
495.617
 30
0.000000
  70
    32
  0
VERTEX
  8
0
  5
3B86
 10
503.511
 20
495.623
 30
0.000000
  70
    32
  0
VERTEX
  8
0
  5
3B87
 10
503.534
 20
495.628
 30
0.000000
  70
    32
  0
VERTEX
  8
0
  5
3B88
 10
503.556
 20
495.634
 30
0.000000
  70
    32
  0
VERTEX
  8
0
  5
3B89
 10
503.579
 20
495.639
 30
0.000000
  70
    32
  0
VERTEX
  8
0
  5
3B8A
 10
503.601
 20
495.645
 30
0.000000
  70
    32
  0
VERTEX
  8
0
  5
3B8B
 10
503.624
 20
495.650
 30
0.000000
  70
    32
  0
VERTEX
  8
0
  5
3B8C
 10
503.647
 20
495.655
 30
0.000000
  70
    32
  0
VERTEX
  8
0
  5
3B8D
 10
503.669
 20
495.661
 30
0.000000
  70
    32
  0
VERTEX
  8
0
  5
3B8E
 10
503.692
 20
495.666
 30
0.000000
  70
    32
  0
VERTEX
  8
0
  5
3B8F
 10
503.714
 20
495.672
 30
0.000000
  70
    32
  0
VERTEX
  8
0
  5
3B90
 10
503.737
 20
495.677
 30
0.000000
  70
    32
  0
SEQEND
  8
0
  5
3B91
  0
LINE
  5
3876
  8
0
 10
498.436954516409
 20
490.42429154967101
 30
0.0
 11
498.436954516409
 21
495.67706754967088
 31
0.0
  0
LINE
  5
3877
  8
0
 10
510.33695451640909
 20
493.89929154967109
 30
0.0
 11
510.33695451640909
 21
495.67706754967088
 31
0.0
  0
LINE
  5
3878
  8
0
 10
510.33695451640909
 20
494.19929154967099
 30
0.0
 11
518.33695451640915
 21
494.19929154967099
 31
0.0
  0
LINE
  5
3879
  8
0
 10
510.33695451640909
 20
493.89929154967109
 30
0.0
 11
518.33695451640915
 21
493.89929154967109
 31
0.0
  0
ARC
  5
387A
  8
0
 10
493.13695451640928
 20
509.49929154967089
 30
0.0
 40
2.5
 50
0.0
 51
180.0
  0
ARC
  5
387B
  8
0
 10
493.13695451640928
 20
506.69929154967099
 30
0.0
 40
2.5
 50
180.0
 51
0.0
  0
LINE
  5
387C
  8
0
 10
490.63695451640928
 20
506.69929154967099
 30
0.0
 11
490.63695451640928
 21
509.49929154967089
 31
0.0
  0
LINE
  5
387D
  8
2
 10
494.58695451640909
 20
504.09929154967102
 30
0.0
 11
494.58695451640909
 21
504.66275036422928
 31
0.0
  0
LINE
  5
387E
  8
0
 10
495.63695451640928
 20
506.69929154967099
 30
0.0
 11
495.63695451640928
 21
509.49929154967089
 31
0.0
  0
LINE
  5
387F
  8
2
 10
494.58695451640909
 20
512.09929154967097
 30
0.0
 11
504.58695451640909
 21
512.09929154967097
 31
0.0
  0
LINE
  5
3880
  8
2
 10
494.58695451640909
 20
504.09929154967102
 30
0.0
 11
504.58695451640909
 21
504.09929154967102
 31
0.0
  0
LINE
  5
3881
  8
0
 10
500.73695451640918
 20
522.39275254967094
 30
0.0
 11
500.73695451640918
 21
522.89275254967094
 31
0.0
  0
LINE
  5
3882
  8
0
 10
510.33695451640909
 20
522.29929154967101
 30
0.0
 11
518.33695451640915
 21
522.29929154967101
 31
0.0
  0
LINE
  5
3883
  8
0
 10
510.33695451640909
 20
521.99929154967094
 30
0.0
 11
518.33695451640915
 21
521.99929154967094
 31
0.0
  0
LINE
  5
3884
  8
0
 10
518.33695451640915
 20
522.29929154967101
 30
0.0
 11
518.33695451640915
 21
520.52151454967111
 31
0.0
  0
LINE
  5
3885
  8
0
 10
510.33695451640909
 20
522.29929154967101
 30
0.0
 11
510.33695451640909
 21
520.52151454967111
 31
0.0
  0
POLYLINE
  8
0
  5
3B92
  66
     1
 10
0.000000
 20
0.000000
 30
0.000000
  70
     8
  0
VERTEX
  8
0
  5
3B93
 10
500.737
 20
522.393
 30
0.000000
  70
    32
  0
VERTEX
  8
0
  5
3B94
 10
500.752
 20
522.375
 30
0.000000
  70
    32
  0
VERTEX
  8
0
  5
3B95
 10
500.768
 20
522.358
 30
0.000000
  70
    32
  0
VERTEX
  8
0
  5
3B96
 10
500.783
 20
522.340
 30
0.000000
  70
    32
  0
VERTEX
  8
0
  5
3B97
 10
500.799
 20
522.322
 30
0.000000
  70
    32
  0
VERTEX
  8
0
  5
3B98
 10
500.814
 20
522.305
 30
0.000000
  70
    32
  0
VERTEX
  8
0
  5
3B99
 10
500.830
 20
522.287
 30
0.000000
  70
    32
  0
VERTEX
  8
0
  5
3B9A
 10
500.845
 20
522.269
 30
0.000000
  70
    32
  0
VERTEX
  8
0
  5
3B9B
 10
500.860
 20
522.252
 30
0.000000
  70
    32
  0
VERTEX
  8
0
  5
3B9C
 10
500.876
 20
522.234
 30
0.000000
  70
    32
  0
VERTEX
  8
0
  5
3B9D
 10
500.891
 20
522.217
 30
0.000000
  70
    32
  0
VERTEX
  8
0
  5
3B9E
 10
500.907
 20
522.199
 30
0.000000
  70
    32
  0
VERTEX
  8
0
  5
3B9F
 10
500.922
 20
522.182
 30
0.000000
  70
    32
  0
VERTEX
  8
0
  5
3BA0
 10
500.938
 20
522.164
 30
0.000000
  70
    32
  0
VERTEX
  8
0
  5
3BA1
 10
500.953
 20
522.147
 30
0.000000
  70
    32
  0
VERTEX
  8
0
  5
3BA2
 10
500.969
 20
522.129
 30
0.000000
  70
    32
  0
VERTEX
  8
0
  5
3BA3
 10
500.984
 20
522.112
 30
0.000000
  70
    32
  0
VERTEX
  8
0
  5
3BA4
 10
501.000
 20
522.095
 30
0.000000
  70
    32
  0
VERTEX
  8
0
  5
3BA5
 10
501.016
 20
522.077
 30
0.000000
  70
    32
  0
VERTEX
  8
0
  5
3BA6
 10
501.031
 20
522.060
 30
0.000000
  70
    32
  0
VERTEX
  8
0
  5
3BA7
 10
501.047
 20
522.043
 30
0.000000
  70
    32
  0
VERTEX
  8
0
  5
3BA8
 10
501.062
 20
522.025
 30
0.000000
  70
    32
  0
VERTEX
  8
0
  5
3BA9
 10
501.078
 20
522.008
 30
0.000000
  70
    32
  0
VERTEX
  8
0
  5
3BAA
 10
501.094
 20
521.991
 30
0.000000
  70
    32
  0
VERTEX
  8
0
  5
3BAB
 10
501.110
 20
521.974
 30
0.000000
  70
    32
  0
VERTEX
  8
0
  5
3BAC
 10
501.125
 20
521.957
 30
0.000000
  70
    32
  0
VERTEX
  8
0
  5
3BAD
 10
501.141
 20
521.940
 30
0.000000
  70
    32
  0
VERTEX
  8
0
  5
3BAE
 10
501.157
 20
521.923
 30
0.000000
  70
    32
  0
VERTEX
  8
0
  5
3BAF
 10
501.173
 20
521.906
 30
0.000000
  70
    32
  0
VERTEX
  8
0
  5
3BB0
 10
501.188
 20
521.889
 30
0.000000
  70
    32
  0
VERTEX
  8
0
  5
3BB1
 10
501.204
 20
521.872
 30
0.000000
  70
    32
  0
VERTEX
  8
0
  5
3BB2
 10
501.220
 20
521.855
 30
0.000000
  70
    32
  0
VERTEX
  8
0
  5
3BB3
 10
501.236
 20
521.838
 30
0.000000
  70
    32
  0
VERTEX
  8
0
  5
3BB4
 10
501.252
 20
521.821
 30
0.000000
  70
    32
  0
VERTEX
  8
0
  5
3BB5
 10
501.268
 20
521.805
 30
0.000000
  70
    32
  0
VERTEX
  8
0
  5
3BB6
 10
501.284
 20
521.788
 30
0.000000
  70
    32
  0
VERTEX
  8
0
  5
3BB7
 10
501.300
 20
521.772
 30
0.000000
  70
    32
  0
VERTEX
  8
0
  5
3BB8
 10
501.316
 20
521.755
 30
0.000000
  70
    32
  0
VERTEX
  8
0
  5
3BB9
 10
501.332
 20
521.739
 30
0.000000
  70
    32
  0
VERTEX
  8
0
  5
3BBA
 10
501.349
 20
521.722
 30
0.000000
  70
    32
  0
VERTEX
  8
0
  5
3BBB
 10
501.365
 20
521.706
 30
0.000000
  70
    32
  0
VERTEX
  8
0
  5
3BBC
 10
501.381
 20
521.690
 30
0.000000
  70
    32
  0
VERTEX
  8
0
  5
3BBD
 10
501.397
 20
521.674
 30
0.000000
  70
    32
  0
VERTEX
  8
0
  5
3BBE
 10
501.414
 20
521.658
 30
0.000000
  70
    32
  0
VERTEX
  8
0
  5
3BBF
 10
501.430
 20
521.642
 30
0.000000
  70
    32
  0
VERTEX
  8
0
  5
3BC0
 10
501.447
 20
521.626
 30
0.000000
  70
    32
  0
VERTEX
  8
0
  5
3BC1
 10
501.463
 20
521.610
 30
0.000000
  70
    32
  0
VERTEX
  8
0
  5
3BC2
 10
501.480
 20
521.594
 30
0.000000
  70
    32
  0
VERTEX
  8
0
  5
3BC3
 10
501.496
 20
521.578
 30
0.000000
  70
    32
  0
VERTEX
  8
0
  5
3BC4
 10
501.513
 20
521.563
 30
0.000000
  70
    32
  0
VERTEX
  8
0
  5
3BC5
 10
501.529
 20
521.547
 30
0.000000
  70
    32
  0
VERTEX
  8
0
  5
3BC6
 10
501.546
 20
521.532
 30
0.000000
  70
    32
  0
VERTEX
  8
0
  5
3BC7
 10
501.563
 20
521.517
 30
0.000000
  70
    32
  0
VERTEX
  8
0
  5
3BC8
 10
501.580
 20
521.501
 30
0.000000
  70
    32
  0
VERTEX
  8
0
  5
3BC9
 10
501.597
 20
521.486
 30
0.000000
  70
    32
  0
VERTEX
  8
0
  5
3BCA
 10
501.613
 20
521.471
 30
0.000000
  70
    32
  0
VERTEX
  8
0
  5
3BCB
 10
501.630
 20
521.456
 30
0.000000
  70
    32
  0
VERTEX
  8
0
  5
3BCC
 10
501.647
 20
521.441
 30
0.000000
  70
    32
  0
VERTEX
  8
0
  5
3BCD
 10
501.665
 20
521.426
 30
0.000000
  70
    32
  0
VERTEX
  8
0
  5
3BCE
 10
501.682
 20
521.412
 30
0.000000
  70
    32
  0
VERTEX
  8
0
  5
3BCF
 10
501.699
 20
521.397
 30
0.000000
  70
    32
  0
VERTEX
  8
0
  5
3BD0
 10
501.716
 20
521.383
 30
0.000000
  70
    32
  0
VERTEX
  8
0
  5
3BD1
 10
501.734
 20
521.368
 30
0.000000
  70
    32
  0
VERTEX
  8
0
  5
3BD2
 10
501.751
 20
521.354
 30
0.000000
  70
    32
  0
VERTEX
  8
0
  5
3BD3
 10
501.768
 20
521.340
 30
0.000000
  70
    32
  0
VERTEX
  8
0
  5
3BD4
 10
501.786
 20
521.326
 30
0.000000
  70
    32
  0
VERTEX
  8
0
  5
3BD5
 10
501.804
 20
521.312
 30
0.000000
  70
    32
  0
VERTEX
  8
0
  5
3BD6
 10
501.821
 20
521.298
 30
0.000000
  70
    32
  0
VERTEX
  8
0
  5
3BD7
 10
501.839
 20
521.284
 30
0.000000
  70
    32
  0
VERTEX
  8
0
  5
3BD8
 10
501.857
 20
521.271
 30
0.000000
  70
    32
  0
VERTEX
  8
0
  5
3BD9
 10
501.875
 20
521.257
 30
0.000000
  70
    32
  0
VERTEX
  8
0
  5
3BDA
 10
501.893
 20
521.244
 30
0.000000
  70
    32
  0
VERTEX
  8
0
  5
3BDB
 10
501.911
 20
521.231
 30
0.000000
  70
    32
  0
VERTEX
  8
0
  5
3BDC
 10
501.929
 20
521.218
 30
0.000000
  70
    32
  0
VERTEX
  8
0
  5
3BDD
 10
501.947
 20
521.205
 30
0.000000
  70
    32
  0
VERTEX
  8
0
  5
3BDE
 10
501.965
 20
521.192
 30
0.000000
  70
    32
  0
VERTEX
  8
0
  5
3BDF
 10
501.983
 20
521.179
 30
0.000000
  70
    32
  0
VERTEX
  8
0
  5
3BE0
 10
502.002
 20
521.166
 30
0.000000
  70
    32
  0
VERTEX
  8
0
  5
3BE1
 10
502.020
 20
521.154
 30
0.000000
  70
    32
  0
VERTEX
  8
0
  5
3BE2
 10
502.039
 20
521.142
 30
0.000000
  70
    32
  0
VERTEX
  8
0
  5
3BE3
 10
502.057
 20
521.129
 30
0.000000
  70
    32
  0
VERTEX
  8
0
  5
3BE4
 10
502.076
 20
521.117
 30
0.000000
  70
    32
  0
VERTEX
  8
0
  5
3BE5
 10
502.095
 20
521.105
 30
0.000000
  70
    32
  0
VERTEX
  8
0
  5
3BE6
 10
502.114
 20
521.094
 30
0.000000
  70
    32
  0
VERTEX
  8
0
  5
3BE7
 10
502.133
 20
521.082
 30
0.000000
  70
    32
  0
VERTEX
  8
0
  5
3BE8
 10
502.152
 20
521.071
 30
0.000000
  70
    32
  0
VERTEX
  8
0
  5
3BE9
 10
502.171
 20
521.059
 30
0.000000
  70
    32
  0
VERTEX
  8
0
  5
3BEA
 10
502.190
 20
521.048
 30
0.000000
  70
    32
  0
VERTEX
  8
0
  5
3BEB
 10
502.209
 20
521.037
 30
0.000000
  70
    32
  0
VERTEX
  8
0
  5
3BEC
 10
502.229
 20
521.026
 30
0.000000
  70
    32
  0
VERTEX
  8
0
  5
3BED
 10
502.248
 20
521.015
 30
0.000000
  70
    32
  0
VERTEX
  8
0
  5
3BEE
 10
502.268
 20
521.005
 30
0.000000
  70
    32
  0
VERTEX
  8
0
  5
3BEF
 10
502.287
 20
520.994
 30
0.000000
  70
    32
  0
VERTEX
  8
0
  5
3BF0
 10
502.307
 20
520.984
 30
0.000000
  70
    32
  0
VERTEX
  8
0
  5
3BF1
 10
502.327
 20
520.974
 30
0.000000
  70
    32
  0
VERTEX
  8
0
  5
3BF2
 10
502.347
 20
520.964
 30
0.000000
  70
    32
  0
VERTEX
  8
0
  5
3BF3
 10
502.367
 20
520.954
 30
0.000000
  70
    32
  0
VERTEX
  8
0
  5
3BF4
 10
502.387
 20
520.944
 30
0.000000
  70
    32
  0
VERTEX
  8
0
  5
3BF5
 10
502.407
 20
520.935
 30
0.000000
  70
    32
  0
VERTEX
  8
0
  5
3BF6
 10
502.427
 20
520.925
 30
0.000000
  70
    32
  0
VERTEX
  8
0
  5
3BF7
 10
502.448
 20
520.916
 30
0.000000
  70
    32
  0
VERTEX
  8
0
  5
3BF8
 10
502.468
 20
520.907
 30
0.000000
  70
    32
  0
VERTEX
  8
0
  5
3BF9
 10
502.488
 20
520.898
 30
0.000000
  70
    32
  0
VERTEX
  8
0
  5
3BFA
 10
502.509
 20
520.889
 30
0.000000
  70
    32
  0
VERTEX
  8
0
  5
3BFB
 10
502.530
 20
520.880
 30
0.000000
  70
    32
  0
VERTEX
  8
0
  5
3BFC
 10
502.550
 20
520.871
 30
0.000000
  70
    32
  0
VERTEX
  8
0
  5
3BFD
 10
502.571
 20
520.863
 30
0.000000
  70
    32
  0
VERTEX
  8
0
  5
3BFE
 10
502.592
 20
520.854
 30
0.000000
  70
    32
  0
VERTEX
  8
0
  5
3BFF
 10
502.613
 20
520.846
 30
0.000000
  70
    32
  0
VERTEX
  8
0
  5
3C00
 10
502.634
 20
520.838
 30
0.000000
  70
    32
  0
VERTEX
  8
0
  5
3C01
 10
502.655
 20
520.830
 30
0.000000
  70
    32
  0
VERTEX
  8
0
  5
3C02
 10
502.676
 20
520.822
 30
0.000000
  70
    32
  0
VERTEX
  8
0
  5
3C03
 10
502.697
 20
520.814
 30
0.000000
  70
    32
  0
VERTEX
  8
0
  5
3C04
 10
502.718
 20
520.806
 30
0.000000
  70
    32
  0
VERTEX
  8
0
  5
3C05
 10
502.739
 20
520.798
 30
0.000000
  70
    32
  0
VERTEX
  8
0
  5
3C06
 10
502.761
 20
520.791
 30
0.000000
  70
    32
  0
VERTEX
  8
0
  5
3C07
 10
502.782
 20
520.783
 30
0.000000
  70
    32
  0
VERTEX
  8
0
  5
3C08
 10
502.803
 20
520.776
 30
0.000000
  70
    32
  0
VERTEX
  8
0
  5
3C09
 10
502.825
 20
520.768
 30
0.000000
  70
    32
  0
VERTEX
  8
0
  5
3C0A
 10
502.847
 20
520.761
 30
0.000000
  70
    32
  0
VERTEX
  8
0
  5
3C0B
 10
502.868
 20
520.754
 30
0.000000
  70
    32
  0
VERTEX
  8
0
  5
3C0C
 10
502.890
 20
520.747
 30
0.000000
  70
    32
  0
VERTEX
  8
0
  5
3C0D
 10
502.911
 20
520.740
 30
0.000000
  70
    32
  0
VERTEX
  8
0
  5
3C0E
 10
502.933
 20
520.733
 30
0.000000
  70
    32
  0
VERTEX
  8
0
  5
3C0F
 10
502.955
 20
520.726
 30
0.000000
  70
    32
  0
VERTEX
  8
0
  5
3C10
 10
502.977
 20
520.720
 30
0.000000
  70
    32
  0
VERTEX
  8
0
  5
3C11
 10
502.999
 20
520.713
 30
0.000000
  70
    32
  0
VERTEX
  8
0
  5
3C12
 10
503.021
 20
520.707
 30
0.000000
  70
    32
  0
VERTEX
  8
0
  5
3C13
 10
503.043
 20
520.700
 30
0.000000
  70
    32
  0
VERTEX
  8
0
  5
3C14
 10
503.065
 20
520.694
 30
0.000000
  70
    32
  0
VERTEX
  8
0
  5
3C15
 10
503.087
 20
520.687
 30
0.000000
  70
    32
  0
VERTEX
  8
0
  5
3C16
 10
503.109
 20
520.681
 30
0.000000
  70
    32
  0
VERTEX
  8
0
  5
3C17
 10
503.131
 20
520.675
 30
0.000000
  70
    32
  0
VERTEX
  8
0
  5
3C18
 10
503.153
 20
520.668
 30
0.000000
  70
    32
  0
VERTEX
  8
0
  5
3C19
 10
503.175
 20
520.662
 30
0.000000
  70
    32
  0
VERTEX
  8
0
  5
3C1A
 10
503.197
 20
520.656
 30
0.000000
  70
    32
  0
VERTEX
  8
0
  5
3C1B
 10
503.220
 20
520.650
 30
0.000000
  70
    32
  0
VERTEX
  8
0
  5
3C1C
 10
503.242
 20
520.644
 30
0.000000
  70
    32
  0
VERTEX
  8
0
  5
3C1D
 10
503.264
 20
520.638
 30
0.000000
  70
    32
  0
VERTEX
  8
0
  5
3C1E
 10
503.287
 20
520.633
 30
0.000000
  70
    32
  0
VERTEX
  8
0
  5
3C1F
 10
503.309
 20
520.627
 30
0.000000
  70
    32
  0
VERTEX
  8
0
  5
3C20
 10
503.331
 20
520.621
 30
0.000000
  70
    32
  0
VERTEX
  8
0
  5
3C21
 10
503.354
 20
520.615
 30
0.000000
  70
    32
  0
VERTEX
  8
0
  5
3C22
 10
503.376
 20
520.609
 30
0.000000
  70
    32
  0
VERTEX
  8
0
  5
3C23
 10
503.399
 20
520.604
 30
0.000000
  70
    32
  0
VERTEX
  8
0
  5
3C24
 10
503.421
 20
520.598
 30
0.000000
  70
    32
  0
VERTEX
  8
0
  5
3C25
 10
503.444
 20
520.593
 30
0.000000
  70
    32
  0
VERTEX
  8
0
  5
3C26
 10
503.466
 20
520.587
 30
0.000000
  70
    32
  0
VERTEX
  8
0
  5
3C27
 10
503.489
 20
520.581
 30
0.000000
  70
    32
  0
VERTEX
  8
0
  5
3C28
 10
503.511
 20
520.576
 30
0.000000
  70
    32
  0
VERTEX
  8
0
  5
3C29
 10
503.534
 20
520.570
 30
0.000000
  70
    32
  0
VERTEX
  8
0
  5
3C2A
 10
503.556
 20
520.565
 30
0.000000
  70
    32
  0
VERTEX
  8
0
  5
3C2B
 10
503.579
 20
520.559
 30
0.000000
  70
    32
  0
VERTEX
  8
0
  5
3C2C
 10
503.601
 20
520.554
 30
0.000000
  70
    32
  0
VERTEX
  8
0
  5
3C2D
 10
503.624
 20
520.549
 30
0.000000
  70
    32
  0
VERTEX
  8
0
  5
3C2E
 10
503.647
 20
520.543
 30
0.000000
  70
    32
  0
VERTEX
  8
0
  5
3C2F
 10
503.669
 20
520.538
 30
0.000000
  70
    32
  0
VERTEX
  8
0
  5
3C30
 10
503.692
 20
520.532
 30
0.000000
  70
    32
  0
VERTEX
  8
0
  5
3C31
 10
503.714
 20
520.527
 30
0.000000
  70
    32
  0
VERTEX
  8
0
  5
3C32
 10
503.737
 20
520.522
 30
0.000000
  70
    32
  0
SEQEND
  8
0
  5
3C33
  0
LINE
  5
3887
  8
0
 10
498.436954516409
 20
520.52151454967111
 30
0.0
 11
498.436954516409
 21
525.77429154967103
 31
0.0
  0
CIRCLE
  5
3888
  8
0
 10
562.88695451640933
 20
513.84929154967097
 30
0.0
 40
1.399999999999999
  0
LINE
  5
3889
  8
2
 10
570.83695451640915
 20
500.34929154967102
 30
0.0
 11
570.83695451640915
 21
515.84929154967108
 31
0.0
  0
LINE
  5
388A
  8
2
 10
534.43695451640906
 20
513.24929154967094
 30
0.0
 11
534.43695451640906
 21
517.04929154967112
 31
0.0
  0
LINE
  5
388B
  8
2
 10
532.43695451640895
 20
514.04929154967112
 30
0.0
 11
532.43695451640895
 21
516.24929154967094
 31
0.0
  0
CIRCLE
  5
388C
  8
0
 10
562.88695451640933
 20
502.34929154967102
 30
0.0
 40
1.399999999999999
  0
CIRCLE
  5
388D
  8
0
 10
558.13695451640933
 20
508.09929154967102
 30
0.0
 40
1.149999999999999
  0
CIRCLE
  5
388E
  8
0
 10
558.13695451640933
 20
508.09929154967102
 30
0.0
 40
2.25
  0
LINE
  5
388F
  8
2
 10
528.03695451640897
 20
513.24929154967094
 30
0.0
 11
534.43695451640906
 21
513.24929154967094
 31
0.0
  0
LINE
  5
3890
  8
2
 10
528.03695451640897
 20
499.14929154967109
 30
0.0
 11
534.43695451640906
 21
499.14929154967109
 31
0.0
  0
LINE
  5
3891
  8
2
 10
528.03695451640897
 20
502.94929154967099
 30
0.0
 11
534.43695451640906
 21
502.94929154967099
 31
0.0
  0
LINE
  5
3892
  8
2
 10
534.43695451640906
 20
502.94929154967099
 30
0.0
 11
534.43695451640906
 21
499.14929154967109
 31
0.0
  0
LINE
  5
3893
  8
2
 10
532.43695451640895
 20
502.14929154967098
 30
0.0
 11
532.43695451640895
 21
499.94929154967099
 31
0.0
  0
LINE
  5
3894
  8
0
 10
527.93695451640895
 20
493.80582954967099
 30
0.0
 11
527.93695451640895
 21
493.30582954967099
 31
0.0
  0
POLYLINE
  8
0
  5
3C34
  66
     1
 10
0.000000
 20
0.000000
 30
0.000000
  70
     8
  0
VERTEX
  8
0
  5
3C35
 10
527.937
 20
493.806
 30
0.000000
  70
    32
  0
VERTEX
  8
0
  5
3C36
 10
527.922
 20
493.823
 30
0.000000
  70
    32
  0
VERTEX
  8
0
  5
3C37
 10
527.906
 20
493.841
 30
0.000000
  70
    32
  0
VERTEX
  8
0
  5
3C38
 10
527.891
 20
493.859
 30
0.000000
  70
    32
  0
VERTEX
  8
0
  5
3C39
 10
527.875
 20
493.876
 30
0.000000
  70
    32
  0
VERTEX
  8
0
  5
3C3A
 10
527.860
 20
493.894
 30
0.000000
  70
    32
  0
VERTEX
  8
0
  5
3C3B
 10
527.844
 20
493.912
 30
0.000000
  70
    32
  0
VERTEX
  8
0
  5
3C3C
 10
527.829
 20
493.929
 30
0.000000
  70
    32
  0
VERTEX
  8
0
  5
3C3D
 10
527.813
 20
493.947
 30
0.000000
  70
    32
  0
VERTEX
  8
0
  5
3C3E
 10
527.798
 20
493.964
 30
0.000000
  70
    32
  0
VERTEX
  8
0
  5
3C3F
 10
527.783
 20
493.982
 30
0.000000
  70
    32
  0
VERTEX
  8
0
  5
3C40
 10
527.767
 20
493.999
 30
0.000000
  70
    32
  0
VERTEX
  8
0
  5
3C41
 10
527.752
 20
494.017
 30
0.000000
  70
    32
  0
VERTEX
  8
0
  5
3C42
 10
527.736
 20
494.034
 30
0.000000
  70
    32
  0
VERTEX
  8
0
  5
3C43
 10
527.721
 20
494.052
 30
0.000000
  70
    32
  0
VERTEX
  8
0
  5
3C44
 10
527.705
 20
494.069
 30
0.000000
  70
    32
  0
VERTEX
  8
0
  5
3C45
 10
527.689
 20
494.087
 30
0.000000
  70
    32
  0
VERTEX
  8
0
  5
3C46
 10
527.674
 20
494.104
 30
0.000000
  70
    32
  0
VERTEX
  8
0
  5
3C47
 10
527.658
 20
494.121
 30
0.000000
  70
    32
  0
VERTEX
  8
0
  5
3C48
 10
527.643
 20
494.139
 30
0.000000
  70
    32
  0
VERTEX
  8
0
  5
3C49
 10
527.627
 20
494.156
 30
0.000000
  70
    32
  0
VERTEX
  8
0
  5
3C4A
 10
527.611
 20
494.173
 30
0.000000
  70
    32
  0
VERTEX
  8
0
  5
3C4B
 10
527.596
 20
494.191
 30
0.000000
  70
    32
  0
VERTEX
  8
0
  5
3C4C
 10
527.580
 20
494.208
 30
0.000000
  70
    32
  0
VERTEX
  8
0
  5
3C4D
 10
527.564
 20
494.225
 30
0.000000
  70
    32
  0
VERTEX
  8
0
  5
3C4E
 10
527.549
 20
494.242
 30
0.000000
  70
    32
  0
VERTEX
  8
0
  5
3C4F
 10
527.533
 20
494.259
 30
0.000000
  70
    32
  0
VERTEX
  8
0
  5
3C50
 10
527.517
 20
494.276
 30
0.000000
  70
    32
  0
VERTEX
  8
0
  5
3C51
 10
527.501
 20
494.293
 30
0.000000
  70
    32
  0
VERTEX
  8
0
  5
3C52
 10
527.485
 20
494.310
 30
0.000000
  70
    32
  0
VERTEX
  8
0
  5
3C53
 10
527.470
 20
494.327
 30
0.000000
  70
    32
  0
VERTEX
  8
0
  5
3C54
 10
527.454
 20
494.344
 30
0.000000
  70
    32
  0
VERTEX
  8
0
  5
3C55
 10
527.438
 20
494.360
 30
0.000000
  70
    32
  0
VERTEX
  8
0
  5
3C56
 10
527.422
 20
494.377
 30
0.000000
  70
    32
  0
VERTEX
  8
0
  5
3C57
 10
527.406
 20
494.394
 30
0.000000
  70
    32
  0
VERTEX
  8
0
  5
3C58
 10
527.390
 20
494.410
 30
0.000000
  70
    32
  0
VERTEX
  8
0
  5
3C59
 10
527.374
 20
494.427
 30
0.000000
  70
    32
  0
VERTEX
  8
0
  5
3C5A
 10
527.358
 20
494.443
 30
0.000000
  70
    32
  0
VERTEX
  8
0
  5
3C5B
 10
527.341
 20
494.460
 30
0.000000
  70
    32
  0
VERTEX
  8
0
  5
3C5C
 10
527.325
 20
494.476
 30
0.000000
  70
    32
  0
VERTEX
  8
0
  5
3C5D
 10
527.309
 20
494.492
 30
0.000000
  70
    32
  0
VERTEX
  8
0
  5
3C5E
 10
527.293
 20
494.509
 30
0.000000
  70
    32
  0
VERTEX
  8
0
  5
3C5F
 10
527.277
 20
494.525
 30
0.000000
  70
    32
  0
VERTEX
  8
0
  5
3C60
 10
527.260
 20
494.541
 30
0.000000
  70
    32
  0
VERTEX
  8
0
  5
3C61
 10
527.244
 20
494.557
 30
0.000000
  70
    32
  0
VERTEX
  8
0
  5
3C62
 10
527.227
 20
494.573
 30
0.000000
  70
    32
  0
VERTEX
  8
0
  5
3C63
 10
527.211
 20
494.589
 30
0.000000
  70
    32
  0
VERTEX
  8
0
  5
3C64
 10
527.194
 20
494.604
 30
0.000000
  70
    32
  0
VERTEX
  8
0
  5
3C65
 10
527.178
 20
494.620
 30
0.000000
  70
    32
  0
VERTEX
  8
0
  5
3C66
 10
527.161
 20
494.636
 30
0.000000
  70
    32
  0
VERTEX
  8
0
  5
3C67
 10
527.145
 20
494.651
 30
0.000000
  70
    32
  0
VERTEX
  8
0
  5
3C68
 10
527.128
 20
494.667
 30
0.000000
  70
    32
  0
VERTEX
  8
0
  5
3C69
 10
527.111
 20
494.682
 30
0.000000
  70
    32
  0
VERTEX
  8
0
  5
3C6A
 10
527.094
 20
494.697
 30
0.000000
  70
    32
  0
VERTEX
  8
0
  5
3C6B
 10
527.077
 20
494.712
 30
0.000000
  70
    32
  0
VERTEX
  8
0
  5
3C6C
 10
527.060
 20
494.728
 30
0.000000
  70
    32
  0
VERTEX
  8
0
  5
3C6D
 10
527.043
 20
494.743
 30
0.000000
  70
    32
  0
VERTEX
  8
0
  5
3C6E
 10
527.026
 20
494.757
 30
0.000000
  70
    32
  0
VERTEX
  8
0
  5
3C6F
 10
527.009
 20
494.772
 30
0.000000
  70
    32
  0
VERTEX
  8
0
  5
3C70
 10
526.992
 20
494.787
 30
0.000000
  70
    32
  0
VERTEX
  8
0
  5
3C71
 10
526.975
 20
494.801
 30
0.000000
  70
    32
  0
VERTEX
  8
0
  5
3C72
 10
526.958
 20
494.816
 30
0.000000
  70
    32
  0
VERTEX
  8
0
  5
3C73
 10
526.940
 20
494.830
 30
0.000000
  70
    32
  0
VERTEX
  8
0
  5
3C74
 10
526.923
 20
494.845
 30
0.000000
  70
    32
  0
VERTEX
  8
0
  5
3C75
 10
526.905
 20
494.859
 30
0.000000
  70
    32
  0
VERTEX
  8
0
  5
3C76
 10
526.888
 20
494.873
 30
0.000000
  70
    32
  0
VERTEX
  8
0
  5
3C77
 10
526.870
 20
494.887
 30
0.000000
  70
    32
  0
VERTEX
  8
0
  5
3C78
 10
526.853
 20
494.901
 30
0.000000
  70
    32
  0
VERTEX
  8
0
  5
3C79
 10
526.835
 20
494.914
 30
0.000000
  70
    32
  0
VERTEX
  8
0
  5
3C7A
 10
526.817
 20
494.928
 30
0.000000
  70
    32
  0
VERTEX
  8
0
  5
3C7B
 10
526.799
 20
494.941
 30
0.000000
  70
    32
  0
VERTEX
  8
0
  5
3C7C
 10
526.781
 20
494.955
 30
0.000000
  70
    32
  0
VERTEX
  8
0
  5
3C7D
 10
526.763
 20
494.968
 30
0.000000
  70
    32
  0
VERTEX
  8
0
  5
3C7E
 10
526.745
 20
494.981
 30
0.000000
  70
    32
  0
VERTEX
  8
0
  5
3C7F
 10
526.727
 20
494.994
 30
0.000000
  70
    32
  0
VERTEX
  8
0
  5
3C80
 10
526.709
 20
495.007
 30
0.000000
  70
    32
  0
VERTEX
  8
0
  5
3C81
 10
526.691
 20
495.020
 30
0.000000
  70
    32
  0
VERTEX
  8
0
  5
3C82
 10
526.672
 20
495.032
 30
0.000000
  70
    32
  0
VERTEX
  8
0
  5
3C83
 10
526.654
 20
495.045
 30
0.000000
  70
    32
  0
VERTEX
  8
0
  5
3C84
 10
526.635
 20
495.057
 30
0.000000
  70
    32
  0
VERTEX
  8
0
  5
3C85
 10
526.617
 20
495.069
 30
0.000000
  70
    32
  0
VERTEX
  8
0
  5
3C86
 10
526.598
 20
495.081
 30
0.000000
  70
    32
  0
VERTEX
  8
0
  5
3C87
 10
526.579
 20
495.093
 30
0.000000
  70
    32
  0
VERTEX
  8
0
  5
3C88
 10
526.560
 20
495.105
 30
0.000000
  70
    32
  0
VERTEX
  8
0
  5
3C89
 10
526.541
 20
495.117
 30
0.000000
  70
    32
  0
VERTEX
  8
0
  5
3C8A
 10
526.522
 20
495.128
 30
0.000000
  70
    32
  0
VERTEX
  8
0
  5
3C8B
 10
526.503
 20
495.139
 30
0.000000
  70
    32
  0
VERTEX
  8
0
  5
3C8C
 10
526.484
 20
495.151
 30
0.000000
  70
    32
  0
VERTEX
  8
0
  5
3C8D
 10
526.465
 20
495.162
 30
0.000000
  70
    32
  0
VERTEX
  8
0
  5
3C8E
 10
526.445
 20
495.172
 30
0.000000
  70
    32
  0
VERTEX
  8
0
  5
3C8F
 10
526.426
 20
495.183
 30
0.000000
  70
    32
  0
VERTEX
  8
0
  5
3C90
 10
526.406
 20
495.194
 30
0.000000
  70
    32
  0
VERTEX
  8
0
  5
3C91
 10
526.387
 20
495.204
 30
0.000000
  70
    32
  0
VERTEX
  8
0
  5
3C92
 10
526.367
 20
495.215
 30
0.000000
  70
    32
  0
VERTEX
  8
0
  5
3C93
 10
526.347
 20
495.225
 30
0.000000
  70
    32
  0
VERTEX
  8
0
  5
3C94
 10
526.327
 20
495.235
 30
0.000000
  70
    32
  0
VERTEX
  8
0
  5
3C95
 10
526.307
 20
495.245
 30
0.000000
  70
    32
  0
VERTEX
  8
0
  5
3C96
 10
526.287
 20
495.254
 30
0.000000
  70
    32
  0
VERTEX
  8
0
  5
3C97
 10
526.267
 20
495.264
 30
0.000000
  70
    32
  0
VERTEX
  8
0
  5
3C98
 10
526.247
 20
495.273
 30
0.000000
  70
    32
  0
VERTEX
  8
0
  5
3C99
 10
526.226
 20
495.283
 30
0.000000
  70
    32
  0
VERTEX
  8
0
  5
3C9A
 10
526.206
 20
495.292
 30
0.000000
  70
    32
  0
VERTEX
  8
0
  5
3C9B
 10
526.185
 20
495.301
 30
0.000000
  70
    32
  0
VERTEX
  8
0
  5
3C9C
 10
526.165
 20
495.310
 30
0.000000
  70
    32
  0
VERTEX
  8
0
  5
3C9D
 10
526.144
 20
495.319
 30
0.000000
  70
    32
  0
VERTEX
  8
0
  5
3C9E
 10
526.124
 20
495.327
 30
0.000000
  70
    32
  0
VERTEX
  8
0
  5
3C9F
 10
526.103
 20
495.336
 30
0.000000
  70
    32
  0
VERTEX
  8
0
  5
3CA0
 10
526.082
 20
495.344
 30
0.000000
  70
    32
  0
VERTEX
  8
0
  5
3CA1
 10
526.061
 20
495.353
 30
0.000000
  70
    32
  0
VERTEX
  8
0
  5
3CA2
 10
526.040
 20
495.361
 30
0.000000
  70
    32
  0
VERTEX
  8
0
  5
3CA3
 10
526.019
 20
495.369
 30
0.000000
  70
    32
  0
VERTEX
  8
0
  5
3CA4
 10
525.998
 20
495.377
 30
0.000000
  70
    32
  0
VERTEX
  8
0
  5
3CA5
 10
525.977
 20
495.385
 30
0.000000
  70
    32
  0
VERTEX
  8
0
  5
3CA6
 10
525.956
 20
495.393
 30
0.000000
  70
    32
  0
VERTEX
  8
0
  5
3CA7
 10
525.935
 20
495.400
 30
0.000000
  70
    32
  0
VERTEX
  8
0
  5
3CA8
 10
525.913
 20
495.408
 30
0.000000
  70
    32
  0
VERTEX
  8
0
  5
3CA9
 10
525.892
 20
495.415
 30
0.000000
  70
    32
  0
VERTEX
  8
0
  5
3CAA
 10
525.870
 20
495.423
 30
0.000000
  70
    32
  0
VERTEX
  8
0
  5
3CAB
 10
525.849
 20
495.430
 30
0.000000
  70
    32
  0
VERTEX
  8
0
  5
3CAC
 10
525.827
 20
495.437
 30
0.000000
  70
    32
  0
VERTEX
  8
0
  5
3CAD
 10
525.806
 20
495.444
 30
0.000000
  70
    32
  0
VERTEX
  8
0
  5
3CAE
 10
525.784
 20
495.452
 30
0.000000
  70
    32
  0
VERTEX
  8
0
  5
3CAF
 10
525.762
 20
495.458
 30
0.000000
  70
    32
  0
VERTEX
  8
0
  5
3CB0
 10
525.741
 20
495.465
 30
0.000000
  70
    32
  0
VERTEX
  8
0
  5
3CB1
 10
525.719
 20
495.472
 30
0.000000
  70
    32
  0
VERTEX
  8
0
  5
3CB2
 10
525.697
 20
495.479
 30
0.000000
  70
    32
  0
VERTEX
  8
0
  5
3CB3
 10
525.675
 20
495.485
 30
0.000000
  70
    32
  0
VERTEX
  8
0
  5
3CB4
 10
525.653
 20
495.492
 30
0.000000
  70
    32
  0
VERTEX
  8
0
  5
3CB5
 10
525.631
 20
495.499
 30
0.000000
  70
    32
  0
VERTEX
  8
0
  5
3CB6
 10
525.609
 20
495.505
 30
0.000000
  70
    32
  0
VERTEX
  8
0
  5
3CB7
 10
525.587
 20
495.511
 30
0.000000
  70
    32
  0
VERTEX
  8
0
  5
3CB8
 10
525.565
 20
495.518
 30
0.000000
  70
    32
  0
VERTEX
  8
0
  5
3CB9
 10
525.543
 20
495.524
 30
0.000000
  70
    32
  0
VERTEX
  8
0
  5
3CBA
 10
525.521
 20
495.530
 30
0.000000
  70
    32
  0
VERTEX
  8
0
  5
3CBB
 10
525.499
 20
495.536
 30
0.000000
  70
    32
  0
VERTEX
  8
0
  5
3CBC
 10
525.477
 20
495.542
 30
0.000000
  70
    32
  0
VERTEX
  8
0
  5
3CBD
 10
525.454
 20
495.548
 30
0.000000
  70
    32
  0
VERTEX
  8
0
  5
3CBE
 10
525.432
 20
495.554
 30
0.000000
  70
    32
  0
VERTEX
  8
0
  5
3CBF
 10
525.410
 20
495.560
 30
0.000000
  70
    32
  0
VERTEX
  8
0
  5
3CC0
 10
525.387
 20
495.566
 30
0.000000
  70
    32
  0
VERTEX
  8
0
  5
3CC1
 10
525.365
 20
495.572
 30
0.000000
  70
    32
  0
VERTEX
  8
0
  5
3CC2
 10
525.343
 20
495.578
 30
0.000000
  70
    32
  0
VERTEX
  8
0
  5
3CC3
 10
525.320
 20
495.583
 30
0.000000
  70
    32
  0
VERTEX
  8
0
  5
3CC4
 10
525.298
 20
495.589
 30
0.000000
  70
    32
  0
VERTEX
  8
0
  5
3CC5
 10
525.275
 20
495.595
 30
0.000000
  70
    32
  0
VERTEX
  8
0
  5
3CC6
 10
525.253
 20
495.600
 30
0.000000
  70
    32
  0
VERTEX
  8
0
  5
3CC7
 10
525.230
 20
495.606
 30
0.000000
  70
    32
  0
VERTEX
  8
0
  5
3CC8
 10
525.208
 20
495.612
 30
0.000000
  70
    32
  0
VERTEX
  8
0
  5
3CC9
 10
525.185
 20
495.617
 30
0.000000
  70
    32
  0
VERTEX
  8
0
  5
3CCA
 10
525.163
 20
495.623
 30
0.000000
  70
    32
  0
VERTEX
  8
0
  5
3CCB
 10
525.140
 20
495.628
 30
0.000000
  70
    32
  0
VERTEX
  8
0
  5
3CCC
 10
525.118
 20
495.634
 30
0.000000
  70
    32
  0
VERTEX
  8
0
  5
3CCD
 10
525.095
 20
495.639
 30
0.000000
  70
    32
  0
VERTEX
  8
0
  5
3CCE
 10
525.073
 20
495.645
 30
0.000000
  70
    32
  0
VERTEX
  8
0
  5
3CCF
 10
525.050
 20
495.650
 30
0.000000
  70
    32
  0
VERTEX
  8
0
  5
3CD0
 10
525.027
 20
495.655
 30
0.000000
  70
    32
  0
VERTEX
  8
0
  5
3CD1
 10
525.005
 20
495.661
 30
0.000000
  70
    32
  0
VERTEX
  8
0
  5
3CD2
 10
524.982
 20
495.666
 30
0.000000
  70
    32
  0
VERTEX
  8
0
  5
3CD3
 10
524.960
 20
495.672
 30
0.000000
  70
    32
  0
VERTEX
  8
0
  5
3CD4
 10
524.937
 20
495.677
 30
0.000000
  70
    32
  0
SEQEND
  8
0
  5
3CD5
  0
CIRCLE
  5
3896
  8
0
 10
567.63695451640933
 20
508.09929154967102
 30
0.0
 40
1.149999999999999
  0
CIRCLE
  5
3897
  8
0
 10
567.63695451640933
 20
508.09929154967102
 30
0.0
 40
2.25
  0
LINE
  5
3899
  8
0
 10
527.93695451640895
 20
522.39275254967094
 30
0.0
 11
527.93695451640895
 21
522.89275254967094
 31
0.0
  0
LINE
  5
389A
  8
2
 10
528.03695451640897
 20
517.04929154967112
 30
0.0
 11
534.43695451640906
 21
517.04929154967112
 31
0.0
  0
POLYLINE
  8
0
  5
3CD6
  66
     1
 10
0.000000
 20
0.000000
 30
0.000000
  70
     8
  0
VERTEX
  8
0
  5
3CD7
 10
527.937
 20
522.393
 30
0.000000
  70
    32
  0
VERTEX
  8
0
  5
3CD8
 10
527.922
 20
522.375
 30
0.000000
  70
    32
  0
VERTEX
  8
0
  5
3CD9
 10
527.906
 20
522.358
 30
0.000000
  70
    32
  0
VERTEX
  8
0
  5
3CDA
 10
527.891
 20
522.340
 30
0.000000
  70
    32
  0
VERTEX
  8
0
  5
3CDB
 10
527.875
 20
522.322
 30
0.000000
  70
    32
  0
VERTEX
  8
0
  5
3CDC
 10
527.860
 20
522.305
 30
0.000000
  70
    32
  0
VERTEX
  8
0
  5
3CDD
 10
527.844
 20
522.287
 30
0.000000
  70
    32
  0
VERTEX
  8
0
  5
3CDE
 10
527.829
 20
522.269
 30
0.000000
  70
    32
  0
VERTEX
  8
0
  5
3CDF
 10
527.813
 20
522.252
 30
0.000000
  70
    32
  0
VERTEX
  8
0
  5
3CE0
 10
527.798
 20
522.234
 30
0.000000
  70
    32
  0
VERTEX
  8
0
  5
3CE1
 10
527.783
 20
522.217
 30
0.000000
  70
    32
  0
VERTEX
  8
0
  5
3CE2
 10
527.767
 20
522.199
 30
0.000000
  70
    32
  0
VERTEX
  8
0
  5
3CE3
 10
527.752
 20
522.182
 30
0.000000
  70
    32
  0
VERTEX
  8
0
  5
3CE4
 10
527.736
 20
522.164
 30
0.000000
  70
    32
  0
VERTEX
  8
0
  5
3CE5
 10
527.721
 20
522.147
 30
0.000000
  70
    32
  0
VERTEX
  8
0
  5
3CE6
 10
527.705
 20
522.129
 30
0.000000
  70
    32
  0
VERTEX
  8
0
  5
3CE7
 10
527.689
 20
522.112
 30
0.000000
  70
    32
  0
VERTEX
  8
0
  5
3CE8
 10
527.674
 20
522.095
 30
0.000000
  70
    32
  0
VERTEX
  8
0
  5
3CE9
 10
527.658
 20
522.077
 30
0.000000
  70
    32
  0
VERTEX
  8
0
  5
3CEA
 10
527.643
 20
522.060
 30
0.000000
  70
    32
  0
VERTEX
  8
0
  5
3CEB
 10
527.627
 20
522.043
 30
0.000000
  70
    32
  0
VERTEX
  8
0
  5
3CEC
 10
527.611
 20
522.025
 30
0.000000
  70
    32
  0
VERTEX
  8
0
  5
3CED
 10
527.596
 20
522.008
 30
0.000000
  70
    32
  0
VERTEX
  8
0
  5
3CEE
 10
527.580
 20
521.991
 30
0.000000
  70
    32
  0
VERTEX
  8
0
  5
3CEF
 10
527.564
 20
521.974
 30
0.000000
  70
    32
  0
VERTEX
  8
0
  5
3CF0
 10
527.549
 20
521.957
 30
0.000000
  70
    32
  0
VERTEX
  8
0
  5
3CF1
 10
527.533
 20
521.940
 30
0.000000
  70
    32
  0
VERTEX
  8
0
  5
3CF2
 10
527.517
 20
521.923
 30
0.000000
  70
    32
  0
VERTEX
  8
0
  5
3CF3
 10
527.501
 20
521.906
 30
0.000000
  70
    32
  0
VERTEX
  8
0
  5
3CF4
 10
527.485
 20
521.889
 30
0.000000
  70
    32
  0
VERTEX
  8
0
  5
3CF5
 10
527.470
 20
521.872
 30
0.000000
  70
    32
  0
VERTEX
  8
0
  5
3CF6
 10
527.454
 20
521.855
 30
0.000000
  70
    32
  0
VERTEX
  8
0
  5
3CF7
 10
527.438
 20
521.838
 30
0.000000
  70
    32
  0
VERTEX
  8
0
  5
3CF8
 10
527.422
 20
521.821
 30
0.000000
  70
    32
  0
VERTEX
  8
0
  5
3CF9
 10
527.406
 20
521.805
 30
0.000000
  70
    32
  0
VERTEX
  8
0
  5
3CFA
 10
527.390
 20
521.788
 30
0.000000
  70
    32
  0
VERTEX
  8
0
  5
3CFB
 10
527.374
 20
521.772
 30
0.000000
  70
    32
  0
VERTEX
  8
0
  5
3CFC
 10
527.358
 20
521.755
 30
0.000000
  70
    32
  0
VERTEX
  8
0
  5
3CFD
 10
527.341
 20
521.739
 30
0.000000
  70
    32
  0
VERTEX
  8
0
  5
3CFE
 10
527.325
 20
521.722
 30
0.000000
  70
    32
  0
VERTEX
  8
0
  5
3CFF
 10
527.309
 20
521.706
 30
0.000000
  70
    32
  0
VERTEX
  8
0
  5
3D00
 10
527.293
 20
521.690
 30
0.000000
  70
    32
  0
VERTEX
  8
0
  5
3D01
 10
527.277
 20
521.674
 30
0.000000
  70
    32
  0
VERTEX
  8
0
  5
3D02
 10
527.260
 20
521.658
 30
0.000000
  70
    32
  0
VERTEX
  8
0
  5
3D03
 10
527.244
 20
521.642
 30
0.000000
  70
    32
  0
VERTEX
  8
0
  5
3D04
 10
527.227
 20
521.626
 30
0.000000
  70
    32
  0
VERTEX
  8
0
  5
3D05
 10
527.211
 20
521.610
 30
0.000000
  70
    32
  0
VERTEX
  8
0
  5
3D06
 10
527.194
 20
521.594
 30
0.000000
  70
    32
  0
VERTEX
  8
0
  5
3D07
 10
527.178
 20
521.578
 30
0.000000
  70
    32
  0
VERTEX
  8
0
  5
3D08
 10
527.161
 20
521.563
 30
0.000000
  70
    32
  0
VERTEX
  8
0
  5
3D09
 10
527.145
 20
521.547
 30
0.000000
  70
    32
  0
VERTEX
  8
0
  5
3D0A
 10
527.128
 20
521.532
 30
0.000000
  70
    32
  0
VERTEX
  8
0
  5
3D0B
 10
527.111
 20
521.517
 30
0.000000
  70
    32
  0
VERTEX
  8
0
  5
3D0C
 10
527.094
 20
521.501
 30
0.000000
  70
    32
  0
VERTEX
  8
0
  5
3D0D
 10
527.077
 20
521.486
 30
0.000000
  70
    32
  0
VERTEX
  8
0
  5
3D0E
 10
527.060
 20
521.471
 30
0.000000
  70
    32
  0
VERTEX
  8
0
  5
3D0F
 10
527.043
 20
521.456
 30
0.000000
  70
    32
  0
VERTEX
  8
0
  5
3D10
 10
527.026
 20
521.441
 30
0.000000
  70
    32
  0
VERTEX
  8
0
  5
3D11
 10
527.009
 20
521.426
 30
0.000000
  70
    32
  0
VERTEX
  8
0
  5
3D12
 10
526.992
 20
521.412
 30
0.000000
  70
    32
  0
VERTEX
  8
0
  5
3D13
 10
526.975
 20
521.397
 30
0.000000
  70
    32
  0
VERTEX
  8
0
  5
3D14
 10
526.958
 20
521.383
 30
0.000000
  70
    32
  0
VERTEX
  8
0
  5
3D15
 10
526.940
 20
521.368
 30
0.000000
  70
    32
  0
VERTEX
  8
0
  5
3D16
 10
526.923
 20
521.354
 30
0.000000
  70
    32
  0
VERTEX
  8
0
  5
3D17
 10
526.905
 20
521.340
 30
0.000000
  70
    32
  0
VERTEX
  8
0
  5
3D18
 10
526.888
 20
521.326
 30
0.000000
  70
    32
  0
VERTEX
  8
0
  5
3D19
 10
526.870
 20
521.312
 30
0.000000
  70
    32
  0
VERTEX
  8
0
  5
3D1A
 10
526.853
 20
521.298
 30
0.000000
  70
    32
  0
VERTEX
  8
0
  5
3D1B
 10
526.835
 20
521.284
 30
0.000000
  70
    32
  0
VERTEX
  8
0
  5
3D1C
 10
526.817
 20
521.271
 30
0.000000
  70
    32
  0
VERTEX
  8
0
  5
3D1D
 10
526.799
 20
521.257
 30
0.000000
  70
    32
  0
VERTEX
  8
0
  5
3D1E
 10
526.781
 20
521.244
 30
0.000000
  70
    32
  0
VERTEX
  8
0
  5
3D1F
 10
526.763
 20
521.231
 30
0.000000
  70
    32
  0
VERTEX
  8
0
  5
3D20
 10
526.745
 20
521.218
 30
0.000000
  70
    32
  0
VERTEX
  8
0
  5
3D21
 10
526.727
 20
521.205
 30
0.000000
  70
    32
  0
VERTEX
  8
0
  5
3D22
 10
526.709
 20
521.192
 30
0.000000
  70
    32
  0
VERTEX
  8
0
  5
3D23
 10
526.691
 20
521.179
 30
0.000000
  70
    32
  0
VERTEX
  8
0
  5
3D24
 10
526.672
 20
521.166
 30
0.000000
  70
    32
  0
VERTEX
  8
0
  5
3D25
 10
526.654
 20
521.154
 30
0.000000
  70
    32
  0
VERTEX
  8
0
  5
3D26
 10
526.635
 20
521.142
 30
0.000000
  70
    32
  0
VERTEX
  8
0
  5
3D27
 10
526.617
 20
521.129
 30
0.000000
  70
    32
  0
VERTEX
  8
0
  5
3D28
 10
526.598
 20
521.117
 30
0.000000
  70
    32
  0
VERTEX
  8
0
  5
3D29
 10
526.579
 20
521.105
 30
0.000000
  70
    32
  0
VERTEX
  8
0
  5
3D2A
 10
526.560
 20
521.094
 30
0.000000
  70
    32
  0
VERTEX
  8
0
  5
3D2B
 10
526.541
 20
521.082
 30
0.000000
  70
    32
  0
VERTEX
  8
0
  5
3D2C
 10
526.522
 20
521.071
 30
0.000000
  70
    32
  0
VERTEX
  8
0
  5
3D2D
 10
526.503
 20
521.059
 30
0.000000
  70
    32
  0
VERTEX
  8
0
  5
3D2E
 10
526.484
 20
521.048
 30
0.000000
  70
    32
  0
VERTEX
  8
0
  5
3D2F
 10
526.465
 20
521.037
 30
0.000000
  70
    32
  0
VERTEX
  8
0
  5
3D30
 10
526.445
 20
521.026
 30
0.000000
  70
    32
  0
VERTEX
  8
0
  5
3D31
 10
526.426
 20
521.015
 30
0.000000
  70
    32
  0
VERTEX
  8
0
  5
3D32
 10
526.406
 20
521.005
 30
0.000000
  70
    32
  0
VERTEX
  8
0
  5
3D33
 10
526.387
 20
520.994
 30
0.000000
  70
    32
  0
VERTEX
  8
0
  5
3D34
 10
526.367
 20
520.984
 30
0.000000
  70
    32
  0
VERTEX
  8
0
  5
3D35
 10
526.347
 20
520.974
 30
0.000000
  70
    32
  0
VERTEX
  8
0
  5
3D36
 10
526.327
 20
520.964
 30
0.000000
  70
    32
  0
VERTEX
  8
0
  5
3D37
 10
526.307
 20
520.954
 30
0.000000
  70
    32
  0
VERTEX
  8
0
  5
3D38
 10
526.287
 20
520.944
 30
0.000000
  70
    32
  0
VERTEX
  8
0
  5
3D39
 10
526.267
 20
520.935
 30
0.000000
  70
    32
  0
VERTEX
  8
0
  5
3D3A
 10
526.247
 20
520.925
 30
0.000000
  70
    32
  0
VERTEX
  8
0
  5
3D3B
 10
526.226
 20
520.916
 30
0.000000
  70
    32
  0
VERTEX
  8
0
  5
3D3C
 10
526.206
 20
520.907
 30
0.000000
  70
    32
  0
VERTEX
  8
0
  5
3D3D
 10
526.185
 20
520.898
 30
0.000000
  70
    32
  0
VERTEX
  8
0
  5
3D3E
 10
526.165
 20
520.889
 30
0.000000
  70
    32
  0
VERTEX
  8
0
  5
3D3F
 10
526.144
 20
520.880
 30
0.000000
  70
    32
  0
VERTEX
  8
0
  5
3D40
 10
526.124
 20
520.871
 30
0.000000
  70
    32
  0
VERTEX
  8
0
  5
3D41
 10
526.103
 20
520.863
 30
0.000000
  70
    32
  0
VERTEX
  8
0
  5
3D42
 10
526.082
 20
520.854
 30
0.000000
  70
    32
  0
VERTEX
  8
0
  5
3D43
 10
526.061
 20
520.846
 30
0.000000
  70
    32
  0
VERTEX
  8
0
  5
3D44
 10
526.040
 20
520.838
 30
0.000000
  70
    32
  0
VERTEX
  8
0
  5
3D45
 10
526.019
 20
520.830
 30
0.000000
  70
    32
  0
VERTEX
  8
0
  5
3D46
 10
525.998
 20
520.822
 30
0.000000
  70
    32
  0
VERTEX
  8
0
  5
3D47
 10
525.977
 20
520.814
 30
0.000000
  70
    32
  0
VERTEX
  8
0
  5
3D48
 10
525.956
 20
520.806
 30
0.000000
  70
    32
  0
VERTEX
  8
0
  5
3D49
 10
525.935
 20
520.798
 30
0.000000
  70
    32
  0
VERTEX
  8
0
  5
3D4A
 10
525.913
 20
520.791
 30
0.000000
  70
    32
  0
VERTEX
  8
0
  5
3D4B
 10
525.892
 20
520.783
 30
0.000000
  70
    32
  0
VERTEX
  8
0
  5
3D4C
 10
525.870
 20
520.776
 30
0.000000
  70
    32
  0
VERTEX
  8
0
  5
3D4D
 10
525.849
 20
520.768
 30
0.000000
  70
    32
  0
VERTEX
  8
0
  5
3D4E
 10
525.827
 20
520.761
 30
0.000000
  70
    32
  0
VERTEX
  8
0
  5
3D4F
 10
525.806
 20
520.754
 30
0.000000
  70
    32
  0
VERTEX
  8
0
  5
3D50
 10
525.784
 20
520.747
 30
0.000000
  70
    32
  0
VERTEX
  8
0
  5
3D51
 10
525.762
 20
520.740
 30
0.000000
  70
    32
  0
VERTEX
  8
0
  5
3D52
 10
525.741
 20
520.733
 30
0.000000
  70
    32
  0
VERTEX
  8
0
  5
3D53
 10
525.719
 20
520.726
 30
0.000000
  70
    32
  0
VERTEX
  8
0
  5
3D54
 10
525.697
 20
520.720
 30
0.000000
  70
    32
  0
VERTEX
  8
0
  5
3D55
 10
525.675
 20
520.713
 30
0.000000
  70
    32
  0
VERTEX
  8
0
  5
3D56
 10
525.653
 20
520.707
 30
0.000000
  70
    32
  0
VERTEX
  8
0
  5
3D57
 10
525.631
 20
520.700
 30
0.000000
  70
    32
  0
VERTEX
  8
0
  5
3D58
 10
525.609
 20
520.694
 30
0.000000
  70
    32
  0
VERTEX
  8
0
  5
3D59
 10
525.587
 20
520.687
 30
0.000000
  70
    32
  0
VERTEX
  8
0
  5
3D5A
 10
525.565
 20
520.681
 30
0.000000
  70
    32
  0
VERTEX
  8
0
  5
3D5B
 10
525.543
 20
520.675
 30
0.000000
  70
    32
  0
VERTEX
  8
0
  5
3D5C
 10
525.521
 20
520.668
 30
0.000000
  70
    32
  0
VERTEX
  8
0
  5
3D5D
 10
525.499
 20
520.662
 30
0.000000
  70
    32
  0
VERTEX
  8
0
  5
3D5E
 10
525.477
 20
520.656
 30
0.000000
  70
    32
  0
VERTEX
  8
0
  5
3D5F
 10
525.454
 20
520.650
 30
0.000000
  70
    32
  0
VERTEX
  8
0
  5
3D60
 10
525.432
 20
520.644
 30
0.000000
  70
    32
  0
VERTEX
  8
0
  5
3D61
 10
525.410
 20
520.638
 30
0.000000
  70
    32
  0
VERTEX
  8
0
  5
3D62
 10
525.387
 20
520.633
 30
0.000000
  70
    32
  0
VERTEX
  8
0
  5
3D63
 10
525.365
 20
520.627
 30
0.000000
  70
    32
  0
VERTEX
  8
0
  5
3D64
 10
525.343
 20
520.621
 30
0.000000
  70
    32
  0
VERTEX
  8
0
  5
3D65
 10
525.320
 20
520.615
 30
0.000000
  70
    32
  0
VERTEX
  8
0
  5
3D66
 10
525.298
 20
520.609
 30
0.000000
  70
    32
  0
VERTEX
  8
0
  5
3D67
 10
525.275
 20
520.604
 30
0.000000
  70
    32
  0
VERTEX
  8
0
  5
3D68
 10
525.253
 20
520.598
 30
0.000000
  70
    32
  0
VERTEX
  8
0
  5
3D69
 10
525.230
 20
520.593
 30
0.000000
  70
    32
  0
VERTEX
  8
0
  5
3D6A
 10
525.208
 20
520.587
 30
0.000000
  70
    32
  0
VERTEX
  8
0
  5
3D6B
 10
525.185
 20
520.581
 30
0.000000
  70
    32
  0
VERTEX
  8
0
  5
3D6C
 10
525.163
 20
520.576
 30
0.000000
  70
    32
  0
VERTEX
  8
0
  5
3D6D
 10
525.140
 20
520.570
 30
0.000000
  70
    32
  0
VERTEX
  8
0
  5
3D6E
 10
525.118
 20
520.565
 30
0.000000
  70
    32
  0
VERTEX
  8
0
  5
3D6F
 10
525.095
 20
520.559
 30
0.000000
  70
    32
  0
VERTEX
  8
0
  5
3D70
 10
525.073
 20
520.554
 30
0.000000
  70
    32
  0
VERTEX
  8
0
  5
3D71
 10
525.050
 20
520.549
 30
0.000000
  70
    32
  0
VERTEX
  8
0
  5
3D72
 10
525.027
 20
520.543
 30
0.000000
  70
    32
  0
VERTEX
  8
0
  5
3D73
 10
525.005
 20
520.538
 30
0.000000
  70
    32
  0
VERTEX
  8
0
  5
3D74
 10
524.982
 20
520.532
 30
0.000000
  70
    32
  0
VERTEX
  8
0
  5
3D75
 10
524.960
 20
520.527
 30
0.000000
  70
    32
  0
VERTEX
  8
0
  5
3D76
 10
524.937
 20
520.522
 30
0.000000
  70
    32
  0
SEQEND
  8
0
  5
3D77
  0
LINE
  5
389C
  8
1
 10
673.43695451640895
 20
495.67706754967088
 30
0.0
 11
673.43695451640895
 21
520.52151454967111
 31
0.0
  0
CIRCLE
  5
389D
  8
2
 10
673.43695451640895
 20
508.09929154967102
 30
0.0
 40
6.5
  0
LINE
  5
389E
  8
1
 10
606.43695451640895
 20
514.09929154967108
 30
0.0
 11
606.43695451640895
 21
502.09929154967102
 31
0.0
  0
ARC
  5
389F
  8
0
 10
606.83695451640915
 20
508.09929154967102
 30
0.0
 40
2.25
 50
270.0
 51
90.0
  0
LINE
  5
38A0
  8
0
 10
606.03695451640885
 20
510.34929154967102
 30
0.0
 11
606.83695451640915
 21
510.34929154967102
 31
0.0
  0
LINE
  5
38A1
  8
0
 10
606.03695451640885
 20
505.84929154967102
 30
0.0
 11
606.83695451640915
 21
505.84929154967102
 31
0.0
  0
LINE
  5
38A2
  8
2
 10
756.7369545164097
 20
520.52151454967111
 30
0.0
 11
756.7369545164097
 21
495.67706754967088
 31
0.0
  0
LINE
  5
38A3
  8
2
 10
760.03695451640942
 20
515.59929154967097
 30
0.0
 11
760.03695451640942
 21
500.59929154967102
 31
0.0
  0
LINE
  5
38A4
  8
0
 10
758.4869545164097
 20
515.59929154967097
 30
0.0
 11
758.4869545164097
 21
500.59929154967102
 31
0.0
  0
LINE
  5
38A5
  8
0
 10
723.61065151640867
 20
514.93631754967089
 30
0.0
 11
729.08730751640906
 21
513.20953454967093
 31
0.0
  0
LINE
  5
38A6
  8
0
 10
723.61065151640867
 20
501.2622645496711
 30
0.0
 11
729.08730751640906
 21
502.989047549671
 31
0.0
  0
LINE
  5
38A7
  8
0
 10
729.43695451640895
 20
499.69929154967099
 30
0.0
 11
723.85121551640896
 21
499.69929154967099
 31
0.0
  0
LINE
  5
38A8
  8
1
 10
692.13695451640933
 20
514.09929154967108
 30
0.0
 11
692.13695451640933
 21
502.09929154967102
 31
0.0
  0
ARC
  5
38A9
  8
0
 10
717.53695451640885
 20
507.69929154967099
 30
0.0
 40
2.25
 50
180.0
 51
0.0
  0
LINE
  5
38AA
  8
1
 10
717.53695451640885
 20
514.09929154967108
 30
0.0
 11
717.53695451640885
 21
502.09929154967102
 31
0.0
  0
ARC
  5
38AB
  8
0
 10
723.85121551640896
 20
500.499291549671
 30
0.0
 40
0.8
 50
107.49999999999361
 51
270.0
  0
LINE
  5
38AC
  8
0
 10
715.28695451640885
 20
508.499291549671
 30
0.0
 11
715.28695451640885
 21
507.69929154967099
 31
0.0
  0
LINE
  5
38AD
  8
0
 10
719.78695451640885
 20
508.499291549671
 30
0.0
 11
719.78695451640885
 21
507.69929154967099
 31
0.0
  0
ARC
  5
38AE
  8
0
 10
717.53695451640885
 20
508.499291549671
 30
0.0
 40
2.25
 50
0.0
 51
180.0
  0
ARC
  5
38AF
  8
0
 10
704.83695451640915
 20
507.69929154967099
 30
0.0
 40
2.25
 50
180.0
 51
0.0
  0
LINE
  5
38B0
  8
1
 10
704.83695451640915
 20
514.09929154967108
 30
0.0
 11
704.83695451640915
 21
502.09929154967102
 31
0.0
  0
LINE
  5
38B1
  8
0
 10
702.58695451640915
 20
507.69929154967099
 30
0.0
 11
702.58695451640915
 21
508.499291549671
 31
0.0
  0
LINE
  5
38B2
  8
0
 10
707.08695451640915
 20
507.69929154967099
 30
0.0
 11
707.08695451640915
 21
508.499291549671
 31
0.0
  0
ARC
  5
38B3
  8
0
 10
704.83695451640915
 20
508.499291549671
 30
0.0
 40
2.25
 50
0.0
 51
180.0
  0
ARC
  5
38B4
  8
0
 10
691.73695451640924
 20
508.09929154967102
 30
0.0
 40
2.25
 50
90.0
 51
270.0
  0
LINE
  5
38B5
  8
0
 10
692.13695451640933
 20
514.09929154967108
 30
0.0
 11
692.13695451640933
 21
502.09929154967102
 31
0.0
  0
LINE
  5
38B6
  8
0
 10
691.73695451640924
 20
505.84929154967102
 30
0.0
 11
692.53695451640885
 21
505.84929154967102
 31
0.0
  0
LINE
  5
38B7
  8
0
 10
691.73695451640924
 20
510.34929154967102
 30
0.0
 11
692.53695451640885
 21
510.34929154967102
 31
0.0
  0
ARC
  5
38B8
  8
0
 10
692.53695451640885
 20
508.09929154967102
 30
0.0
 40
2.25
 50
270.0
 51
90.0
  0
LINE
  5
38B9
  8
2
 10
758.4869545164097
 20
500.59929154967102
 30
0.0
 11
760.03695451640942
 21
500.59929154967102
 31
0.0
  0
LINE
  5
38BA
  8
0
 10
755.83695451640949
 20
501.09929154967102
 30
0.0
 11
758.4869545164097
 21
500.59929154967102
 31
0.0
  0
LINE
  5
38BB
  8
0
 10
755.83695451640949
 20
501.09929154967102
 30
0.0
 11
755.83695451640949
 21
490.42429154967101
 31
0.0
  0
LINE
  5
38BC
  8
0
 10
729.43695451640895
 20
512.73267554967094
 30
0.0
 11
729.43695451640895
 21
503.46590654967099
 31
0.0
  0
ARC
  5
38BD
  8
0
 10
728.93695451640895
 20
503.46590654967099
 30
0.0
 40
0.5
 50
287.49999999999358
 51
0.0
  0
ARC
  5
38BE
  8
0
 10
728.93695451640895
 20
512.73267554967094
 30
0.0
 40
0.5
 50
0.0
 51
72.500000000006366
  0
LINE
  5
38BF
  8
0
 10
729.43695451640895
 20
495.67706754967088
 30
0.0
 11
729.43695451640895
 21
499.69929154967099
 31
0.0
  0
LINE
  5
38C8
  8
0
 10
729.43695451640895
 20
516.49929154967094
 30
0.0
 11
723.85121551640896
 21
516.49929154967094
 31
0.0
  0
ARC
  5
38C9
  8
0
 10
723.85121551640896
 20
515.69929154967099
 30
0.0
 40
0.8
 50
90.0
 51
252.50000000000639
  0
LINE
  5
38CA
  8
2
 10
758.4869545164097
 20
515.59929154967097
 30
0.0
 11
760.03695451640942
 21
515.59929154967097
 31
0.0
  0
LINE
  5
38CB
  8
0
 10
758.4869545164097
 20
515.59929154967097
 30
0.0
 11
755.83695451640949
 21
515.09929154967097
 31
0.0
  0
LINE
  5
38CC
  8
0
 10
729.43695451640895
 20
520.52151454967111
 30
0.0
 11
729.43695451640895
 21
516.49929154967094
 31
0.0
  0
LINE
  5
38CD
  8
0
 10
755.83695451640949
 20
525.77429154967103
 30
0.0
 11
755.83695451640949
 21
515.09929154967097
 31
0.0
  0
LINE
  5
38CE
  8
0
 10
1057.236954516409
 20
523.98899954967089
 30
0.0
 11
1314.6369545164091
 21
523.98899954967089
 31
0.0
  0
LINE
  5
38CF
  8
0
 10
1057.236954516409
 20
525.77429154967103
 30
0.0
 11
1314.6369545164091
 21
525.77429154967103
 31
0.0
  0
LINE
  5
38D0
  8
0
 10
1059.6369545164091
 20
522.89275254967094
 30
0.0
 11
1314.6369545164091
 21
522.89275254967094
 31
0.0
  0
LINE
  5
38D1
  8
0
 10
1057.236954516409
 20
492.20958254967098
 30
0.0
 11
1314.6369545164091
 21
492.20958254967098
 31
0.0
  0
LINE
  5
38D2
  8
0
 10
1057.236954516409
 20
490.42429154967101
 30
0.0
 11
1314.6369545164091
 21
490.42429154967101
 31
0.0
  0
LINE
  5
38D3
  8
0
 10
1059.6369545164091
 20
493.30582954967099
 30
0.0
 11
1314.6369545164091
 21
493.30582954967099
 31
0.0
  0
ARC
  5
38D5
  8
2
 10
797.53695451640942
 20
508.09929154967102
 30
0.0
 40
2.25
 50
270.0
 51
90.0
  0
ARC
  5
38D6
  8
2
 10
796.7369545164097
 20
508.09929154967102
 30
0.0
 40
2.25
 50
90.0
 51
270.0
  0
LINE
  5
38D7
  8
1
 10
797.13695451640933
 20
514.09929154967108
 30
0.0
 11
797.13695451640933
 21
502.09929154967102
 31
0.0
  0
LINE
  5
38D8
  8
2
 10
797.53695451640942
 20
505.84929154967102
 30
0.0
 11
796.7369545164097
 21
505.84929154967102
 31
0.0
  0
LINE
  5
38D9
  8
2
 10
797.53695451640942
 20
510.34929154967102
 30
0.0
 11
796.7369545164097
 21
510.34929154967102
 31
0.0
  0
ARC
  5
38DA
  8
2
 10
784.43695451640951
 20
507.69929154967099
 30
0.0
 40
2.25
 50
180.0
 51
0.0
  0
LINE
  5
38DB
  8
1
 10
771.7369545164097
 20
514.09929154967108
 30
0.0
 11
771.7369545164097
 21
502.09929154967102
 31
0.0
  0
LINE
  5
38DC
  8
1
 10
784.43695451640951
 20
514.09929154967108
 30
0.0
 11
784.43695451640951
 21
502.09929154967102
 31
0.0
  0
LINE
  5
38DD
  8
2
 10
786.68695451640951
 20
508.499291549671
 30
0.0
 11
786.68695451640951
 21
507.69929154967099
 31
0.0
  0
LINE
  5
38DE
  8
2
 10
773.9869545164097
 20
508.499291549671
 30
0.0
 11
773.9869545164097
 21
507.69929154967099
 31
0.0
  0
LINE
  5
38DF
  8
2
 10
782.18695451640951
 20
508.499291549671
 30
0.0
 11
782.18695451640951
 21
507.69929154967099
 31
0.0
  0
ARC
  5
38E0
  8
2
 10
784.43695451640951
 20
508.499291549671
 30
0.0
 40
2.25
 50
0.0
 51
180.0
  0
LINE
  5
38E6
  8
2
 10
769.48695451640958
 20
508.499291549671
 30
0.0
 11
769.48695451640958
 21
507.69929154967099
 31
0.0
  0
ARC
  5
38E7
  8
2
 10
771.7369545164097
 20
507.69929154967099
 30
0.0
 40
2.25
 50
180.0
 51
0.0
  0
ARC
  5
38E8
  8
2
 10
771.7369545164097
 20
508.499291549671
 30
0.0
 40
2.25
 50
0.0
 51
180.0
  0
LINE
  5
38F4
  8
2
 10
771.7369545164097
 20
509.54929154967101
 30
0.0
 11
771.7369545164097
 21
506.64929154967098
 31
0.0
  0
ARC
  5
38FD
  8
2
 10
883.23695451640958
 20
508.09929154967102
 30
0.0
 40
2.25
 50
270.0
 51
90.0
  0
ARC
  5
38FE
  8
2
 10
882.43695451640951
 20
508.09929154967102
 30
0.0
 40
2.25
 50
90.0
 51
270.0
  0
LINE
  5
38FF
  8
1
 10
882.83695451640949
 20
514.09929154967108
 30
0.0
 11
882.83695451640949
 21
502.09929154967102
 31
0.0
  0
LINE
  5
3900
  8
2
 10
883.23695451640958
 20
505.84929154967102
 30
0.0
 11
882.43695451640951
 21
505.84929154967102
 31
0.0
  0
LINE
  5
3901
  8
2
 10
883.23695451640958
 20
510.34929154967102
 30
0.0
 11
882.43695451640951
 21
510.34929154967102
 31
0.0
  0
CIRCLE
  5
3902
  8
0
 10
1011.23695451641
 20
508.09929154967102
 30
0.0
 40
3.0
  0
CIRCLE
  5
3903
  8
0
 10
1011.23695451641
 20
508.09929154967102
 30
0.0
 40
2.25
  0
LINE
  5
3904
  8
0
 10
999.7369545164097
 20
514.09929154967108
 30
0.0
 11
1019.736954516409
 21
514.09929154967108
 31
0.0
  0
LINE
  5
3905
  8
0
 10
999.7369545164097
 20
502.09929154967102
 30
0.0
 11
1019.736954516409
 21
502.09929154967102
 31
0.0
  0
CIRCLE
  5
3906
  8
0
 10
1011.23695451641
 20
508.09929154967102
 30
0.0
 40
6.0
  0
LINE
  5
3908
  8
0
 10
989.2369545164097
 20
514.04929154967112
 30
0.0
 11
989.2369545164097
 21
516.24929154967094
 31
0.0
  0
ARC
  5
3909
  8
0
 10
999.7369545164097
 20
512.09929154967097
 30
0.0
 40
2.0
 50
90.0
 51
180.0
  0
LINE
  5
390A
  8
0
 10
987.2369545164097
 20
513.24929154967094
 30
0.0
 11
987.2369545164097
 21
517.04929154967112
 31
0.0
  0
LINE
  5
390C
  8
0
 10
989.2369545164097
 20
502.14929154967098
 30
0.0
 11
989.2369545164097
 21
499.94929154967099
 31
0.0
  0
ARC
  5
390D
  8
0
 10
999.7369545164097
 20
504.09929154967102
 30
0.0
 40
2.0
 50
180.0
 51
270.0
  0
LINE
  5
390E
  8
0
 10
997.73695451640958
 20
512.09929154967097
 30
0.0
 11
997.73695451640958
 21
504.09929154967102
 31
0.0
  0
LINE
  5
390F
  8
0
 10
987.2369545164097
 20
502.94929154967099
 30
0.0
 11
987.2369545164097
 21
499.14929154967109
 31
0.0
  0
LINE
  5
3912
  8
0
 10
993.63695451640945
 20
513.24929154967094
 30
0.0
 11
987.2369545164097
 21
513.24929154967094
 31
0.0
  0
LINE
  5
3913
  8
0
 10
993.63695451640945
 20
502.94929154967099
 30
0.0
 11
987.2369545164097
 21
502.94929154967099
 31
0.0
  0
LINE
  5
3914
  8
0
 10
993.63695451640945
 20
499.14929154967109
 30
0.0
 11
987.2369545164097
 21
499.14929154967109
 31
0.0
  0
LINE
  5
3915
  8
0
 10
993.63695451640945
 20
517.04929154967112
 30
0.0
 11
987.2369545164097
 21
517.04929154967112
 31
0.0
  0
LINE
  5
3916
  8
0
 10
1047.3369545164089
 20
515.84929154967108
 30
0.0
 11
1047.3369545164089
 21
500.34929154967102
 31
0.0
  0
LINE
  5
3917
  8
0
 10
1048.7369545164099
 20
518.89929154967103
 30
0.0
 11
1048.7369545164099
 21
497.29929154967101
 31
0.0
  0
LINE
  5
3918
  8
0
 10
1055.6869545164091
 20
517.79929154967112
 30
0.0
 11
1055.6869545164091
 21
498.39929154967109
 31
0.0
  0
LINE
  5
3919
  8
0
 10
1057.236954516409
 20
517.79929154967112
 30
0.0
 11
1057.236954516409
 21
498.39929154967109
 31
0.0
  0
LINE
  5
391A
  8
0
 10
1035.9632285164089
 20
514.21537154967109
 30
0.0
 11
1035.9632285164089
 21
515.11131054967109
 31
0.0
  0
POLYLINE
  8
0
  5
3D78
  66
     1
 10
0.000000
 20
0.000000
 30
0.000000
  70
     8
  0
VERTEX
  8
0
  5
3D79
 10
1035.96
 20
514.215
 30
0.000000
  70
    32
  0
VERTEX
  8
0
  5
3D7A
 10
1035.97
 20
514.201
 30
0.000000
  70
    32
  0
VERTEX
  8
0
  5
3D7B
 10
1035.99
 20
514.187
 30
0.000000
  70
    32
  0
VERTEX
  8
0
  5
3D7C
 10
1036.00
 20
514.172
 30
0.000000
  70
    32
  0
VERTEX
  8
0
  5
3D7D
 10
1036.01
 20
514.158
 30
0.000000
  70
    32
  0
VERTEX
  8
0
  5
3D7E
 10
1036.02
 20
514.144
 30
0.000000
  70
    32
  0
VERTEX
  8
0
  5
3D7F
 10
1036.03
 20
514.129
 30
0.000000
  70
    32
  0
VERTEX
  8
0
  5
3D80
 10
1036.05
 20
514.115
 30
0.000000
  70
    32
  0
VERTEX
  8
0
  5
3D81
 10
1036.06
 20
514.101
 30
0.000000
  70
    32
  0
VERTEX
  8
0
  5
3D82
 10
1036.07
 20
514.087
 30
0.000000
  70
    32
  0
VERTEX
  8
0
  5
3D83
 10
1036.08
 20
514.073
 30
0.000000
  70
    32
  0
VERTEX
  8
0
  5
3D84
 10
1036.09
 20
514.059
 30
0.000000
  70
    32
  0
VERTEX
  8
0
  5
3D85
 10
1036.10
 20
514.045
 30
0.000000
  70
    32
  0
VERTEX
  8
0
  5
3D86
 10
1036.12
 20
514.031
 30
0.000000
  70
    32
  0
VERTEX
  8
0
  5
3D87
 10
1036.13
 20
514.017
 30
0.000000
  70
    32
  0
VERTEX
  8
0
  5
3D88
 10
1036.14
 20
514.003
 30
0.000000
  70
    32
  0
VERTEX
  8
0
  5
3D89
 10
1036.15
 20
513.990
 30
0.000000
  70
    32
  0
VERTEX
  8
0
  5
3D8A
 10
1036.16
 20
513.976
 30
0.000000
  70
    32
  0
VERTEX
  8
0
  5
3D8B
 10
1036.17
 20
513.963
 30
0.000000
  70
    32
  0
VERTEX
  8
0
  5
3D8C
 10
1036.19
 20
513.949
 30
0.000000
  70
    32
  0
VERTEX
  8
0
  5
3D8D
 10
1036.20
 20
513.936
 30
0.000000
  70
    32
  0
VERTEX
  8
0
  5
3D8E
 10
1036.21
 20
513.923
 30
0.000000
  70
    32
  0
VERTEX
  8
0
  5
3D8F
 10
1036.22
 20
513.910
 30
0.000000
  70
    32
  0
VERTEX
  8
0
  5
3D90
 10
1036.23
 20
513.897
 30
0.000000
  70
    32
  0
VERTEX
  8
0
  5
3D91
 10
1036.25
 20
513.884
 30
0.000000
  70
    32
  0
VERTEX
  8
0
  5
3D92
 10
1036.26
 20
513.872
 30
0.000000
  70
    32
  0
VERTEX
  8
0
  5
3D93
 10
1036.27
 20
513.859
 30
0.000000
  70
    32
  0
VERTEX
  8
0
  5
3D94
 10
1036.28
 20
513.847
 30
0.000000
  70
    32
  0
VERTEX
  8
0
  5
3D95
 10
1036.29
 20
513.835
 30
0.000000
  70
    32
  0
VERTEX
  8
0
  5
3D96
 10
1036.30
 20
513.823
 30
0.000000
  70
    32
  0
VERTEX
  8
0
  5
3D97
 10
1036.32
 20
513.811
 30
0.000000
  70
    32
  0
VERTEX
  8
0
  5
3D98
 10
1036.33
 20
513.800
 30
0.000000
  70
    32
  0
VERTEX
  8
0
  5
3D99
 10
1036.34
 20
513.788
 30
0.000000
  70
    32
  0
VERTEX
  8
0
  5
3D9A
 10
1036.35
 20
513.777
 30
0.000000
  70
    32
  0
VERTEX
  8
0
  5
3D9B
 10
1036.36
 20
513.766
 30
0.000000
  70
    32
  0
VERTEX
  8
0
  5
3D9C
 10
1036.37
 20
513.755
 30
0.000000
  70
    32
  0
VERTEX
  8
0
  5
3D9D
 10
1036.39
 20
513.744
 30
0.000000
  70
    32
  0
VERTEX
  8
0
  5
3D9E
 10
1036.40
 20
513.734
 30
0.000000
  70
    32
  0
VERTEX
  8
0
  5
3D9F
 10
1036.41
 20
513.724
 30
0.000000
  70
    32
  0
VERTEX
  8
0
  5
3DA0
 10
1036.42
 20
513.714
 30
0.000000
  70
    32
  0
VERTEX
  8
0
  5
3DA1
 10
1036.43
 20
513.704
 30
0.000000
  70
    32
  0
VERTEX
  8
0
  5
3DA2
 10
1036.44
 20
513.694
 30
0.000000
  70
    32
  0
VERTEX
  8
0
  5
3DA3
 10
1036.45
 20
513.685
 30
0.000000
  70
    32
  0
VERTEX
  8
0
  5
3DA4
 10
1036.47
 20
513.676
 30
0.000000
  70
    32
  0
VERTEX
  8
0
  5
3DA5
 10
1036.48
 20
513.667
 30
0.000000
  70
    32
  0
VERTEX
  8
0
  5
3DA6
 10
1036.49
 20
513.659
 30
0.000000
  70
    32
  0
VERTEX
  8
0
  5
3DA7
 10
1036.50
 20
513.651
 30
0.000000
  70
    32
  0
VERTEX
  8
0
  5
3DA8
 10
1036.51
 20
513.643
 30
0.000000
  70
    32
  0
VERTEX
  8
0
  5
3DA9
 10
1036.52
 20
513.635
 30
0.000000
  70
    32
  0
VERTEX
  8
0
  5
3DAA
 10
1036.54
 20
513.627
 30
0.000000
  70
    32
  0
VERTEX
  8
0
  5
3DAB
 10
1036.55
 20
513.620
 30
0.000000
  70
    32
  0
VERTEX
  8
0
  5
3DAC
 10
1036.56
 20
513.613
 30
0.000000
  70
    32
  0
VERTEX
  8
0
  5
3DAD
 10
1036.57
 20
513.607
 30
0.000000
  70
    32
  0
VERTEX
  8
0
  5
3DAE
 10
1036.58
 20
513.601
 30
0.000000
  70
    32
  0
VERTEX
  8
0
  5
3DAF
 10
1036.59
 20
513.595
 30
0.000000
  70
    32
  0
VERTEX
  8
0
  5
3DB0
 10
1036.60
 20
513.589
 30
0.000000
  70
    32
  0
VERTEX
  8
0
  5
3DB1
 10
1036.62
 20
513.584
 30
0.000000
  70
    32
  0
VERTEX
  8
0
  5
3DB2
 10
1036.63
 20
513.579
 30
0.000000
  70
    32
  0
VERTEX
  8
0
  5
3DB3
 10
1036.64
 20
513.574
 30
0.000000
  70
    32
  0
VERTEX
  8
0
  5
3DB4
 10
1036.65
 20
513.570
 30
0.000000
  70
    32
  0
VERTEX
  8
0
  5
3DB5
 10
1036.66
 20
513.566
 30
0.000000
  70
    32
  0
VERTEX
  8
0
  5
3DB6
 10
1036.67
 20
513.563
 30
0.000000
  70
    32
  0
VERTEX
  8
0
  5
3DB7
 10
1036.68
 20
513.559
 30
0.000000
  70
    32
  0
VERTEX
  8
0
  5
3DB8
 10
1036.70
 20
513.556
 30
0.000000
  70
    32
  0
VERTEX
  8
0
  5
3DB9
 10
1036.71
 20
513.554
 30
0.000000
  70
    32
  0
VERTEX
  8
0
  5
3DBA
 10
1036.72
 20
513.552
 30
0.000000
  70
    32
  0
VERTEX
  8
0
  5
3DBB
 10
1036.73
 20
513.550
 30
0.000000
  70
    32
  0
VERTEX
  8
0
  5
3DBC
 10
1036.74
 20
513.549
 30
0.000000
  70
    32
  0
VERTEX
  8
0
  5
3DBD
 10
1036.75
 20
513.548
 30
0.000000
  70
    32
  0
VERTEX
  8
0
  5
3DBE
 10
1036.76
 20
513.547
 30
0.000000
  70
    32
  0
VERTEX
  8
0
  5
3DBF
 10
1036.77
 20
513.547
 30
0.000000
  70
    32
  0
VERTEX
  8
0
  5
3DC0
 10
1036.79
 20
513.547
 30
0.000000
  70
    32
  0
VERTEX
  8
0
  5
3DC1
 10
1036.80
 20
513.548
 30
0.000000
  70
    32
  0
VERTEX
  8
0
  5
3DC2
 10
1036.81
 20
513.549
 30
0.000000
  70
    32
  0
VERTEX
  8
0
  5
3DC3
 10
1036.82
 20
513.550
 30
0.000000
  70
    32
  0
VERTEX
  8
0
  5
3DC4
 10
1036.83
 20
513.552
 30
0.000000
  70
    32
  0
VERTEX
  8
0
  5
3DC5
 10
1036.84
 20
513.554
 30
0.000000
  70
    32
  0
VERTEX
  8
0
  5
3DC6
 10
1036.85
 20
513.556
 30
0.000000
  70
    32
  0
VERTEX
  8
0
  5
3DC7
 10
1036.86
 20
513.559
 30
0.000000
  70
    32
  0
VERTEX
  8
0
  5
3DC8
 10
1036.88
 20
513.562
 30
0.000000
  70
    32
  0
VERTEX
  8
0
  5
3DC9
 10
1036.89
 20
513.566
 30
0.000000
  70
    32
  0
VERTEX
  8
0
  5
3DCA
 10
1036.90
 20
513.569
 30
0.000000
  70
    32
  0
VERTEX
  8
0
  5
3DCB
 10
1036.91
 20
513.574
 30
0.000000
  70
    32
  0
VERTEX
  8
0
  5
3DCC
 10
1036.92
 20
513.578
 30
0.000000
  70
    32
  0
VERTEX
  8
0
  5
3DCD
 10
1036.93
 20
513.583
 30
0.000000
  70
    32
  0
VERTEX
  8
0
  5
3DCE
 10
1036.94
 20
513.588
 30
0.000000
  70
    32
  0
VERTEX
  8
0
  5
3DCF
 10
1036.95
 20
513.593
 30
0.000000
  70
    32
  0
VERTEX
  8
0
  5
3DD0
 10
1036.96
 20
513.599
 30
0.000000
  70
    32
  0
VERTEX
  8
0
  5
3DD1
 10
1036.97
 20
513.605
 30
0.000000
  70
    32
  0
VERTEX
  8
0
  5
3DD2
 10
1036.99
 20
513.611
 30
0.000000
  70
    32
  0
VERTEX
  8
0
  5
3DD3
 10
1037.00
 20
513.618
 30
0.000000
  70
    32
  0
VERTEX
  8
0
  5
3DD4
 10
1037.01
 20
513.625
 30
0.000000
  70
    32
  0
VERTEX
  8
0
  5
3DD5
 10
1037.02
 20
513.632
 30
0.000000
  70
    32
  0
VERTEX
  8
0
  5
3DD6
 10
1037.03
 20
513.639
 30
0.000000
  70
    32
  0
VERTEX
  8
0
  5
3DD7
 10
1037.04
 20
513.647
 30
0.000000
  70
    32
  0
VERTEX
  8
0
  5
3DD8
 10
1037.05
 20
513.655
 30
0.000000
  70
    32
  0
VERTEX
  8
0
  5
3DD9
 10
1037.06
 20
513.663
 30
0.000000
  70
    32
  0
VERTEX
  8
0
  5
3DDA
 10
1037.07
 20
513.672
 30
0.000000
  70
    32
  0
VERTEX
  8
0
  5
3DDB
 10
1037.08
 20
513.681
 30
0.000000
  70
    32
  0
VERTEX
  8
0
  5
3DDC
 10
1037.10
 20
513.690
 30
0.000000
  70
    32
  0
VERTEX
  8
0
  5
3DDD
 10
1037.11
 20
513.699
 30
0.000000
  70
    32
  0
VERTEX
  8
0
  5
3DDE
 10
1037.12
 20
513.709
 30
0.000000
  70
    32
  0
VERTEX
  8
0
  5
3DDF
 10
1037.13
 20
513.719
 30
0.000000
  70
    32
  0
VERTEX
  8
0
  5
3DE0
 10
1037.14
 20
513.729
 30
0.000000
  70
    32
  0
VERTEX
  8
0
  5
3DE1
 10
1037.15
 20
513.739
 30
0.000000
  70
    32
  0
VERTEX
  8
0
  5
3DE2
 10
1037.16
 20
513.750
 30
0.000000
  70
    32
  0
VERTEX
  8
0
  5
3DE3
 10
1037.17
 20
513.760
 30
0.000000
  70
    32
  0
VERTEX
  8
0
  5
3DE4
 10
1037.18
 20
513.771
 30
0.000000
  70
    32
  0
VERTEX
  8
0
  5
3DE5
 10
1037.19
 20
513.783
 30
0.000000
  70
    32
  0
VERTEX
  8
0
  5
3DE6
 10
1037.20
 20
513.794
 30
0.000000
  70
    32
  0
VERTEX
  8
0
  5
3DE7
 10
1037.21
 20
513.806
 30
0.000000
  70
    32
  0
VERTEX
  8
0
  5
3DE8
 10
1037.23
 20
513.818
 30
0.000000
  70
    32
  0
VERTEX
  8
0
  5
3DE9
 10
1037.24
 20
513.830
 30
0.000000
  70
    32
  0
VERTEX
  8
0
  5
3DEA
 10
1037.25
 20
513.842
 30
0.000000
  70
    32
  0
VERTEX
  8
0
  5
3DEB
 10
1037.26
 20
513.854
 30
0.000000
  70
    32
  0
VERTEX
  8
0
  5
3DEC
 10
1037.27
 20
513.867
 30
0.000000
  70
    32
  0
VERTEX
  8
0
  5
3DED
 10
1037.28
 20
513.880
 30
0.000000
  70
    32
  0
VERTEX
  8
0
  5
3DEE
 10
1037.29
 20
513.893
 30
0.000000
  70
    32
  0
VERTEX
  8
0
  5
3DEF
 10
1037.30
 20
513.906
 30
0.000000
  70
    32
  0
VERTEX
  8
0
  5
3DF0
 10
1037.31
 20
513.920
 30
0.000000
  70
    32
  0
VERTEX
  8
0
  5
3DF1
 10
1037.32
 20
513.933
 30
0.000000
  70
    32
  0
VERTEX
  8
0
  5
3DF2
 10
1037.33
 20
513.947
 30
0.000000
  70
    32
  0
VERTEX
  8
0
  5
3DF3
 10
1037.34
 20
513.961
 30
0.000000
  70
    32
  0
VERTEX
  8
0
  5
3DF4
 10
1037.35
 20
513.975
 30
0.000000
  70
    32
  0
VERTEX
  8
0
  5
3DF5
 10
1037.36
 20
513.989
 30
0.000000
  70
    32
  0
VERTEX
  8
0
  5
3DF6
 10
1037.38
 20
514.003
 30
0.000000
  70
    32
  0
VERTEX
  8
0
  5
3DF7
 10
1037.39
 20
514.018
 30
0.000000
  70
    32
  0
VERTEX
  8
0
  5
3DF8
 10
1037.40
 20
514.033
 30
0.000000
  70
    32
  0
VERTEX
  8
0
  5
3DF9
 10
1037.41
 20
514.047
 30
0.000000
  70
    32
  0
VERTEX
  8
0
  5
3DFA
 10
1037.42
 20
514.062
 30
0.000000
  70
    32
  0
VERTEX
  8
0
  5
3DFB
 10
1037.43
 20
514.077
 30
0.000000
  70
    32
  0
VERTEX
  8
0
  5
3DFC
 10
1037.44
 20
514.092
 30
0.000000
  70
    32
  0
VERTEX
  8
0
  5
3DFD
 10
1037.45
 20
514.108
 30
0.000000
  70
    32
  0
VERTEX
  8
0
  5
3DFE
 10
1037.46
 20
514.123
 30
0.000000
  70
    32
  0
VERTEX
  8
0
  5
3DFF
 10
1037.47
 20
514.138
 30
0.000000
  70
    32
  0
VERTEX
  8
0
  5
3E00
 10
1037.48
 20
514.154
 30
0.000000
  70
    32
  0
VERTEX
  8
0
  5
3E01
 10
1037.49
 20
514.170
 30
0.000000
  70
    32
  0
VERTEX
  8
0
  5
3E02
 10
1037.50
 20
514.186
 30
0.000000
  70
    32
  0
VERTEX
  8
0
  5
3E03
 10
1037.51
 20
514.201
 30
0.000000
  70
    32
  0
VERTEX
  8
0
  5
3E04
 10
1037.52
 20
514.217
 30
0.000000
  70
    32
  0
VERTEX
  8
0
  5
3E05
 10
1037.54
 20
514.234
 30
0.000000
  70
    32
  0
VERTEX
  8
0
  5
3E06
 10
1037.55
 20
514.250
 30
0.000000
  70
    32
  0
VERTEX
  8
0
  5
3E07
 10
1037.56
 20
514.266
 30
0.000000
  70
    32
  0
VERTEX
  8
0
  5
3E08
 10
1037.57
 20
514.282
 30
0.000000
  70
    32
  0
VERTEX
  8
0
  5
3E09
 10
1037.58
 20
514.299
 30
0.000000
  70
    32
  0
VERTEX
  8
0
  5
3E0A
 10
1037.59
 20
514.315
 30
0.000000
  70
    32
  0
VERTEX
  8
0
  5
3E0B
 10
1037.60
 20
514.331
 30
0.000000
  70
    32
  0
VERTEX
  8
0
  5
3E0C
 10
1037.61
 20
514.348
 30
0.000000
  70
    32
  0
VERTEX
  8
0
  5
3E0D
 10
1037.62
 20
514.365
 30
0.000000
  70
    32
  0
VERTEX
  8
0
  5
3E0E
 10
1037.63
 20
514.381
 30
0.000000
  70
    32
  0
VERTEX
  8
0
  5
3E0F
 10
1037.64
 20
514.398
 30
0.000000
  70
    32
  0
VERTEX
  8
0
  5
3E10
 10
1037.65
 20
514.415
 30
0.000000
  70
    32
  0
VERTEX
  8
0
  5
3E11
 10
1037.66
 20
514.431
 30
0.000000
  70
    32
  0
VERTEX
  8
0
  5
3E12
 10
1037.67
 20
514.448
 30
0.000000
  70
    32
  0
VERTEX
  8
0
  5
3E13
 10
1037.68
 20
514.465
 30
0.000000
  70
    32
  0
VERTEX
  8
0
  5
3E14
 10
1037.69
 20
514.482
 30
0.000000
  70
    32
  0
VERTEX
  8
0
  5
3E15
 10
1037.71
 20
514.499
 30
0.000000
  70
    32
  0
VERTEX
  8
0
  5
3E16
 10
1037.72
 20
514.516
 30
0.000000
  70
    32
  0
VERTEX
  8
0
  5
3E17
 10
1037.73
 20
514.532
 30
0.000000
  70
    32
  0
VERTEX
  8
0
  5
3E18
 10
1037.74
 20
514.549
 30
0.000000
  70
    32
  0
SEQEND
  8
0
  5
3E19
  0
LINE
  5
391C
  8
2
 10
1034.7369545164099
 20
517.91429154967113
 30
0.0
 11
1034.7369545164099
 21
498.28429154967108
 31
0.0
  0
LINE
  5
391D
  8
0
 10
1035.236954516409
 20
518.89929154967103
 30
0.0
 11
1035.236954516409
 21
497.29929154967101
 31
0.0
  0
LINE
  5
391E
  8
0
 10
1022.019797516409
 20
513.11939254967092
 30
0.0
 11
1021.736954516409
 21
515.09929154967097
 31
0.0
  0
LINE
  5
391F
  8
0
 10
1036.019797516409
 20
515.11939254967092
 30
0.0
 11
1022.019797516409
 21
513.11939254967092
 31
0.0
  0
LINE
  5
3920
  8
2
 10
1033.1369545164091
 20
520.52151454967111
 30
0.0
 11
1033.1369545164091
 21
495.67706754967088
 31
0.0
  0
LINE
  5
3921
  8
0
 10
1053.236954516409
 20
522.89275254967094
 30
0.0
 11
1053.236954516409
 21
493.30582954967099
 31
0.0
  0
LINE
  5
3922
  8
0
 10
1059.6369545164091
 20
522.89929154967103
 30
0.0
 11
1059.6369545164091
 21
493.29929154967101
 31
0.0
  0
ARC
  5
3928
  8
0
 10
1047.736954516409
 20
497.29929154967101
 30
0.0
 40
1.0
 50
270.0
 51
0.0
  0
LINE
  5
3929
  8
0
 10
1036.019797516409
 20
501.07919054967101
 30
0.0
 11
1035.736954516409
 21
499.09929154967102
 31
0.0
  0
LINE
  5
392A
  8
0
 10
1037.736954516409
 20
500.34929154967102
 30
0.0
 11
1037.736954516409
 21
501.64929154967098
 31
0.0
  0
LINE
  5
392B
  8
0
 10
1035.9632285164089
 20
501.98321054967101
 30
0.0
 11
1035.9632285164089
 21
501.0872715496709
 31
0.0
  0
POLYLINE
  8
0
  5
3E1A
  66
     1
 10
0.000000
 20
0.000000
 30
0.000000
  70
     8
  0
VERTEX
  8
0
  5
3E1B
 10
1035.96
 20
501.983
 30
0.000000
  70
    32
  0
VERTEX
  8
0
  5
3E1C
 10
1035.97
 20
501.998
 30
0.000000
  70
    32
  0
VERTEX
  8
0
  5
3E1D
 10
1035.99
 20
502.012
 30
0.000000
  70
    32
  0
VERTEX
  8
0
  5
3E1E
 10
1036.00
 20
502.026
 30
0.000000
  70
    32
  0
VERTEX
  8
0
  5
3E1F
 10
1036.01
 20
502.041
 30
0.000000
  70
    32
  0
VERTEX
  8
0
  5
3E20
 10
1036.02
 20
502.055
 30
0.000000
  70
    32
  0
VERTEX
  8
0
  5
3E21
 10
1036.03
 20
502.069
 30
0.000000
  70
    32
  0
VERTEX
  8
0
  5
3E22
 10
1036.05
 20
502.083
 30
0.000000
  70
    32
  0
VERTEX
  8
0
  5
3E23
 10
1036.06
 20
502.098
 30
0.000000
  70
    32
  0
VERTEX
  8
0
  5
3E24
 10
1036.07
 20
502.112
 30
0.000000
  70
    32
  0
VERTEX
  8
0
  5
3E25
 10
1036.08
 20
502.126
 30
0.000000
  70
    32
  0
VERTEX
  8
0
  5
3E26
 10
1036.09
 20
502.140
 30
0.000000
  70
    32
  0
VERTEX
  8
0
  5
3E27
 10
1036.10
 20
502.154
 30
0.000000
  70
    32
  0
VERTEX
  8
0
  5
3E28
 10
1036.12
 20
502.168
 30
0.000000
  70
    32
  0
VERTEX
  8
0
  5
3E29
 10
1036.13
 20
502.182
 30
0.000000
  70
    32
  0
VERTEX
  8
0
  5
3E2A
 10
1036.14
 20
502.195
 30
0.000000
  70
    32
  0
VERTEX
  8
0
  5
3E2B
 10
1036.15
 20
502.209
 30
0.000000
  70
    32
  0
VERTEX
  8
0
  5
3E2C
 10
1036.16
 20
502.222
 30
0.000000
  70
    32
  0
VERTEX
  8
0
  5
3E2D
 10
1036.17
 20
502.236
 30
0.000000
  70
    32
  0
VERTEX
  8
0
  5
3E2E
 10
1036.19
 20
502.249
 30
0.000000
  70
    32
  0
VERTEX
  8
0
  5
3E2F
 10
1036.20
 20
502.262
 30
0.000000
  70
    32
  0
VERTEX
  8
0
  5
3E30
 10
1036.21
 20
502.276
 30
0.000000
  70
    32
  0
VERTEX
  8
0
  5
3E31
 10
1036.22
 20
502.289
 30
0.000000
  70
    32
  0
VERTEX
  8
0
  5
3E32
 10
1036.23
 20
502.301
 30
0.000000
  70
    32
  0
VERTEX
  8
0
  5
3E33
 10
1036.25
 20
502.314
 30
0.000000
  70
    32
  0
VERTEX
  8
0
  5
3E34
 10
1036.26
 20
502.327
 30
0.000000
  70
    32
  0
VERTEX
  8
0
  5
3E35
 10
1036.27
 20
502.339
 30
0.000000
  70
    32
  0
VERTEX
  8
0
  5
3E36
 10
1036.28
 20
502.352
 30
0.000000
  70
    32
  0
VERTEX
  8
0
  5
3E37
 10
1036.29
 20
502.364
 30
0.000000
  70
    32
  0
VERTEX
  8
0
  5
3E38
 10
1036.30
 20
502.376
 30
0.000000
  70
    32
  0
VERTEX
  8
0
  5
3E39
 10
1036.32
 20
502.387
 30
0.000000
  70
    32
  0
VERTEX
  8
0
  5
3E3A
 10
1036.33
 20
502.399
 30
0.000000
  70
    32
  0
VERTEX
  8
0
  5
3E3B
 10
1036.34
 20
502.410
 30
0.000000
  70
    32
  0
VERTEX
  8
0
  5
3E3C
 10
1036.35
 20
502.422
 30
0.000000
  70
    32
  0
VERTEX
  8
0
  5
3E3D
 10
1036.36
 20
502.433
 30
0.000000
  70
    32
  0
VERTEX
  8
0
  5
3E3E
 10
1036.37
 20
502.444
 30
0.000000
  70
    32
  0
VERTEX
  8
0
  5
3E3F
 10
1036.39
 20
502.454
 30
0.000000
  70
    32
  0
VERTEX
  8
0
  5
3E40
 10
1036.40
 20
502.465
 30
0.000000
  70
    32
  0
VERTEX
  8
0
  5
3E41
 10
1036.41
 20
502.475
 30
0.000000
  70
    32
  0
VERTEX
  8
0
  5
3E42
 10
1036.42
 20
502.485
 30
0.000000
  70
    32
  0
VERTEX
  8
0
  5
3E43
 10
1036.43
 20
502.495
 30
0.000000
  70
    32
  0
VERTEX
  8
0
  5
3E44
 10
1036.44
 20
502.504
 30
0.000000
  70
    32
  0
VERTEX
  8
0
  5
3E45
 10
1036.45
 20
502.513
 30
0.000000
  70
    32
  0
VERTEX
  8
0
  5
3E46
 10
1036.47
 20
502.522
 30
0.000000
  70
    32
  0
VERTEX
  8
0
  5
3E47
 10
1036.48
 20
502.531
 30
0.000000
  70
    32
  0
VERTEX
  8
0
  5
3E48
 10
1036.49
 20
502.540
 30
0.000000
  70
    32
  0
VERTEX
  8
0
  5
3E49
 10
1036.50
 20
502.548
 30
0.000000
  70
    32
  0
VERTEX
  8
0
  5
3E4A
 10
1036.51
 20
502.556
 30
0.000000
  70
    32
  0
VERTEX
  8
0
  5
3E4B
 10
1036.52
 20
502.564
 30
0.000000
  70
    32
  0
VERTEX
  8
0
  5
3E4C
 10
1036.54
 20
502.571
 30
0.000000
  70
    32
  0
VERTEX
  8
0
  5
3E4D
 10
1036.55
 20
502.578
 30
0.000000
  70
    32
  0
VERTEX
  8
0
  5
3E4E
 10
1036.56
 20
502.585
 30
0.000000
  70
    32
  0
VERTEX
  8
0
  5
3E4F
 10
1036.57
 20
502.592
 30
0.000000
  70
    32
  0
VERTEX
  8
0
  5
3E50
 10
1036.58
 20
502.598
 30
0.000000
  70
    32
  0
VERTEX
  8
0
  5
3E51
 10
1036.59
 20
502.604
 30
0.000000
  70
    32
  0
VERTEX
  8
0
  5
3E52
 10
1036.60
 20
502.609
 30
0.000000
  70
    32
  0
VERTEX
  8
0
  5
3E53
 10
1036.62
 20
502.615
 30
0.000000
  70
    32
  0
VERTEX
  8
0
  5
3E54
 10
1036.63
 20
502.620
 30
0.000000
  70
    32
  0
VERTEX
  8
0
  5
3E55
 10
1036.64
 20
502.624
 30
0.000000
  70
    32
  0
VERTEX
  8
0
  5
3E56
 10
1036.65
 20
502.629
 30
0.000000
  70
    32
  0
VERTEX
  8
0
  5
3E57
 10
1036.66
 20
502.632
 30
0.000000
  70
    32
  0
VERTEX
  8
0
  5
3E58
 10
1036.67
 20
502.636
 30
0.000000
  70
    32
  0
VERTEX
  8
0
  5
3E59
 10
1036.68
 20
502.639
 30
0.000000
  70
    32
  0
VERTEX
  8
0
  5
3E5A
 10
1036.70
 20
502.642
 30
0.000000
  70
    32
  0
VERTEX
  8
0
  5
3E5B
 10
1036.71
 20
502.645
 30
0.000000
  70
    32
  0
VERTEX
  8
0
  5
3E5C
 10
1036.72
 20
502.647
 30
0.000000
  70
    32
  0
VERTEX
  8
0
  5
3E5D
 10
1036.73
 20
502.648
 30
0.000000
  70
    32
  0
VERTEX
  8
0
  5
3E5E
 10
1036.74
 20
502.650
 30
0.000000
  70
    32
  0
VERTEX
  8
0
  5
3E5F
 10
1036.75
 20
502.651
 30
0.000000
  70
    32
  0
VERTEX
  8
0
  5
3E60
 10
1036.76
 20
502.651
 30
0.000000
  70
    32
  0
VERTEX
  8
0
  5
3E61
 10
1036.77
 20
502.651
 30
0.000000
  70
    32
  0
VERTEX
  8
0
  5
3E62
 10
1036.79
 20
502.651
 30
0.000000
  70
    32
  0
VERTEX
  8
0
  5
3E63
 10
1036.80
 20
502.651
 30
0.000000
  70
    32
  0
VERTEX
  8
0
  5
3E64
 10
1036.81
 20
502.650
 30
0.000000
  70
    32
  0
VERTEX
  8
0
  5
3E65
 10
1036.82
 20
502.648
 30
0.000000
  70
    32
  0
VERTEX
  8
0
  5
3E66
 10
1036.83
 20
502.647
 30
0.000000
  70
    32
  0
VERTEX
  8
0
  5
3E67
 10
1036.84
 20
502.645
 30
0.000000
  70
    32
  0
VERTEX
  8
0
  5
3E68
 10
1036.85
 20
502.642
 30
0.000000
  70
    32
  0
VERTEX
  8
0
  5
3E69
 10
1036.86
 20
502.639
 30
0.000000
  70
    32
  0
VERTEX
  8
0
  5
3E6A
 10
1036.88
 20
502.636
 30
0.000000
  70
    32
  0
VERTEX
  8
0
  5
3E6B
 10
1036.89
 20
502.633
 30
0.000000
  70
    32
  0
VERTEX
  8
0
  5
3E6C
 10
1036.90
 20
502.629
 30
0.000000
  70
    32
  0
VERTEX
  8
0
  5
3E6D
 10
1036.91
 20
502.625
 30
0.000000
  70
    32
  0
VERTEX
  8
0
  5
3E6E
 10
1036.92
 20
502.621
 30
0.000000
  70
    32
  0
VERTEX
  8
0
  5
3E6F
 10
1036.93
 20
502.616
 30
0.000000
  70
    32
  0
VERTEX
  8
0
  5
3E70
 10
1036.94
 20
502.611
 30
0.000000
  70
    32
  0
VERTEX
  8
0
  5
3E71
 10
1036.95
 20
502.605
 30
0.000000
  70
    32
  0
VERTEX
  8
0
  5
3E72
 10
1036.96
 20
502.600
 30
0.000000
  70
    32
  0
VERTEX
  8
0
  5
3E73
 10
1036.97
 20
502.594
 30
0.000000
  70
    32
  0
VERTEX
  8
0
  5
3E74
 10
1036.99
 20
502.587
 30
0.000000
  70
    32
  0
VERTEX
  8
0
  5
3E75
 10
1037.00
 20
502.581
 30
0.000000
  70
    32
  0
VERTEX
  8
0
  5
3E76
 10
1037.01
 20
502.574
 30
0.000000
  70
    32
  0
VERTEX
  8
0
  5
3E77
 10
1037.02
 20
502.567
 30
0.000000
  70
    32
  0
VERTEX
  8
0
  5
3E78
 10
1037.03
 20
502.559
 30
0.000000
  70
    32
  0
VERTEX
  8
0
  5
3E79
 10
1037.04
 20
502.551
 30
0.000000
  70
    32
  0
VERTEX
  8
0
  5
3E7A
 10
1037.05
 20
502.543
 30
0.000000
  70
    32
  0
VERTEX
  8
0
  5
3E7B
 10
1037.06
 20
502.535
 30
0.000000
  70
    32
  0
VERTEX
  8
0
  5
3E7C
 10
1037.07
 20
502.527
 30
0.000000
  70
    32
  0
VERTEX
  8
0
  5
3E7D
 10
1037.08
 20
502.518
 30
0.000000
  70
    32
  0
VERTEX
  8
0
  5
3E7E
 10
1037.10
 20
502.509
 30
0.000000
  70
    32
  0
VERTEX
  8
0
  5
3E7F
 10
1037.11
 20
502.499
 30
0.000000
  70
    32
  0
VERTEX
  8
0
  5
3E80
 10
1037.12
 20
502.490
 30
0.000000
  70
    32
  0
VERTEX
  8
0
  5
3E81
 10
1037.13
 20
502.480
 30
0.000000
  70
    32
  0
VERTEX
  8
0
  5
3E82
 10
1037.14
 20
502.470
 30
0.000000
  70
    32
  0
VERTEX
  8
0
  5
3E83
 10
1037.15
 20
502.459
 30
0.000000
  70
    32
  0
VERTEX
  8
0
  5
3E84
 10
1037.16
 20
502.449
 30
0.000000
  70
    32
  0
VERTEX
  8
0
  5
3E85
 10
1037.17
 20
502.438
 30
0.000000
  70
    32
  0
VERTEX
  8
0
  5
3E86
 10
1037.18
 20
502.427
 30
0.000000
  70
    32
  0
VERTEX
  8
0
  5
3E87
 10
1037.19
 20
502.416
 30
0.000000
  70
    32
  0
VERTEX
  8
0
  5
3E88
 10
1037.20
 20
502.404
 30
0.000000
  70
    32
  0
VERTEX
  8
0
  5
3E89
 10
1037.21
 20
502.393
 30
0.000000
  70
    32
  0
VERTEX
  8
0
  5
3E8A
 10
1037.23
 20
502.381
 30
0.000000
  70
    32
  0
VERTEX
  8
0
  5
3E8B
 10
1037.24
 20
502.369
 30
0.000000
  70
    32
  0
VERTEX
  8
0
  5
3E8C
 10
1037.25
 20
502.357
 30
0.000000
  70
    32
  0
VERTEX
  8
0
  5
3E8D
 10
1037.26
 20
502.344
 30
0.000000
  70
    32
  0
VERTEX
  8
0
  5
3E8E
 10
1037.27
 20
502.331
 30
0.000000
  70
    32
  0
VERTEX
  8
0
  5
3E8F
 10
1037.28
 20
502.319
 30
0.000000
  70
    32
  0
VERTEX
  8
0
  5
3E90
 10
1037.29
 20
502.306
 30
0.000000
  70
    32
  0
VERTEX
  8
0
  5
3E91
 10
1037.30
 20
502.292
 30
0.000000
  70
    32
  0
VERTEX
  8
0
  5
3E92
 10
1037.31
 20
502.279
 30
0.000000
  70
    32
  0
VERTEX
  8
0
  5
3E93
 10
1037.32
 20
502.265
 30
0.000000
  70
    32
  0
VERTEX
  8
0
  5
3E94
 10
1037.33
 20
502.252
 30
0.000000
  70
    32
  0
VERTEX
  8
0
  5
3E95
 10
1037.34
 20
502.238
 30
0.000000
  70
    32
  0
VERTEX
  8
0
  5
3E96
 10
1037.35
 20
502.224
 30
0.000000
  70
    32
  0
VERTEX
  8
0
  5
3E97
 10
1037.36
 20
502.210
 30
0.000000
  70
    32
  0
VERTEX
  8
0
  5
3E98
 10
1037.38
 20
502.195
 30
0.000000
  70
    32
  0
VERTEX
  8
0
  5
3E99
 10
1037.39
 20
502.181
 30
0.000000
  70
    32
  0
VERTEX
  8
0
  5
3E9A
 10
1037.40
 20
502.166
 30
0.000000
  70
    32
  0
VERTEX
  8
0
  5
3E9B
 10
1037.41
 20
502.151
 30
0.000000
  70
    32
  0
VERTEX
  8
0
  5
3E9C
 10
1037.42
 20
502.136
 30
0.000000
  70
    32
  0
VERTEX
  8
0
  5
3E9D
 10
1037.43
 20
502.121
 30
0.000000
  70
    32
  0
VERTEX
  8
0
  5
3E9E
 10
1037.44
 20
502.106
 30
0.000000
  70
    32
  0
VERTEX
  8
0
  5
3E9F
 10
1037.45
 20
502.091
 30
0.000000
  70
    32
  0
VERTEX
  8
0
  5
3EA0
 10
1037.46
 20
502.076
 30
0.000000
  70
    32
  0
VERTEX
  8
0
  5
3EA1
 10
1037.47
 20
502.060
 30
0.000000
  70
    32
  0
VERTEX
  8
0
  5
3EA2
 10
1037.48
 20
502.045
 30
0.000000
  70
    32
  0
VERTEX
  8
0
  5
3EA3
 10
1037.49
 20
502.029
 30
0.000000
  70
    32
  0
VERTEX
  8
0
  5
3EA4
 10
1037.50
 20
502.013
 30
0.000000
  70
    32
  0
VERTEX
  8
0
  5
3EA5
 10
1037.51
 20
501.997
 30
0.000000
  70
    32
  0
VERTEX
  8
0
  5
3EA6
 10
1037.52
 20
501.981
 30
0.000000
  70
    32
  0
VERTEX
  8
0
  5
3EA7
 10
1037.54
 20
501.965
 30
0.000000
  70
    32
  0
VERTEX
  8
0
  5
3EA8
 10
1037.55
 20
501.949
 30
0.000000
  70
    32
  0
VERTEX
  8
0
  5
3EA9
 10
1037.56
 20
501.933
 30
0.000000
  70
    32
  0
VERTEX
  8
0
  5
3EAA
 10
1037.57
 20
501.916
 30
0.000000
  70
    32
  0
VERTEX
  8
0
  5
3EAB
 10
1037.58
 20
501.900
 30
0.000000
  70
    32
  0
VERTEX
  8
0
  5
3EAC
 10
1037.59
 20
501.884
 30
0.000000
  70
    32
  0
VERTEX
  8
0
  5
3EAD
 10
1037.60
 20
501.867
 30
0.000000
  70
    32
  0
VERTEX
  8
0
  5
3EAE
 10
1037.61
 20
501.851
 30
0.000000
  70
    32
  0
VERTEX
  8
0
  5
3EAF
 10
1037.62
 20
501.834
 30
0.000000
  70
    32
  0
VERTEX
  8
0
  5
3EB0
 10
1037.63
 20
501.817
 30
0.000000
  70
    32
  0
VERTEX
  8
0
  5
3EB1
 10
1037.64
 20
501.801
 30
0.000000
  70
    32
  0
VERTEX
  8
0
  5
3EB2
 10
1037.65
 20
501.784
 30
0.000000
  70
    32
  0
VERTEX
  8
0
  5
3EB3
 10
1037.66
 20
501.767
 30
0.000000
  70
    32
  0
VERTEX
  8
0
  5
3EB4
 10
1037.67
 20
501.750
 30
0.000000
  70
    32
  0
VERTEX
  8
0
  5
3EB5
 10
1037.68
 20
501.734
 30
0.000000
  70
    32
  0
VERTEX
  8
0
  5
3EB6
 10
1037.69
 20
501.717
 30
0.000000
  70
    32
  0
VERTEX
  8
0
  5
3EB7
 10
1037.71
 20
501.700
 30
0.000000
  70
    32
  0
VERTEX
  8
0
  5
3EB8
 10
1037.72
 20
501.683
 30
0.000000
  70
    32
  0
VERTEX
  8
0
  5
3EB9
 10
1037.73
 20
501.666
 30
0.000000
  70
    32
  0
VERTEX
  8
0
  5
3EBA
 10
1037.74
 20
501.649
 30
0.000000
  70
    32
  0
SEQEND
  8
0
  5
3EBB
  0
POLYLINE
  8
0
  5
3EBC
  66
     1
 10
0.000000
 20
0.000000
 30
0.000000
  70
     8
  0
VERTEX
  8
0
  5
3EBD
 10
1019.74
 20
514.099
 30
0.000000
  70
    32
  0
VERTEX
  8
0
  5
3EBE
 10
1019.75
 20
514.073
 30
0.000000
  70
    32
  0
VERTEX
  8
0
  5
3EBF
 10
1019.76
 20
514.047
 30
0.000000
  70
    32
  0
VERTEX
  8
0
  5
3EC0
 10
1019.77
 20
514.021
 30
0.000000
  70
    32
  0
VERTEX
  8
0
  5
3EC1
 10
1019.78
 20
513.995
 30
0.000000
  70
    32
  0
VERTEX
  8
0
  5
3EC2
 10
1019.79
 20
513.969
 30
0.000000
  70
    32
  0
VERTEX
  8
0
  5
3EC3
 10
1019.80
 20
513.943
 30
0.000000
  70
    32
  0
VERTEX
  8
0
  5
3EC4
 10
1019.81
 20
513.917
 30
0.000000
  70
    32
  0
VERTEX
  8
0
  5
3EC5
 10
1019.82
 20
513.891
 30
0.000000
  70
    32
  0
VERTEX
  8
0
  5
3EC6
 10
1019.83
 20
513.865
 30
0.000000
  70
    32
  0
VERTEX
  8
0
  5
3EC7
 10
1019.84
 20
513.840
 30
0.000000
  70
    32
  0
VERTEX
  8
0
  5
3EC8
 10
1019.85
 20
513.814
 30
0.000000
  70
    32
  0
VERTEX
  8
0
  5
3EC9
 10
1019.86
 20
513.788
 30
0.000000
  70
    32
  0
VERTEX
  8
0
  5
3ECA
 10
1019.88
 20
513.763
 30
0.000000
  70
    32
  0
VERTEX
  8
0
  5
3ECB
 10
1019.89
 20
513.737
 30
0.000000
  70
    32
  0
VERTEX
  8
0
  5
3ECC
 10
1019.90
 20
513.712
 30
0.000000
  70
    32
  0
VERTEX
  8
0
  5
3ECD
 10
1019.91
 20
513.687
 30
0.000000
  70
    32
  0
VERTEX
  8
0
  5
3ECE
 10
1019.92
 20
513.661
 30
0.000000
  70
    32
  0
VERTEX
  8
0
  5
3ECF
 10
1019.93
 20
513.636
 30
0.000000
  70
    32
  0
VERTEX
  8
0
  5
3ED0
 10
1019.94
 20
513.612
 30
0.000000
  70
    32
  0
VERTEX
  8
0
  5
3ED1
 10
1019.95
 20
513.587
 30
0.000000
  70
    32
  0
VERTEX
  8
0
  5
3ED2
 10
1019.96
 20
513.562
 30
0.000000
  70
    32
  0
VERTEX
  8
0
  5
3ED3
 10
1019.97
 20
513.538
 30
0.000000
  70
    32
  0
VERTEX
  8
0
  5
3ED4
 10
1019.98
 20
513.513
 30
0.000000
  70
    32
  0
VERTEX
  8
0
  5
3ED5
 10
1019.99
 20
513.489
 30
0.000000
  70
    32
  0
VERTEX
  8
0
  5
3ED6
 10
1020.01
 20
513.465
 30
0.000000
  70
    32
  0
VERTEX
  8
0
  5
3ED7
 10
1020.02
 20
513.441
 30
0.000000
  70
    32
  0
VERTEX
  8
0
  5
3ED8
 10
1020.03
 20
513.418
 30
0.000000
  70
    32
  0
VERTEX
  8
0
  5
3ED9
 10
1020.04
 20
513.394
 30
0.000000
  70
    32
  0
VERTEX
  8
0
  5
3EDA
 10
1020.05
 20
513.371
 30
0.000000
  70
    32
  0
VERTEX
  8
0
  5
3EDB
 10
1020.06
 20
513.348
 30
0.000000
  70
    32
  0
VERTEX
  8
0
  5
3EDC
 10
1020.07
 20
513.325
 30
0.000000
  70
    32
  0
VERTEX
  8
0
  5
3EDD
 10
1020.08
 20
513.303
 30
0.000000
  70
    32
  0
VERTEX
  8
0
  5
3EDE
 10
1020.09
 20
513.280
 30
0.000000
  70
    32
  0
VERTEX
  8
0
  5
3EDF
 10
1020.10
 20
513.258
 30
0.000000
  70
    32
  0
VERTEX
  8
0
  5
3EE0
 10
1020.12
 20
513.236
 30
0.000000
  70
    32
  0
VERTEX
  8
0
  5
3EE1
 10
1020.13
 20
513.215
 30
0.000000
  70
    32
  0
VERTEX
  8
0
  5
3EE2
 10
1020.14
 20
513.193
 30
0.000000
  70
    32
  0
VERTEX
  8
0
  5
3EE3
 10
1020.15
 20
513.172
 30
0.000000
  70
    32
  0
VERTEX
  8
0
  5
3EE4
 10
1020.16
 20
513.151
 30
0.000000
  70
    32
  0
VERTEX
  8
0
  5
3EE5
 10
1020.17
 20
513.130
 30
0.000000
  70
    32
  0
VERTEX
  8
0
  5
3EE6
 10
1020.18
 20
513.110
 30
0.000000
  70
    32
  0
VERTEX
  8
0
  5
3EE7
 10
1020.20
 20
513.090
 30
0.000000
  70
    32
  0
VERTEX
  8
0
  5
3EE8
 10
1020.21
 20
513.070
 30
0.000000
  70
    32
  0
VERTEX
  8
0
  5
3EE9
 10
1020.22
 20
513.051
 30
0.000000
  70
    32
  0
VERTEX
  8
0
  5
3EEA
 10
1020.23
 20
513.032
 30
0.000000
  70
    32
  0
VERTEX
  8
0
  5
3EEB
 10
1020.24
 20
513.013
 30
0.000000
  70
    32
  0
VERTEX
  8
0
  5
3EEC
 10
1020.25
 20
512.994
 30
0.000000
  70
    32
  0
VERTEX
  8
0
  5
3EED
 10
1020.27
 20
512.976
 30
0.000000
  70
    32
  0
VERTEX
  8
0
  5
3EEE
 10
1020.28
 20
512.958
 30
0.000000
  70
    32
  0
VERTEX
  8
0
  5
3EEF
 10
1020.29
 20
512.941
 30
0.000000
  70
    32
  0
VERTEX
  8
0
  5
3EF0
 10
1020.30
 20
512.924
 30
0.000000
  70
    32
  0
VERTEX
  8
0
  5
3EF1
 10
1020.31
 20
512.907
 30
0.000000
  70
    32
  0
VERTEX
  8
0
  5
3EF2
 10
1020.32
 20
512.890
 30
0.000000
  70
    32
  0
VERTEX
  8
0
  5
3EF3
 10
1020.34
 20
512.874
 30
0.000000
  70
    32
  0
VERTEX
  8
0
  5
3EF4
 10
1020.35
 20
512.859
 30
0.000000
  70
    32
  0
VERTEX
  8
0
  5
3EF5
 10
1020.36
 20
512.843
 30
0.000000
  70
    32
  0
VERTEX
  8
0
  5
3EF6
 10
1020.37
 20
512.828
 30
0.000000
  70
    32
  0
VERTEX
  8
0
  5
3EF7
 10
1020.39
 20
512.814
 30
0.000000
  70
    32
  0
VERTEX
  8
0
  5
3EF8
 10
1020.40
 20
512.800
 30
0.000000
  70
    32
  0
VERTEX
  8
0
  5
3EF9
 10
1020.41
 20
512.786
 30
0.000000
  70
    32
  0
VERTEX
  8
0
  5
3EFA
 10
1020.42
 20
512.773
 30
0.000000
  70
    32
  0
VERTEX
  8
0
  5
3EFB
 10
1020.44
 20
512.760
 30
0.000000
  70
    32
  0
VERTEX
  8
0
  5
3EFC
 10
1020.45
 20
512.748
 30
0.000000
  70
    32
  0
VERTEX
  8
0
  5
3EFD
 10
1020.46
 20
512.736
 30
0.000000
  70
    32
  0
VERTEX
  8
0
  5
3EFE
 10
1020.47
 20
512.724
 30
0.000000
  70
    32
  0
VERTEX
  8
0
  5
3EFF
 10
1020.49
 20
512.713
 30
0.000000
  70
    32
  0
VERTEX
  8
0
  5
3F00
 10
1020.50
 20
512.703
 30
0.000000
  70
    32
  0
VERTEX
  8
0
  5
3F01
 10
1020.51
 20
512.692
 30
0.000000
  70
    32
  0
VERTEX
  8
0
  5
3F02
 10
1020.52
 20
512.683
 30
0.000000
  70
    32
  0
VERTEX
  8
0
  5
3F03
 10
1020.54
 20
512.674
 30
0.000000
  70
    32
  0
VERTEX
  8
0
  5
3F04
 10
1020.55
 20
512.665
 30
0.000000
  70
    32
  0
VERTEX
  8
0
  5
3F05
 10
1020.56
 20
512.657
 30
0.000000
  70
    32
  0
VERTEX
  8
0
  5
3F06
 10
1020.58
 20
512.649
 30
0.000000
  70
    32
  0
VERTEX
  8
0
  5
3F07
 10
1020.59
 20
512.642
 30
0.000000
  70
    32
  0
VERTEX
  8
0
  5
3F08
 10
1020.60
 20
512.635
 30
0.000000
  70
    32
  0
VERTEX
  8
0
  5
3F09
 10
1020.62
 20
512.629
 30
0.000000
  70
    32
  0
VERTEX
  8
0
  5
3F0A
 10
1020.63
 20
512.624
 30
0.000000
  70
    32
  0
VERTEX
  8
0
  5
3F0B
 10
1020.64
 20
512.619
 30
0.000000
  70
    32
  0
VERTEX
  8
0
  5
3F0C
 10
1020.66
 20
512.614
 30
0.000000
  70
    32
  0
VERTEX
  8
0
  5
3F0D
 10
1020.67
 20
512.610
 30
0.000000
  70
    32
  0
VERTEX
  8
0
  5
3F0E
 10
1020.69
 20
512.607
 30
0.000000
  70
    32
  0
VERTEX
  8
0
  5
3F0F
 10
1020.70
 20
512.604
 30
0.000000
  70
    32
  0
VERTEX
  8
0
  5
3F10
 10
1020.71
 20
512.602
 30
0.000000
  70
    32
  0
VERTEX
  8
0
  5
3F11
 10
1020.73
 20
512.600
 30
0.000000
  70
    32
  0
VERTEX
  8
0
  5
3F12
 10
1020.74
 20
512.599
 30
0.000000
  70
    32
  0
VERTEX
  8
0
  5
3F13
 10
1020.76
 20
512.598
 30
0.000000
  70
    32
  0
VERTEX
  8
0
  5
3F14
 10
1020.77
 20
512.599
 30
0.000000
  70
    32
  0
VERTEX
  8
0
  5
3F15
 10
1020.79
 20
512.599
 30
0.000000
  70
    32
  0
VERTEX
  8
0
  5
3F16
 10
1020.80
 20
512.601
 30
0.000000
  70
    32
  0
VERTEX
  8
0
  5
3F17
 10
1020.81
 20
512.602
 30
0.000000
  70
    32
  0
VERTEX
  8
0
  5
3F18
 10
1020.83
 20
512.605
 30
0.000000
  70
    32
  0
VERTEX
  8
0
  5
3F19
 10
1020.84
 20
512.608
 30
0.000000
  70
    32
  0
VERTEX
  8
0
  5
3F1A
 10
1020.86
 20
512.611
 30
0.000000
  70
    32
  0
VERTEX
  8
0
  5
3F1B
 10
1020.87
 20
512.615
 30
0.000000
  70
    32
  0
VERTEX
  8
0
  5
3F1C
 10
1020.89
 20
512.619
 30
0.000000
  70
    32
  0
VERTEX
  8
0
  5
3F1D
 10
1020.90
 20
512.624
 30
0.000000
  70
    32
  0
VERTEX
  8
0
  5
3F1E
 10
1020.92
 20
512.630
 30
0.000000
  70
    32
  0
VERTEX
  8
0
  5
3F1F
 10
1020.93
 20
512.636
 30
0.000000
  70
    32
  0
VERTEX
  8
0
  5
3F20
 10
1020.95
 20
512.642
 30
0.000000
  70
    32
  0
VERTEX
  8
0
  5
3F21
 10
1020.96
 20
512.649
 30
0.000000
  70
    32
  0
VERTEX
  8
0
  5
3F22
 10
1020.98
 20
512.657
 30
0.000000
  70
    32
  0
VERTEX
  8
0
  5
3F23
 10
1021.00
 20
512.665
 30
0.000000
  70
    32
  0
VERTEX
  8
0
  5
3F24
 10
1021.01
 20
512.673
 30
0.000000
  70
    32
  0
VERTEX
  8
0
  5
3F25
 10
1021.03
 20
512.682
 30
0.000000
  70
    32
  0
VERTEX
  8
0
  5
3F26
 10
1021.04
 20
512.691
 30
0.000000
  70
    32
  0
VERTEX
  8
0
  5
3F27
 10
1021.06
 20
512.701
 30
0.000000
  70
    32
  0
VERTEX
  8
0
  5
3F28
 10
1021.07
 20
512.711
 30
0.000000
  70
    32
  0
VERTEX
  8
0
  5
3F29
 10
1021.09
 20
512.721
 30
0.000000
  70
    32
  0
VERTEX
  8
0
  5
3F2A
 10
1021.11
 20
512.732
 30
0.000000
  70
    32
  0
VERTEX
  8
0
  5
3F2B
 10
1021.12
 20
512.743
 30
0.000000
  70
    32
  0
VERTEX
  8
0
  5
3F2C
 10
1021.14
 20
512.755
 30
0.000000
  70
    32
  0
VERTEX
  8
0
  5
3F2D
 10
1021.15
 20
512.767
 30
0.000000
  70
    32
  0
VERTEX
  8
0
  5
3F2E
 10
1021.17
 20
512.780
 30
0.000000
  70
    32
  0
VERTEX
  8
0
  5
3F2F
 10
1021.19
 20
512.792
 30
0.000000
  70
    32
  0
VERTEX
  8
0
  5
3F30
 10
1021.20
 20
512.806
 30
0.000000
  70
    32
  0
VERTEX
  8
0
  5
3F31
 10
1021.22
 20
512.819
 30
0.000000
  70
    32
  0
VERTEX
  8
0
  5
3F32
 10
1021.23
 20
512.833
 30
0.000000
  70
    32
  0
VERTEX
  8
0
  5
3F33
 10
1021.25
 20
512.847
 30
0.000000
  70
    32
  0
VERTEX
  8
0
  5
3F34
 10
1021.27
 20
512.862
 30
0.000000
  70
    32
  0
VERTEX
  8
0
  5
3F35
 10
1021.28
 20
512.877
 30
0.000000
  70
    32
  0
VERTEX
  8
0
  5
3F36
 10
1021.30
 20
512.892
 30
0.000000
  70
    32
  0
VERTEX
  8
0
  5
3F37
 10
1021.32
 20
512.907
 30
0.000000
  70
    32
  0
VERTEX
  8
0
  5
3F38
 10
1021.33
 20
512.923
 30
0.000000
  70
    32
  0
VERTEX
  8
0
  5
3F39
 10
1021.35
 20
512.939
 30
0.000000
  70
    32
  0
VERTEX
  8
0
  5
3F3A
 10
1021.37
 20
512.955
 30
0.000000
  70
    32
  0
VERTEX
  8
0
  5
3F3B
 10
1021.38
 20
512.972
 30
0.000000
  70
    32
  0
VERTEX
  8
0
  5
3F3C
 10
1021.40
 20
512.989
 30
0.000000
  70
    32
  0
VERTEX
  8
0
  5
3F3D
 10
1021.42
 20
513.006
 30
0.000000
  70
    32
  0
VERTEX
  8
0
  5
3F3E
 10
1021.43
 20
513.023
 30
0.000000
  70
    32
  0
VERTEX
  8
0
  5
3F3F
 10
1021.45
 20
513.041
 30
0.000000
  70
    32
  0
VERTEX
  8
0
  5
3F40
 10
1021.47
 20
513.059
 30
0.000000
  70
    32
  0
VERTEX
  8
0
  5
3F41
 10
1021.48
 20
513.077
 30
0.000000
  70
    32
  0
VERTEX
  8
0
  5
3F42
 10
1021.50
 20
513.095
 30
0.000000
  70
    32
  0
VERTEX
  8
0
  5
3F43
 10
1021.52
 20
513.113
 30
0.000000
  70
    32
  0
VERTEX
  8
0
  5
3F44
 10
1021.53
 20
513.132
 30
0.000000
  70
    32
  0
VERTEX
  8
0
  5
3F45
 10
1021.55
 20
513.151
 30
0.000000
  70
    32
  0
VERTEX
  8
0
  5
3F46
 10
1021.57
 20
513.170
 30
0.000000
  70
    32
  0
VERTEX
  8
0
  5
3F47
 10
1021.59
 20
513.189
 30
0.000000
  70
    32
  0
VERTEX
  8
0
  5
3F48
 10
1021.60
 20
513.209
 30
0.000000
  70
    32
  0
VERTEX
  8
0
  5
3F49
 10
1021.62
 20
513.228
 30
0.000000
  70
    32
  0
VERTEX
  8
0
  5
3F4A
 10
1021.64
 20
513.248
 30
0.000000
  70
    32
  0
VERTEX
  8
0
  5
3F4B
 10
1021.65
 20
513.268
 30
0.000000
  70
    32
  0
VERTEX
  8
0
  5
3F4C
 10
1021.67
 20
513.288
 30
0.000000
  70
    32
  0
VERTEX
  8
0
  5
3F4D
 10
1021.69
 20
513.308
 30
0.000000
  70
    32
  0
VERTEX
  8
0
  5
3F4E
 10
1021.71
 20
513.328
 30
0.000000
  70
    32
  0
VERTEX
  8
0
  5
3F4F
 10
1021.72
 20
513.348
 30
0.000000
  70
    32
  0
VERTEX
  8
0
  5
3F50
 10
1021.74
 20
513.369
 30
0.000000
  70
    32
  0
VERTEX
  8
0
  5
3F51
 10
1021.76
 20
513.389
 30
0.000000
  70
    32
  0
VERTEX
  8
0
  5
3F52
 10
1021.78
 20
513.410
 30
0.000000
  70
    32
  0
VERTEX
  8
0
  5
3F53
 10
1021.79
 20
513.431
 30
0.000000
  70
    32
  0
VERTEX
  8
0
  5
3F54
 10
1021.81
 20
513.452
 30
0.000000
  70
    32
  0
VERTEX
  8
0
  5
3F55
 10
1021.83
 20
513.472
 30
0.000000
  70
    32
  0
VERTEX
  8
0
  5
3F56
 10
1021.84
 20
513.493
 30
0.000000
  70
    32
  0
VERTEX
  8
0
  5
3F57
 10
1021.86
 20
513.514
 30
0.000000
  70
    32
  0
VERTEX
  8
0
  5
3F58
 10
1021.88
 20
513.535
 30
0.000000
  70
    32
  0
VERTEX
  8
0
  5
3F59
 10
1021.90
 20
513.556
 30
0.000000
  70
    32
  0
VERTEX
  8
0
  5
3F5A
 10
1021.91
 20
513.577
 30
0.000000
  70
    32
  0
VERTEX
  8
0
  5
3F5B
 10
1021.93
 20
513.598
 30
0.000000
  70
    32
  0
VERTEX
  8
0
  5
3F5C
 10
1021.95
 20
513.619
 30
0.000000
  70
    32
  0
SEQEND
  8
0
  5
3F5D
  0
POLYLINE
  8
0
  5
3F5E
  66
     1
 10
0.000000
 20
0.000000
 30
0.000000
  70
     8
  0
VERTEX
  8
0
  5
3F5F
 10
1019.74
 20
502.099
 30
0.000000
  70
    32
  0
VERTEX
  8
0
  5
3F60
 10
1019.75
 20
502.125
 30
0.000000
  70
    32
  0
VERTEX
  8
0
  5
3F61
 10
1019.76
 20
502.151
 30
0.000000
  70
    32
  0
VERTEX
  8
0
  5
3F62
 10
1019.77
 20
502.178
 30
0.000000
  70
    32
  0
VERTEX
  8
0
  5
3F63
 10
1019.78
 20
502.204
 30
0.000000
  70
    32
  0
VERTEX
  8
0
  5
3F64
 10
1019.79
 20
502.230
 30
0.000000
  70
    32
  0
VERTEX
  8
0
  5
3F65
 10
1019.80
 20
502.256
 30
0.000000
  70
    32
  0
VERTEX
  8
0
  5
3F66
 10
1019.81
 20
502.282
 30
0.000000
  70
    32
  0
VERTEX
  8
0
  5
3F67
 10
1019.82
 20
502.307
 30
0.000000
  70
    32
  0
VERTEX
  8
0
  5
3F68
 10
1019.83
 20
502.333
 30
0.000000
  70
    32
  0
VERTEX
  8
0
  5
3F69
 10
1019.84
 20
502.359
 30
0.000000
  70
    32
  0
VERTEX
  8
0
  5
3F6A
 10
1019.85
 20
502.385
 30
0.000000
  70
    32
  0
VERTEX
  8
0
  5
3F6B
 10
1019.86
 20
502.410
 30
0.000000
  70
    32
  0
VERTEX
  8
0
  5
3F6C
 10
1019.88
 20
502.436
 30
0.000000
  70
    32
  0
VERTEX
  8
0
  5
3F6D
 10
1019.89
 20
502.461
 30
0.000000
  70
    32
  0
VERTEX
  8
0
  5
3F6E
 10
1019.90
 20
502.487
 30
0.000000
  70
    32
  0
VERTEX
  8
0
  5
3F6F
 10
1019.91
 20
502.512
 30
0.000000
  70
    32
  0
VERTEX
  8
0
  5
3F70
 10
1019.92
 20
502.537
 30
0.000000
  70
    32
  0
VERTEX
  8
0
  5
3F71
 10
1019.93
 20
502.562
 30
0.000000
  70
    32
  0
VERTEX
  8
0
  5
3F72
 10
1019.94
 20
502.587
 30
0.000000
  70
    32
  0
VERTEX
  8
0
  5
3F73
 10
1019.95
 20
502.612
 30
0.000000
  70
    32
  0
VERTEX
  8
0
  5
3F74
 10
1019.96
 20
502.636
 30
0.000000
  70
    32
  0
VERTEX
  8
0
  5
3F75
 10
1019.97
 20
502.661
 30
0.000000
  70
    32
  0
VERTEX
  8
0
  5
3F76
 10
1019.98
 20
502.685
 30
0.000000
  70
    32
  0
VERTEX
  8
0
  5
3F77
 10
1019.99
 20
502.709
 30
0.000000
  70
    32
  0
VERTEX
  8
0
  5
3F78
 10
1020.01
 20
502.733
 30
0.000000
  70
    32
  0
VERTEX
  8
0
  5
3F79
 10
1020.02
 20
502.757
 30
0.000000
  70
    32
  0
VERTEX
  8
0
  5
3F7A
 10
1020.03
 20
502.781
 30
0.000000
  70
    32
  0
VERTEX
  8
0
  5
3F7B
 10
1020.04
 20
502.804
 30
0.000000
  70
    32
  0
VERTEX
  8
0
  5
3F7C
 10
1020.05
 20
502.827
 30
0.000000
  70
    32
  0
VERTEX
  8
0
  5
3F7D
 10
1020.06
 20
502.850
 30
0.000000
  70
    32
  0
VERTEX
  8
0
  5
3F7E
 10
1020.07
 20
502.873
 30
0.000000
  70
    32
  0
VERTEX
  8
0
  5
3F7F
 10
1020.08
 20
502.896
 30
0.000000
  70
    32
  0
VERTEX
  8
0
  5
3F80
 10
1020.09
 20
502.918
 30
0.000000
  70
    32
  0
VERTEX
  8
0
  5
3F81
 10
1020.10
 20
502.940
 30
0.000000
  70
    32
  0
VERTEX
  8
0
  5
3F82
 10
1020.12
 20
502.962
 30
0.000000
  70
    32
  0
VERTEX
  8
0
  5
3F83
 10
1020.13
 20
502.984
 30
0.000000
  70
    32
  0
VERTEX
  8
0
  5
3F84
 10
1020.14
 20
503.005
 30
0.000000
  70
    32
  0
VERTEX
  8
0
  5
3F85
 10
1020.15
 20
503.027
 30
0.000000
  70
    32
  0
VERTEX
  8
0
  5
3F86
 10
1020.16
 20
503.048
 30
0.000000
  70
    32
  0
VERTEX
  8
0
  5
3F87
 10
1020.17
 20
503.068
 30
0.000000
  70
    32
  0
VERTEX
  8
0
  5
3F88
 10
1020.18
 20
503.088
 30
0.000000
  70
    32
  0
VERTEX
  8
0
  5
3F89
 10
1020.20
 20
503.109
 30
0.000000
  70
    32
  0
VERTEX
  8
0
  5
3F8A
 10
1020.21
 20
503.128
 30
0.000000
  70
    32
  0
VERTEX
  8
0
  5
3F8B
 10
1020.22
 20
503.148
 30
0.000000
  70
    32
  0
VERTEX
  8
0
  5
3F8C
 10
1020.23
 20
503.167
 30
0.000000
  70
    32
  0
VERTEX
  8
0
  5
3F8D
 10
1020.24
 20
503.186
 30
0.000000
  70
    32
  0
VERTEX
  8
0
  5
3F8E
 10
1020.25
 20
503.204
 30
0.000000
  70
    32
  0
VERTEX
  8
0
  5
3F8F
 10
1020.27
 20
503.222
 30
0.000000
  70
    32
  0
VERTEX
  8
0
  5
3F90
 10
1020.28
 20
503.240
 30
0.000000
  70
    32
  0
VERTEX
  8
0
  5
3F91
 10
1020.29
 20
503.258
 30
0.000000
  70
    32
  0
VERTEX
  8
0
  5
3F92
 10
1020.30
 20
503.275
 30
0.000000
  70
    32
  0
VERTEX
  8
0
  5
3F93
 10
1020.31
 20
503.292
 30
0.000000
  70
    32
  0
VERTEX
  8
0
  5
3F94
 10
1020.32
 20
503.308
 30
0.000000
  70
    32
  0
VERTEX
  8
0
  5
3F95
 10
1020.34
 20
503.324
 30
0.000000
  70
    32
  0
VERTEX
  8
0
  5
3F96
 10
1020.35
 20
503.340
 30
0.000000
  70
    32
  0
VERTEX
  8
0
  5
3F97
 10
1020.36
 20
503.355
 30
0.000000
  70
    32
  0
VERTEX
  8
0
  5
3F98
 10
1020.37
 20
503.370
 30
0.000000
  70
    32
  0
VERTEX
  8
0
  5
3F99
 10
1020.39
 20
503.385
 30
0.000000
  70
    32
  0
VERTEX
  8
0
  5
3F9A
 10
1020.40
 20
503.399
 30
0.000000
  70
    32
  0
VERTEX
  8
0
  5
3F9B
 10
1020.41
 20
503.412
 30
0.000000
  70
    32
  0
VERTEX
  8
0
  5
3F9C
 10
1020.42
 20
503.426
 30
0.000000
  70
    32
  0
VERTEX
  8
0
  5
3F9D
 10
1020.44
 20
503.438
 30
0.000000
  70
    32
  0
VERTEX
  8
0
  5
3F9E
 10
1020.45
 20
503.451
 30
0.000000
  70
    32
  0
VERTEX
  8
0
  5
3F9F
 10
1020.46
 20
503.463
 30
0.000000
  70
    32
  0
VERTEX
  8
0
  5
3FA0
 10
1020.47
 20
503.474
 30
0.000000
  70
    32
  0
VERTEX
  8
0
  5
3FA1
 10
1020.49
 20
503.485
 30
0.000000
  70
    32
  0
VERTEX
  8
0
  5
3FA2
 10
1020.50
 20
503.496
 30
0.000000
  70
    32
  0
VERTEX
  8
0
  5
3FA3
 10
1020.51
 20
503.506
 30
0.000000
  70
    32
  0
VERTEX
  8
0
  5
3FA4
 10
1020.52
 20
503.516
 30
0.000000
  70
    32
  0
VERTEX
  8
0
  5
3FA5
 10
1020.54
 20
503.525
 30
0.000000
  70
    32
  0
VERTEX
  8
0
  5
3FA6
 10
1020.55
 20
503.534
 30
0.000000
  70
    32
  0
VERTEX
  8
0
  5
3FA7
 10
1020.56
 20
503.542
 30
0.000000
  70
    32
  0
VERTEX
  8
0
  5
3FA8
 10
1020.58
 20
503.549
 30
0.000000
  70
    32
  0
VERTEX
  8
0
  5
3FA9
 10
1020.59
 20
503.557
 30
0.000000
  70
    32
  0
VERTEX
  8
0
  5
3FAA
 10
1020.60
 20
503.563
 30
0.000000
  70
    32
  0
VERTEX
  8
0
  5
3FAB
 10
1020.62
 20
503.569
 30
0.000000
  70
    32
  0
VERTEX
  8
0
  5
3FAC
 10
1020.63
 20
503.575
 30
0.000000
  70
    32
  0
VERTEX
  8
0
  5
3FAD
 10
1020.64
 20
503.580
 30
0.000000
  70
    32
  0
VERTEX
  8
0
  5
3FAE
 10
1020.66
 20
503.585
 30
0.000000
  70
    32
  0
VERTEX
  8
0
  5
3FAF
 10
1020.67
 20
503.588
 30
0.000000
  70
    32
  0
VERTEX
  8
0
  5
3FB0
 10
1020.69
 20
503.592
 30
0.000000
  70
    32
  0
VERTEX
  8
0
  5
3FB1
 10
1020.70
 20
503.595
 30
0.000000
  70
    32
  0
VERTEX
  8
0
  5
3FB2
 10
1020.71
 20
503.597
 30
0.000000
  70
    32
  0
VERTEX
  8
0
  5
3FB3
 10
1020.73
 20
503.599
 30
0.000000
  70
    32
  0
VERTEX
  8
0
  5
3FB4
 10
1020.74
 20
503.600
 30
0.000000
  70
    32
  0
VERTEX
  8
0
  5
3FB5
 10
1020.76
 20
503.600
 30
0.000000
  70
    32
  0
VERTEX
  8
0
  5
3FB6
 10
1020.77
 20
503.600
 30
0.000000
  70
    32
  0
VERTEX
  8
0
  5
3FB7
 10
1020.79
 20
503.599
 30
0.000000
  70
    32
  0
VERTEX
  8
0
  5
3FB8
 10
1020.80
 20
503.598
 30
0.000000
  70
    32
  0
VERTEX
  8
0
  5
3FB9
 10
1020.81
 20
503.596
 30
0.000000
  70
    32
  0
VERTEX
  8
0
  5
3FBA
 10
1020.83
 20
503.594
 30
0.000000
  70
    32
  0
VERTEX
  8
0
  5
3FBB
 10
1020.84
 20
503.591
 30
0.000000
  70
    32
  0
VERTEX
  8
0
  5
3FBC
 10
1020.86
 20
503.588
 30
0.000000
  70
    32
  0
VERTEX
  8
0
  5
3FBD
 10
1020.87
 20
503.584
 30
0.000000
  70
    32
  0
VERTEX
  8
0
  5
3FBE
 10
1020.89
 20
503.579
 30
0.000000
  70
    32
  0
VERTEX
  8
0
  5
3FBF
 10
1020.90
 20
503.574
 30
0.000000
  70
    32
  0
VERTEX
  8
0
  5
3FC0
 10
1020.92
 20
503.569
 30
0.000000
  70
    32
  0
VERTEX
  8
0
  5
3FC1
 10
1020.93
 20
503.563
 30
0.000000
  70
    32
  0
VERTEX
  8
0
  5
3FC2
 10
1020.95
 20
503.556
 30
0.000000
  70
    32
  0
VERTEX
  8
0
  5
3FC3
 10
1020.96
 20
503.549
 30
0.000000
  70
    32
  0
VERTEX
  8
0
  5
3FC4
 10
1020.98
 20
503.542
 30
0.000000
  70
    32
  0
VERTEX
  8
0
  5
3FC5
 10
1021.00
 20
503.534
 30
0.000000
  70
    32
  0
VERTEX
  8
0
  5
3FC6
 10
1021.01
 20
503.526
 30
0.000000
  70
    32
  0
VERTEX
  8
0
  5
3FC7
 10
1021.03
 20
503.517
 30
0.000000
  70
    32
  0
VERTEX
  8
0
  5
3FC8
 10
1021.04
 20
503.508
 30
0.000000
  70
    32
  0
VERTEX
  8
0
  5
3FC9
 10
1021.06
 20
503.498
 30
0.000000
  70
    32
  0
VERTEX
  8
0
  5
3FCA
 10
1021.07
 20
503.488
 30
0.000000
  70
    32
  0
VERTEX
  8
0
  5
3FCB
 10
1021.09
 20
503.477
 30
0.000000
  70
    32
  0
VERTEX
  8
0
  5
3FCC
 10
1021.11
 20
503.467
 30
0.000000
  70
    32
  0
VERTEX
  8
0
  5
3FCD
 10
1021.12
 20
503.455
 30
0.000000
  70
    32
  0
VERTEX
  8
0
  5
3FCE
 10
1021.14
 20
503.444
 30
0.000000
  70
    32
  0
VERTEX
  8
0
  5
3FCF
 10
1021.15
 20
503.431
 30
0.000000
  70
    32
  0
VERTEX
  8
0
  5
3FD0
 10
1021.17
 20
503.419
 30
0.000000
  70
    32
  0
VERTEX
  8
0
  5
3FD1
 10
1021.19
 20
503.406
 30
0.000000
  70
    32
  0
VERTEX
  8
0
  5
3FD2
 10
1021.20
 20
503.393
 30
0.000000
  70
    32
  0
VERTEX
  8
0
  5
3FD3
 10
1021.22
 20
503.380
 30
0.000000
  70
    32
  0
VERTEX
  8
0
  5
3FD4
 10
1021.23
 20
503.366
 30
0.000000
  70
    32
  0
VERTEX
  8
0
  5
3FD5
 10
1021.25
 20
503.351
 30
0.000000
  70
    32
  0
VERTEX
  8
0
  5
3FD6
 10
1021.27
 20
503.337
 30
0.000000
  70
    32
  0
VERTEX
  8
0
  5
3FD7
 10
1021.28
 20
503.322
 30
0.000000
  70
    32
  0
VERTEX
  8
0
  5
3FD8
 10
1021.30
 20
503.307
 30
0.000000
  70
    32
  0
VERTEX
  8
0
  5
3FD9
 10
1021.32
 20
503.291
 30
0.000000
  70
    32
  0
VERTEX
  8
0
  5
3FDA
 10
1021.33
 20
503.276
 30
0.000000
  70
    32
  0
VERTEX
  8
0
  5
3FDB
 10
1021.35
 20
503.260
 30
0.000000
  70
    32
  0
VERTEX
  8
0
  5
3FDC
 10
1021.37
 20
503.243
 30
0.000000
  70
    32
  0
VERTEX
  8
0
  5
3FDD
 10
1021.38
 20
503.227
 30
0.000000
  70
    32
  0
VERTEX
  8
0
  5
3FDE
 10
1021.40
 20
503.210
 30
0.000000
  70
    32
  0
VERTEX
  8
0
  5
3FDF
 10
1021.42
 20
503.193
 30
0.000000
  70
    32
  0
VERTEX
  8
0
  5
3FE0
 10
1021.43
 20
503.175
 30
0.000000
  70
    32
  0
VERTEX
  8
0
  5
3FE1
 10
1021.45
 20
503.158
 30
0.000000
  70
    32
  0
VERTEX
  8
0
  5
3FE2
 10
1021.47
 20
503.140
 30
0.000000
  70
    32
  0
VERTEX
  8
0
  5
3FE3
 10
1021.48
 20
503.122
 30
0.000000
  70
    32
  0
VERTEX
  8
0
  5
3FE4
 10
1021.50
 20
503.104
 30
0.000000
  70
    32
  0
VERTEX
  8
0
  5
3FE5
 10
1021.52
 20
503.085
 30
0.000000
  70
    32
  0
VERTEX
  8
0
  5
3FE6
 10
1021.53
 20
503.067
 30
0.000000
  70
    32
  0
VERTEX
  8
0
  5
3FE7
 10
1021.55
 20
503.048
 30
0.000000
  70
    32
  0
VERTEX
  8
0
  5
3FE8
 10
1021.57
 20
503.029
 30
0.000000
  70
    32
  0
VERTEX
  8
0
  5
3FE9
 10
1021.59
 20
503.009
 30
0.000000
  70
    32
  0
VERTEX
  8
0
  5
3FEA
 10
1021.60
 20
502.990
 30
0.000000
  70
    32
  0
VERTEX
  8
0
  5
3FEB
 10
1021.62
 20
502.970
 30
0.000000
  70
    32
  0
VERTEX
  8
0
  5
3FEC
 10
1021.64
 20
502.951
 30
0.000000
  70
    32
  0
VERTEX
  8
0
  5
3FED
 10
1021.65
 20
502.931
 30
0.000000
  70
    32
  0
VERTEX
  8
0
  5
3FEE
 10
1021.67
 20
502.911
 30
0.000000
  70
    32
  0
VERTEX
  8
0
  5
3FEF
 10
1021.69
 20
502.891
 30
0.000000
  70
    32
  0
VERTEX
  8
0
  5
3FF0
 10
1021.71
 20
502.871
 30
0.000000
  70
    32
  0
VERTEX
  8
0
  5
3FF1
 10
1021.72
 20
502.850
 30
0.000000
  70
    32
  0
VERTEX
  8
0
  5
3FF2
 10
1021.74
 20
502.830
 30
0.000000
  70
    32
  0
VERTEX
  8
0
  5
3FF3
 10
1021.76
 20
502.809
 30
0.000000
  70
    32
  0
VERTEX
  8
0
  5
3FF4
 10
1021.78
 20
502.789
 30
0.000000
  70
    32
  0
VERTEX
  8
0
  5
3FF5
 10
1021.79
 20
502.768
 30
0.000000
  70
    32
  0
VERTEX
  8
0
  5
3FF6
 10
1021.81
 20
502.747
 30
0.000000
  70
    32
  0
VERTEX
  8
0
  5
3FF7
 10
1021.83
 20
502.726
 30
0.000000
  70
    32
  0
VERTEX
  8
0
  5
3FF8
 10
1021.84
 20
502.705
 30
0.000000
  70
    32
  0
VERTEX
  8
0
  5
3FF9
 10
1021.86
 20
502.684
 30
0.000000
  70
    32
  0
VERTEX
  8
0
  5
3FFA
 10
1021.88
 20
502.663
 30
0.000000
  70
    32
  0
VERTEX
  8
0
  5
3FFB
 10
1021.90
 20
502.642
 30
0.000000
  70
    32
  0
VERTEX
  8
0
  5
3FFC
 10
1021.91
 20
502.621
 30
0.000000
  70
    32
  0
VERTEX
  8
0
  5
3FFD
 10
1021.93
 20
502.600
 30
0.000000
  70
    32
  0
VERTEX
  8
0
  5
3FFE
 10
1021.95
 20
502.579
 30
0.000000
  70
    32
  0
SEQEND
  8
0
  5
3FFF
  0
LINE
  5
392F
  8
0
 10
1022.019797516409
 20
503.07919054967113
 30
0.0
 11
1021.736954516409
 21
501.09929154967102
 31
0.0
  0
LINE
  5
3930
  8
0
 10
1035.736954516409
 20
499.09929154967102
 30
0.0
 11
1021.736954516409
 21
501.09929154967102
 31
0.0
  0
LINE
  5
3931
  8
0
 10
1036.019797516409
 20
501.07919054967101
 30
0.0
 11
1022.019797516409
 21
503.07919054967113
 31
0.0
  0
ARC
  5
3932
  8
0
 10
1036.2369545164099
 20
497.29929154967101
 30
0.0
 40
1.0
 50
180.0
 51
270.0
  0
LINE
  5
3933
  8
0
 10
1036.2369545164099
 20
496.29929154967112
 30
0.0
 11
1047.736954516409
 21
496.29929154967112
 31
0.0
  0
LINE
  5
3936
  8
0
 10
1037.736954516409
 20
500.34929154967102
 30
0.0
 11
1047.3369545164089
 21
500.34929154967102
 31
0.0
  0
LINE
  5
3941
  8
0
 10
1057.236954516409
 20
498.39929154967109
 30
0.0
 11
1055.6869545164091
 21
498.39929154967109
 31
0.0
  0
ARC
  5
3944
  8
0
 10
1058.6369545164091
 20
493.29929154967101
 30
0.0
 40
1.0
 50
270.0
 51
0.0
  0
LINE
  5
3945
  8
0
 10
1057.236954516409
 20
492.29929154967112
 30
0.0
 11
1058.6369545164091
 21
492.29929154967112
 31
0.0
  0
LINE
  5
3946
  8
0
 10
1057.236954516409
 20
493.30582954967099
 30
0.0
 11
1057.236954516409
 21
490.42429154967101
 31
0.0
  0
ARC
  5
3947
  8
0
 10
1047.736954516409
 20
518.89929154967103
 30
0.0
 40
1.0
 50
0.0
 51
90.0
  0
ARC
  5
3948
  8
0
 10
1036.2369545164099
 20
518.89929154967103
 30
0.0
 40
1.0
 50
90.0
 51
180.0
  0
LINE
  5
3949
  8
0
 10
1037.736954516409
 20
515.84929154967108
 30
0.0
 11
1037.736954516409
 21
514.54929154967112
 31
0.0
  0
LINE
  5
394A
  8
0
 10
1036.019797516409
 20
515.11939254967092
 30
0.0
 11
1035.736954516409
 21
517.09929154967097
 31
0.0
  0
LINE
  5
394B
  8
0
 10
1035.736954516409
 20
517.09929154967097
 30
0.0
 11
1021.736954516409
 21
515.09929154967097
 31
0.0
  0
LINE
  5
394C
  8
0
 10
1036.2369545164099
 20
519.89929154967103
 30
0.0
 11
1047.736954516409
 21
519.89929154967103
 31
0.0
  0
LINE
  5
394D
  8
0
 10
1037.736954516409
 20
515.84929154967108
 30
0.0
 11
1047.3369545164089
 21
515.84929154967108
 31
0.0
  0
LINE
  5
394E
  8
0
 10
1057.236954516409
 20
523.89929154967103
 30
0.0
 11
1058.6369545164091
 21
523.89929154967103
 31
0.0
  0
ARC
  5
394F
  8
0
 10
1058.6369545164091
 20
522.89929154967103
 30
0.0
 40
1.0
 50
0.0
 51
90.0
  0
LINE
  5
3950
  8
0
 10
1057.236954516409
 20
525.77429154967103
 30
0.0
 11
1057.236954516409
 21
522.89275254967094
 31
0.0
  0
LINE
  5
3951
  8
0
 10
1057.236954516409
 20
517.79929154967112
 30
0.0
 11
1055.6869545164091
 21
517.79929154967112
 31
0.0
  0
ARC
  5
3952
  8
0
 10
1174.536954516409
 20
508.09929154967102
 30
0.0
 40
2.25
 50
90.0
 51
270.0
  0
LINE
  5
3954
  8
0
 10
1175.3369545164089
 20
510.34929154967102
 30
0.0
 11
1174.536954516409
 21
510.34929154967102
 31
0.0
  0
LINE
  5
3955
  8
0
 10
1175.3369545164089
 20
505.84929154967102
 30
0.0
 11
1174.536954516409
 21
505.84929154967102
 31
0.0
  0
LINE
  5
3956
  8
1
 10
1174.9369545164091
 20
514.09929154967108
 30
0.0
 11
1174.9369545164091
 21
502.09929154967102
 31
0.0
  0
ARC
  5
3957
  8
0
 10
1175.3369545164089
 20
508.09929154967102
 30
0.0
 40
2.25
 50
270.0
 51
90.0
  0
LINE
  5
3958
  8
0
 10
1313.0869545164089
 20
517.79929154967112
 30
0.0
 11
1313.0869545164089
 21
498.39929154967109
 31
0.0
  0
LINE
  5
3959
  8
0
 10
1314.6369545164091
 20
517.79929154967112
 30
0.0
 11
1314.6369545164091
 21
498.39929154967109
 31
0.0
  0
LINE
  5
395A
  8
0
 10
1317.8369545164089
 20
520.79929154967112
 30
0.0
 11
1317.8369545164089
 21
495.39929154967098
 31
0.0
  0
LINE
  5
395B
  8
0
 10
1307.0869545164101
 20
522.89275254967094
 30
0.0
 11
1307.0869545164101
 21
493.30582954967099
 31
0.0
  0
ARC
  5
395C
  8
0
 10
1298.7369545164099
 20
508.499291549671
 30
0.0
 40
2.25
 50
0.0
 51
180.0
  0
ARC
  5
395D
  8
0
 10
1298.7369545164099
 20
507.69929154967099
 30
0.0
 40
2.25
 50
180.0
 51
0.0
  0
ARC
  5
395E
  8
0
 10
1286.036954516409
 20
508.499291549671
 30
0.0
 40
2.25
 50
0.0
 51
180.0
  0
LINE
  5
395F
  8
0
 10
1283.786954516409
 20
508.499291549671
 30
0.0
 11
1283.786954516409
 21
507.69929154967099
 31
0.0
  0
LINE
  5
3960
  8
0
 10
1288.286954516409
 20
508.499291549671
 30
0.0
 11
1288.286954516409
 21
507.69929154967099
 31
0.0
  0
LINE
  5
3961
  8
1
 10
1286.036954516409
 20
514.09929154967108
 30
0.0
 11
1286.036954516409
 21
502.09929154967102
 31
0.0
  0
ARC
  5
3962
  8
0
 10
1286.036954516409
 20
507.69929154967099
 30
0.0
 40
2.25
 50
180.0
 51
0.0
  0
LINE
  5
3963
  8
0
 10
1296.486954516409
 20
508.499291549671
 30
0.0
 11
1296.486954516409
 21
507.69929154967099
 31
0.0
  0
LINE
  5
3964
  8
0
 10
1300.9869545164099
 20
508.499291549671
 30
0.0
 11
1300.9869545164099
 21
507.69929154967099
 31
0.0
  0
LINE
  5
3965
  8
0
 10
1314.6369545164091
 20
498.39929154967109
 30
0.0
 11
1313.0869545164089
 21
498.39929154967109
 31
0.0
  0
LINE
  5
3966
  8
0
 10
1314.6369545164091
 20
492.39929154967098
 30
0.0
 11
1314.8369545164089
 21
492.39929154967098
 31
0.0
  0
LINE
  5
3967
  8
0
 10
1314.6369545164091
 20
493.30582954967099
 30
0.0
 11
1314.6369545164091
 21
490.42429154967101
 31
0.0
  0
ARC
  5
3968
  8
0
 10
1314.8369545164089
 20
495.39929154967098
 30
0.0
 40
3.0
 50
270.0
 51
0.0
  0
LINE
  5
3969
  8
1
 10
1298.7369545164099
 20
514.09929154967108
 30
0.0
 11
1298.7369545164099
 21
502.09929154967102
 31
0.0
  0
LINE
  5
396A
  8
0
 10
1314.6369545164091
 20
523.79929154967112
 30
0.0
 11
1314.8369545164089
 21
523.79929154967112
 31
0.0
  0
LINE
  5
396B
  8
0
 10
1314.6369545164091
 20
522.89275254967094
 30
0.0
 11
1314.6369545164091
 21
525.77429154967103
 31
0.0
  0
LINE
  5
396C
  8
0
 10
1314.6369545164091
 20
517.79929154967112
 30
0.0
 11
1313.0869545164089
 21
517.79929154967112
 31
0.0
  0
ARC
  5
396D
  8
0
 10
1314.8369545164089
 20
520.79929154967112
 30
0.0
 40
3.0
 50
0.0
 51
90.0
  0
LINE
  5
399D
  8
0
 10
478.22794511265499
 20
502.2526702438571
 30
0.0
 11
476.73470751640929
 21
502.81263454967097
 31
0.0
  0
LINE
  5
399E
  8
2
 10
479.436954516409
 20
514.39929154967103
 30
0.0
 11
478.22794466890292
 21
513.94591313648675
 31
0.0
  0
LINE
  5
399F
  8
0
 10
494.58695451640909
 20
504.66275036422923
 30
0.0
 11
494.58695451640909
 21
511.53583273511271
 31
0.0
  0
LINE
  5
39A0
  8
2
 10
494.58695451640909
 20
511.53583273511282
 30
0.0
 11
494.58695451640909
 21
512.09929154967097
 31
0.0
  0
TEXT
  5
3A55
  8
0
 62
     3
 10
0.0
 20
0.0
 30
0.0
 40
10.0
  1
RS35D-22M
  7
STANDARD1
  0
ENDSEC
  0
EOF
