  0
SECTION
  2
HEADER
  9
$ACADVER
  1
AC1009
  9
$INSBASE
 10
0.0
 20
0.0
 30
0.0
  9
$EXTMIN
 10
0.0
 20
-2.960436562073669
 30
0.0
  9
$EXTMAX
 10
1643.5562584445211
 20
660.4607280128846
 30
0.0
  9
$LIMMIN
 10
0.0
 20
0.0
  9
$LIMMAX
 10
187.5
 20
135.0
  9
$ORTHOMODE
 70
     1
  9
$REGENMODE
 70
     1
  9
$FILLMODE
 70
     1
  9
$QTEXTMODE
 70
     0
  9
$MIRRTEXT
 70
     0
  9
$DRAGMODE
 70
     2
  9
$LTSCALE
 40
5.0
  9
$OSMODE
 70
    55
  9
$ATTMODE
 70
     1
  9
$TEXTSIZE
 40
2.5
  9
$TRACEWID
 40
0.05
  9
$TEXTSTYLE
  7
STANDARD
  9
$CLAYER
  8
2
  9
$CELTYPE
  6
BYLAYER
  9
$CECOLOR
 62
   256
  9
$DIMSCALE
 40
0.5
  9
$DIMASZ
 40
3.0
  9
$DIMEXO
 40
2.0
  9
$DIMDLI
 40
10.0
  9
$DIMRND
 40
0.0
  9
$DIMDLE
 40
0.0
  9
$DIMEXE
 40
2.0
  9
$DIMTP
 40
0.0
  9
$DIMTM
 40
0.0
  9
$DIMTXT
 40
3.0
  9
$DIMCEN
 40
0.09
  9
$DIMTSZ
 40
0.0
  9
$DIMTOL
 70
     0
  9
$DIMLIM
 70
     0
  9
$DIMTIH
 70
     0
  9
$DIMTOH
 70
     0
  9
$DIMSE1
 70
     0
  9
$DIMSE2
 70
     0
  9
$DIMTAD
 70
     1
  9
$DIMZIN
 70
     0
  9
$DIMBLK
  1

  9
$DIMASO
 70
     0
  9
$DIMSHO
 70
     0
  9
$DIMPOST
  1

  9
$DIMAPOST
  1

  9
$DIMALT
 70
     0
  9
$DIMALTD
 70
     2
  9
$DIMALTF
 40
25.399999999999999
  9
$DIMLFAC
 40
1.0
  9
$DIMTOFL
 70
     1
  9
$DIMTVP
 40
1.6000000000000001
  9
$DIMTIX
 70
     1
  9
$DIMSOXD
 70
     0
  9
$DIMSAH
 70
     0
  9
$DIMBLK1
  1

  9
$DIMBLK2
  1

  9
$DIMSTYLE
  2
STANDARD
  9
$DIMCLRD
 70
     0
  9
$DIMCLRE
 70
     0
  9
$DIMCLRT
 70
     0
  9
$DIMTFAC
 40
1.0
  9
$DIMGAP
 40
0.09
  9
$LUNITS
 70
     2
  9
$LUPREC
 70
     4
  9
$SKETCHINC
 40
0.1
  9
$FILLETRAD
 40
0.0
  9
$AUNITS
 70
     0
  9
$AUPREC
 70
     0
  9
$MENU
  1
E:\r13\win\SUPPORT\ACAD
  9
$ELEVATION
 40
0.0
  9
$PELEVATION
 40
0.0
  9
$THICKNESS
 40
0.0
  9
$LIMCHECK
 70
     0
  9
$BLIPMODE
 70
     0
  9
$CHAMFERA
 40
1.6000000000000001
  9
$CHAMFERB
 40
1.6000000000000001
  9
$SKPOLY
 70
     0
  9
$TDCREATE
 40
2449840.5944097228
  9
$TDUPDATE
 40
2456598.6048353929
  9
$TDINDWG
 40
0.2394640394
  9
$TDUSRTIMER
 40
0.2394640394
  9
$USRTIMER
 70
     1
  9
$ANGBASE
 50
0.0
  9
$ANGDIR
 70
     0
  9
$PDMODE
 70
     0
  9
$PDSIZE
 40
0.0
  9
$PLINEWID
 40
0.0
  9
$COORDS
 70
     1
  9
$SPLFRAME
 70
     0
  9
$SPLINETYPE
 70
     6
  9
$SPLINESEGS
 70
     8
  9
$ATTDIA
 70
     0
  9
$ATTREQ
 70
     1
  9
$HANDLING
 70
     1
  9
$HANDSEED
  5
68B0
  9
$SURFTAB1
 70
     6
  9
$SURFTAB2
 70
     6
  9
$SURFTYPE
 70
     6
  9
$SURFU
 70
     6
  9
$SURFV
 70
     6
  9
$UCSNAME
  2

  9
$UCSORG
 10
0.0
 20
0.0
 30
0.0
  9
$UCSXDIR
 10
1.0
 20
0.0
 30
0.0
  9
$UCSYDIR
 10
0.0
 20
1.0
 30
0.0
  9
$PUCSNAME
  2

  9
$PUCSORG
 10
0.0
 20
0.0
 30
0.0
  9
$PUCSXDIR
 10
1.0
 20
0.0
 30
0.0
  9
$PUCSYDIR
 10
0.0
 20
1.0
 30
0.0
  9
$USERI1
 70
     0
  9
$USERI2
 70
     1
  9
$USERI3
 70
     1
  9
$USERI4
 70
     0
  9
$USERI5
 70
     0
  9
$USERR1
 40
0.0
  9
$USERR2
 40
0.0
  9
$USERR3
 40
0.0
  9
$USERR4
 40
0.0
  9
$USERR5
 40
0.0
  9
$WORLDVIEW
 70
     1
  9
$SHADEDGE
 70
     3
  9
$SHADEDIF
 70
    70
  9
$TILEMODE
 70
     1
  9
$MAXACTVP
 70
    16
  9
$PLIMCHECK
 70
     0
  9
$PEXTMIN
 10
1.0000000000000000E+020
 20
1.0000000000000000E+020
 30
1.0000000000000000E+020
  9
$PEXTMAX
 10
-1.0000000000000000E+020
 20
-1.0000000000000000E+020
 30
-1.0000000000000000E+020
  9
$PLIMMIN
 10
0.0
 20
0.0
  9
$PLIMMAX
 10
12.0
 20
9.0
  9
$UNITMODE
 70
     0
  9
$VISRETAIN
 70
     0
  9
$PLINEGEN
 70
     0
  9
$PSLTSCALE
 70
     0
  0
ENDSEC
  0
SECTION
  2
TABLES
  0
TABLE
  2
VPORT
 70
     1
  0
VPORT
  2
*ACTIVE
 70
     0
 10
0.0
 20
0.0
 11
1.0
 21
1.0
 12
821.77813304896335
 22
477.66885109008228
 13
0.0
 23
0.0
 14
5.0
 24
5.0
 15
5.0
 25
5.0
 16
0.0
 26
0.0
 36
1.0
 17
0.0
 27
0.0
 37
0.0
 40
970.62496806139643
 41
1.7807262569832401
 42
50.0
 43
0.0
 44
0.0
 50
0.0
 51
0.0
 71
     0
 72
   100
 73
     1
 74
     0
 75
     0
 76
     0
 77
     0
 78
     0
  0
ENDTAB
  0
TABLE
  2
LTYPE
 70
     4
  0
LTYPE
  2
CONTINUOUS
 70
     0
  3
Solid Line
 72
    65
 73
     0
 40
0.0
  0
LTYPE
  2
CENTER
 70
     0
  3
____ _ ____ _ ____ _ ____ _ ____ _ ____ _ ____
 72
    65
 73
     4
 40
2.0
 49
1.25
 49
-0.25
 49
0.25
 49
-0.25
  0
LTYPE
  2
HIDDEN
 70
     0
  3
_ _ _ _ _ _ _ _ _ _ _ _ _ _ _ _ _ _ _ _ _ _ _
 72
    65
 73
     2
 40
0.375
 49
0.25
 49
-0.125
  0
LTYPE
  2
PHANTOM2
 70
     0
  3
___ _ _ ___ _ _ ___ _ _ ___ _ _
 72
    65
 73
     6
 40
1.25
 49
0.625
 49
-0.125
 49
0.125
 49
-0.125
 49
0.125
 49
-0.125
  0
ENDTAB
  0
TABLE
  2
LAYER
 70
     4
  0
LAYER
  2
0
 70
     0
 62
     7
  6
CONTINUOUS
  0
LAYER
  2
1
 70
     0
 62
     1
  6
CENTER
  0
LAYER
  2
2
 70
     0
 62
     2
  6
HIDDEN
  0
LAYER
  2
4
 70
     0
 62
     1
  6
CONTINUOUS
  0
ENDTAB
  0
TABLE
  2
STYLE
 70
     5
  0
STYLE
  2
STANDARD
 70
     0
 40
0.0
 41
1.0
 50
0.0
 71
     0
 42
2.5
  3
TXT
  4
BIGFONT
  0
STYLE
  2
KANJI
 70
     0
 40
0.0
 41
1.0
 50
0.0
 71
     0
 42
5.0
  3
TXT.SHX
  4
bigfont
  0
STYLE
  2
STYLE2
 70
     0
 40
13.0
 41
1.0
 50
0.0
 71
     0
 42
2.5
  3
C:\Program Files\AutoCAD LT\txt.shx
  4
C:\Program Files\AutoCAD LT\bigfont.shx
  0
STYLE
  2
STANDARD2
 70
     0
 40
8.0
 41
1.0
 50
0.0
 71
     0
 42
0.2
  3
C:\Program Files\AutoCAD LT\txt.shx
  4
C:\Program Files\AutoCAD LT\bigfont.shx
  0
STYLE
  2
STANDARD1
 70
     0
 40
0.0
 41
1.0
 50
0.0
 71
     0
 42
3.0
  3
txt
  4

  0
ENDTAB
  0
TABLE
  2
VIEW
 70
     1
  0
VIEW
  2
ALL
 70
     0
 40
135.0
 10
110.49579799999999
 20
67.5
 41
0.0
 11
0.0
 21
0.0
 31
1.0
 12
0.0
 22
0.0
 32
0.0
 42
0.0
 43
0.0
 44
0.0
 50
0.0
 71
     0
  0
ENDTAB
  0
TABLE
  2
UCS
 70
     0
  0
ENDTAB
  0
TABLE
  2
APPID
 70
     4
  0
APPID
  2
ACAD
 70
     0
  0
APPID
  2
DCO15
 70
     0
  0
APPID
  2
ACAD_MLEADERVER
 70
     0
  0
APPID
  2
ACAD_NAV_VCDISPLAY
 70
     0
  0
ENDTAB
  0
TABLE
  2
DIMSTYLE
 70
     1
  0
DIMSTYLE
  2
STANDARD
 70
     0
  3

  4

  5

  6

  7

 40
1.0
 41
0.18
 42
0.0625
 43
0.38
 44
0.18
 45
0.0
 46
0.0
 47
0.0
 48
0.0
140
0.18
141
0.09
142
0.0
143
25.399999999999999
144
1.0
145
0.0
146
1.0
147
0.09
 71
     0
 72
     0
 73
     1
 74
     1
 75
     0
 76
     0
 77
     0
 78
     0
170
     0
171
     2
172
     0
173
     0
174
     0
175
     0
176
     0
177
     0
178
     0
  0
ENDTAB
  0
ENDSEC
  0
SECTION
  2
BLOCKS
  0
BLOCK
  8
0
  2
$MODEL_SPACE
 70
     0
 10
0.0
 20
0.0
 30
0.0
  3
$MODEL_SPACE
  1

  0
ENDBLK
  5
15D
  8
0
  0
BLOCK
 67
     1
  8
0
  2
$PAPER_SPACE
 70
     0
 10
0.0
 20
0.0
 30
0.0
  3
$PAPER_SPACE
  1

  0
ENDBLK
  5
15B
 67
     1
  8
0
  0
BLOCK
  8
0
  2
STDGX5
 70
     0
 10
0.0
 20
0.0
 30
0.0
  3
STDGX5
  1

  0
ENDBLK
  5
41
  8
0
  0
ENDSEC
  0
SECTION
  2
ENTITIES
  0
INSERT
  5
CA
  8
0
  2
STDGX5
 10
0.0
 20
0.0
 30
0.0
  0
INSERT
  5
69A
  8
0
  2
STDGX5
 10
194.3272563481562
 20
13.52129245667936
 30
0.0
  0
INSERT
  5
1343
  8
0
  2
STDGX5
 10
563.10080863610574
 20
-59.557035590067017
 30
0.0
  0
INSERT
  5
1345
  8
0
  2
STDGX5
 10
757.42806498426194
 20
-46.035743133387648
 30
0.0
  0
ARC
  5
2542
  8
0
 10
112.7462584445211
 20
653.54795201288448
 30
0.0
 40
1.659999999999999
 50
0.0
 51
131.5067160000028
  0
LINE
  5
2543
  8
0
 10
108.4216294445209
 20
654.6642080128845
 30
0.0
 11
107.80625844452101
 21
653.84758201288446
 31
0.0
  0
LINE
  5
2544
  8
0
 10
107.80625844452101
 20
653.84758201288446
 30
0.0
 11
107.80625844452101
 21
653.20966801288455
 31
0.0
  0
ARC
  5
2545
  8
0
 10
112.7462584445211
 20
653.54795201288448
 30
0.0
 40
0.11
 50
0.0
 51
131.5067160000028
  0
ARC
  5
2546
  8
0
 10
109.9562584445211
 20
656.70072801288438
 30
0.0
 40
2.5499999999999989
 50
232.99999999999821
 51
311.45000000000618
  0
ARC
  5
2547
  8
0
 10
109.9562584445211
 20
656.70072801288438
 30
0.0
 40
4.0999999999999988
 50
238.37279600001011
 51
311.50671600000288
  0
LINE
  5
2548
  8
0
 10
108.4216294445209
 20
630.90724901288445
 30
0.0
 11
107.80625844452101
 21
631.72387501288438
 31
0.0
  0
LINE
  5
2549
  8
0
 10
107.80625844452101
 20
631.72387501288438
 30
0.0
 11
107.80625844452101
 21
632.3617880128844
 31
0.0
  0
ARC
  5
254A
  8
0
 10
112.7462584445211
 20
632.02350501288436
 30
0.0
 40
1.659999999999999
 50
228.4932839999972
 51
0.0
  0
ARC
  5
254B
  8
0
 10
112.7462584445211
 20
632.02350501288436
 30
0.0
 40
0.11
 50
228.4932839999972
 51
0.0
  0
ARC
  5
254C
  8
0
 10
109.9562584445211
 20
628.87072801288446
 30
0.0
 40
4.0999999999999988
 50
48.493283999997161
 51
121.6272039999898
  0
ARC
  5
254D
  8
0
 10
109.9562584445211
 20
628.87072801288446
 30
0.0
 40
2.5499999999999989
 50
48.549999999993823
 51
127.00000000000171
  0
LINE
  5
254E
  8
0
 10
112.8562584445212
 20
632.02350501288436
 30
0.0
 11
112.8562584445212
 21
653.54795201288448
 31
0.0
  0
LINE
  5
254F
  8
0
 10
114.4062584445209
 20
632.02350501288436
 30
0.0
 11
114.4062584445209
 21
653.54795201288448
 31
0.0
  0
LINE
  5
2550
  8
0
 10
114.4062584445209
 20
632.02350501288436
 30
0.0
 11
114.4062584445209
 21
653.54795201288448
 31
0.0
  0
ARC
  5
2551
  8
0
 10
118.8562584445212
 20
656.70072801288438
 30
0.0
 40
4.0999999999999988
 50
228.4932839999972
 51
301.62720399998989
  0
ARC
  5
2552
  8
0
 10
118.8562584445212
 20
656.70072801288438
 30
0.0
 40
2.5499999999999989
 50
228.5499999999939
 51
307.00000000000182
  0
ARC
  5
2553
  8
0
 10
116.0662584445212
 20
653.54795201288448
 30
0.0
 40
0.11
 50
48.493283999997161
 51
180.0
  0
LINE
  5
2554
  8
0
 10
121.0062584445209
 20
653.84758201288446
 30
0.0
 11
121.0062584445209
 21
653.20966801288455
 31
0.0
  0
LINE
  5
2555
  8
0
 10
120.3908864445206
 20
654.6642080128845
 30
0.0
 11
121.0062584445209
 21
653.84758201288446
 31
0.0
  0
ARC
  5
2556
  8
0
 10
116.0662584445212
 20
653.54795201288448
 30
0.0
 40
1.659999999999999
 50
48.493283999997161
 51
180.0
  0
ARC
  5
2557
  8
0
 10
118.8562584445212
 20
628.87072801288446
 30
0.0
 40
2.5499999999999989
 50
52.999999999998252
 51
131.45000000000621
  0
ARC
  5
2558
  8
0
 10
118.8562584445212
 20
628.87072801288446
 30
0.0
 40
4.0999999999999988
 50
58.372796000010119
 51
131.5067160000028
  0
ARC
  5
2559
  8
0
 10
116.0662584445212
 20
632.02350501288436
 30
0.0
 40
0.11
 50
180.0
 51
311.50671600000288
  0
ARC
  5
255A
  8
0
 10
116.0662584445212
 20
632.02350501288436
 30
0.0
 40
1.659999999999999
 50
180.0
 51
311.50671600000288
  0
LINE
  5
255B
  8
0
 10
121.0062584445209
 20
631.72387501288438
 30
0.0
 11
121.0062584445209
 21
632.3617880128844
 31
0.0
  0
LINE
  5
255C
  8
0
 10
120.3908864445206
 20
630.90724901288445
 30
0.0
 11
121.0062584445209
 21
631.72387501288438
 31
0.0
  0
LINE
  5
255D
  8
0
 10
114.4062584445209
 20
632.02350501288436
 30
0.0
 11
114.4062584445209
 21
653.54795201288448
 31
0.0
  0
LINE
  5
255E
  8
0
 10
114.4062584445209
 20
632.02350501288436
 30
0.0
 11
114.4062584445209
 21
653.54795201288448
 31
0.0
  0
LINE
  5
255F
  8
0
 10
115.9562584445211
 20
632.02350501288436
 30
0.0
 11
115.9562584445211
 21
653.54795201288448
 31
0.0
  0
POINT
  5
2671
  8
0
 10
123.9562584445212
 20
629.22471001288454
 30
0.0
  0
LINE
  5
2672
  8
0
 10
123.9562584445212
 20
629.22471001288454
 30
0.0
 11
123.9562584445212
 21
656.34674601288452
 31
0.0
  0
ARC
  5
2673
  8
0
 10
118.8562584445212
 20
656.53072801288454
 30
0.0
 40
2.379999999999999
 50
188.56954700000199
 51
345.43045300000171
  0
ARC
  5
2674
  8
0
 10
118.9562584445212
 20
656.36072801288435
 30
0.0
 40
4.0999999999999988
 50
44.999999999995389
 51
135.0000000000046
  0
LINE
  5
2676
  8
0
 10
120.7415254445209
 20
658.07778001288455
 30
0.0
 11
122.2366344445208
 21
656.51984901288438
 31
0.0
  0
LINE
  5
2677
  8
0
 10
121.8553954445207
 20
659.25986601288434
 30
0.0
 11
123.45496544452099
 21
657.59308401288456
 31
0.0
  0
LINE
  5
2678
  8
0
 10
112.7553962473862
 20
659.25986581574909
 30
0.0
 11
113.3162590582006
 21
658.67543701288446
 31
0.0
  0
LINE
  5
267A
  8
0
 10
113.72669244452121
 20
656.75103301288459
 30
0.0
 11
113.752860444521
 21
656.25171901288445
 31
0.0
  0
LINE
  5
267B
  8
0
 10
115.0858234445209
 20
656.75103301288459
 30
0.0
 11
115.059655444521
 21
656.25171901288445
 31
0.0
  0
LINE
  5
267C
  8
0
 10
121.3667254445208
 20
655.92117901288452
 30
0.0
 11
115.059655444521
 21
656.25171901288445
 31
0.0
  0
LINE
  5
267D
  8
0
 10
121.39289344452069
 20
656.42049401288455
 30
0.0
 11
115.0858234445209
 21
656.75103301288459
 31
0.0
  0
ARC
  5
267E
  8
0
 10
118.8562584445212
 20
656.53072801288454
 30
0.0
 40
2.379999999999999
 50
357.54585400000121
 51
176.45414600000061
  0
LINE
  5
267F
  8
0
 10
111.7591484445211
 20
658.16361901288451
 30
0.0
 11
112.3200104445209
 21
657.5791900128844
 31
0.0
  0
ARC
  5
2680
  8
0
 10
118.8562584445212
 20
656.36072801288435
 30
0.0
 40
2.5499999999999989
 50
42.326427999999758
 51
135.0000000000046
  0
LINE
  5
2681
  8
0
 10
117.0533674445209
 20
658.16361901288451
 30
0.0
 11
116.4925054445211
 21
657.5791900128844
 31
0.0
  0
LINE
  5
2682
  8
0
 10
116.0571206416562
 20
659.25986581574909
 30
0.0
 11
115.49625883084271
 21
658.67543701288446
 31
0.0
  0
ARC
  5
2683
  8
0
 10
122.05625844452101
 20
656.34674601288452
 30
0.0
 40
0.25
 50
0.0
 51
43.821186999997799
  0
ARC
  5
2684
  8
0
 10
121.3562584445212
 20
655.72145301288435
 30
0.0
 40
0.2
 50
0.0
 51
86.999999999994415
  0
ARC
  5
2685
  8
0
 10
121.3562584445212
 20
655.72145301288435
 30
0.0
 40
0.7
 50
0.0
 51
86.999999999994415
  0
ARC
  5
2686
  8
0
 10
106.6562584445208
 20
656.34674601288452
 30
0.0
 40
1.8
 50
136.17881300000221
 51
180.0
  0
LINE
  5
2687
  8
0
 10
106.9571204445209
 20
659.25986601288434
 30
0.0
 11
105.357550444521
 21
657.59308401288456
 31
0.0
  0
LINE
  5
2688
  8
0
 10
108.0709904445211
 20
658.07778001288455
 30
0.0
 11
106.5758824445211
 21
656.51984901288438
 31
0.0
  0
ARC
  5
2689
  8
0
 10
106.7562584445209
 20
656.34674601288452
 30
0.0
 40
0.25
 50
136.17881300000221
 51
180.0
  0
ARC
  5
268A
  8
0
 10
107.4562584445211
 20
655.72145301288435
 30
0.0
 40
0.7
 50
93.000000000005585
 51
180.0
  0
ARC
  5
268B
  8
0
 10
107.4562584445211
 20
655.72145301288435
 30
0.0
 40
0.2
 50
93.000000000005585
 51
180.0
  0
ARC
  5
268C
  8
0
 10
109.9562584445211
 20
656.53072801288454
 30
0.0
 40
2.379999999999999
 50
194.56954699999829
 51
351.43045299999801
  0
ARC
  5
268D
  8
0
 10
109.8562584445211
 20
656.36072801288435
 30
0.0
 40
4.0999999999999988
 50
44.999999999995389
 51
135.0000000000046
  0
ARC
  5
268E
  8
0
 10
109.9562584445211
 20
656.53072801288454
 30
0.0
 40
2.379999999999999
 50
3.545853999999327
 51
182.45414599999879
  0
LINE
  5
268F
  8
0
 10
107.4196224445209
 20
656.42049401288455
 30
0.0
 11
113.72669244452121
 21
656.75103301288459
 31
0.0
  0
LINE
  5
2690
  8
0
 10
107.44579044452119
 20
655.92117901288452
 30
0.0
 11
113.752860444521
 21
656.25171901288445
 31
0.0
  0
ARC
  5
2691
  8
0
 10
109.9562584445211
 20
656.36072801288435
 30
0.0
 40
2.5499999999999989
 50
44.999999999995389
 51
137.67357200000021
  0
LINE
  5
2692
  8
0
 10
121.8553954445207
 20
626.31159101288449
 30
0.0
 11
123.45496544452099
 21
627.97837201288451
 31
0.0
  0
LINE
  5
2693
  8
0
 10
120.7415254445209
 20
627.49367701288452
 30
0.0
 11
122.2366344445208
 21
629.05160801288446
 31
0.0
  0
LINE
  5
2694
  8
0
 10
117.0533674445209
 20
627.40783801288455
 30
0.0
 11
116.4925054445211
 21
627.99226701288455
 31
0.0
  0
LINE
  5
2696
  8
0
 10
116.05712044452061
 20
626.31159101288449
 30
0.0
 11
115.4962584445211
 21
626.89601901288449
 31
0.0
  0
ARC
  5
2697
  8
0
 10
118.9562584445212
 20
629.21072801288449
 30
0.0
 40
4.0999999999999988
 50
224.9999999999954
 51
315.0000000000046
  0
ARC
  5
2698
  8
0
 10
118.8562584445212
 20
629.21072801288449
 30
0.0
 40
2.5499999999999989
 50
224.9999999999954
 51
317.67357200000021
  0
ARC
  5
2699
  8
0
 10
122.05625844452101
 20
629.22471001288454
 30
0.0
 40
0.25
 50
316.17881300000209
 51
0.0
  0
LINE
  5
269B
  8
0
 10
112.7553962473862
 20
626.31159021001974
 30
0.0
 11
113.3162600178789
 21
626.89601901288449
 31
0.0
  0
LINE
  5
269C
  8
0
 10
111.7591484445211
 20
627.40783801288455
 30
0.0
 11
112.3200104445209
 21
627.99226701288455
 31
0.0
  0
ARC
  5
269D
  8
0
 10
119.6562584445209
 20
647.28572801288453
 30
0.0
 40
0.3
 50
90.0
 51
180.0
  0
LINE
  5
269E
  8
0
 10
121.2562584445209
 20
647.58572801288437
 30
0.0
 11
119.6562584445209
 21
647.58572801288437
 31
0.0
  0
ARC
  5
269F
  8
0
 10
121.2562584445209
 20
648.38572801288456
 30
0.0
 40
0.8
 50
270.0
 51
0.0
  0
ARC
  5
26A0
  8
0
 10
121.2562584445209
 20
648.38572801288456
 30
0.0
 40
0.3
 50
270.0
 51
0.0
  0
LINE
  5
26A1
  8
0
 10
121.2562584445209
 20
648.08572801288437
 30
0.0
 11
119.6562584445209
 21
648.08572801288437
 31
0.0
  0
ARC
  5
26A2
  8
0
 10
119.6562584445209
 20
647.28572801288453
 30
0.0
 40
0.8
 50
90.0
 51
180.0
  0
LINE
  5
26A3
  8
0
 10
119.3562584445212
 20
647.28572801288453
 30
0.0
 11
119.3562584445212
 21
638.28572801288453
 31
0.0
  0
LINE
  5
26A4
  8
0
 10
118.8562584445212
 20
647.28572801288453
 30
0.0
 11
118.8562584445212
 21
638.28572801288453
 31
0.0
  0
LINE
  5
26A5
  8
0
 10
122.05625844452101
 20
629.85000401288437
 30
0.0
 11
122.05625844452101
 21
637.1857280128844
 31
0.0
  0
LINE
  5
26A6
  8
0
 10
121.55625844452101
 20
629.85000401288437
 30
0.0
 11
121.55625844452101
 21
637.1857280128844
 31
0.0
  0
ARC
  5
26A7
  8
0
 10
121.2562584445209
 20
637.1857280128844
 30
0.0
 40
0.8
 50
0.0
 51
90.0
  0
LINE
  5
26A8
  8
0
 10
121.2562584445209
 20
637.98572801288435
 30
0.0
 11
119.6562584445209
 21
637.98572801288435
 31
0.0
  0
ARC
  5
26A9
  8
0
 10
119.6562584445209
 20
638.28572801288453
 30
0.0
 40
0.3
 50
180.0
 51
270.0
  0
ARC
  5
26AA
  8
0
 10
121.2562584445209
 20
637.1857280128844
 30
0.0
 40
0.3
 50
0.0
 51
90.0
  0
LINE
  5
26AB
  8
0
 10
121.2562584445209
 20
637.48572801288446
 30
0.0
 11
119.6562584445209
 21
637.48572801288446
 31
0.0
  0
ARC
  5
26AC
  8
0
 10
119.6562584445209
 20
638.28572801288453
 30
0.0
 40
0.8
 50
180.0
 51
270.0
  0
LINE
  5
26AD
  8
0
 10
115.0858234445209
 20
628.82042301288448
 30
0.0
 11
115.059655444521
 21
629.31973801288439
 31
0.0
  0
LINE
  5
26AE
  8
0
 10
113.72669244452121
 20
628.82042301288448
 30
0.0
 11
113.752860444521
 21
629.31973801288439
 31
0.0
  0
LINE
  5
26AF
  8
0
 10
121.3667254445208
 20
629.65027801288454
 30
0.0
 11
115.059655444521
 21
629.31973801288439
 31
0.0
  0
ARC
  5
26B0
  8
0
 10
118.8562584445212
 20
629.04072801288453
 30
0.0
 40
2.379999999999999
 50
14.569546999998311
 51
171.43045299999801
  0
LINE
  5
26B1
  8
0
 10
121.39289344452069
 20
629.15096301288452
 30
0.0
 11
115.0858234445209
 21
628.82042301288448
 31
0.0
  0
ARC
  5
26B2
  8
0
 10
118.8562584445212
 20
629.04072801288453
 30
0.0
 40
2.379999999999999
 50
183.54585399999931
 51
2.454145999998802
  0
ARC
  5
26B3
  8
0
 10
121.3562584445212
 20
629.85000401288437
 30
0.0
 40
0.2
 50
273.00000000000563
 51
0.0
  0
ARC
  5
26B4
  8
0
 10
121.3562584445212
 20
629.85000401288437
 30
0.0
 40
0.7
 50
273.00000000000563
 51
0.0
  0
LINE
  5
26B5
  8
0
 10
109.4562584445211
 20
647.28572801288453
 30
0.0
 11
109.4562584445211
 21
638.28572801288453
 31
0.0
  0
LINE
  5
26B6
  8
0
 10
109.9562584445211
 20
647.28572801288453
 30
0.0
 11
109.9562584445211
 21
638.28572801288453
 31
0.0
  0
ARC
  5
26B7
  8
0
 10
106.6562584445208
 20
629.22471001288454
 30
0.0
 40
1.8
 50
180.0
 51
223.82118699999779
  0
LINE
  5
26B8
  8
0
 10
106.9571204445209
 20
626.31159101288449
 30
0.0
 11
105.357550444521
 21
627.97837201288451
 31
0.0
  0
LINE
  5
26B9
  8
0
 10
108.0709904445211
 20
627.49367701288452
 30
0.0
 11
106.5758824445211
 21
629.05160801288446
 31
0.0
  0
ARC
  5
26BA
  8
0
 10
106.7562584445209
 20
629.22471001288454
 30
0.0
 40
0.25
 50
180.0
 51
223.82118699999779
  0
POINT
  5
26BB
  8
0
 10
104.8562584445211
 20
629.22471001288454
 30
0.0
  0
ARC
  5
26BC
  8
0
 10
107.55625844452101
 20
648.38572801288456
 30
0.0
 40
0.8
 50
180.0
 51
270.0
  0
ARC
  5
26BD
  8
0
 10
107.55625844452101
 20
648.38572801288456
 30
0.0
 40
0.3
 50
180.0
 51
270.0
  0
LINE
  5
26BE
  8
0
 10
107.55625844452101
 20
647.58572801288437
 30
0.0
 11
109.1562584445209
 21
647.58572801288437
 31
0.0
  0
LINE
  5
26BF
  8
0
 10
107.55625844452101
 20
648.08572801288437
 30
0.0
 11
109.1562584445209
 21
648.08572801288437
 31
0.0
  0
LINE
  5
26C0
  8
0
 10
106.7562584445209
 20
629.85000401288437
 30
0.0
 11
106.7562584445209
 21
637.1857280128844
 31
0.0
  0
LINE
  5
26C1
  8
0
 10
107.2562584445209
 20
629.85000401288437
 30
0.0
 11
107.2562584445209
 21
637.1857280128844
 31
0.0
  0
ARC
  5
26C2
  8
0
 10
107.55625844452101
 20
637.1857280128844
 30
0.0
 40
0.8
 50
90.0
 51
180.0
  0
ARC
  5
26C3
  8
0
 10
107.55625844452101
 20
637.1857280128844
 30
0.0
 40
0.3
 50
90.0
 51
180.0
  0
LINE
  5
26C4
  8
0
 10
107.55625844452101
 20
637.98572801288435
 30
0.0
 11
109.1562584445209
 21
637.98572801288435
 31
0.0
  0
LINE
  5
26C5
  8
0
 10
107.55625844452101
 20
637.48572801288446
 30
0.0
 11
109.1562584445209
 21
637.48572801288446
 31
0.0
  0
ARC
  5
26C6
  8
0
 10
107.4562584445211
 20
629.85000401288437
 30
0.0
 40
0.7
 50
180.0
 51
266.99999999999437
  0
ARC
  5
26C7
  8
0
 10
107.4562584445211
 20
629.85000401288437
 30
0.0
 40
0.2
 50
180.0
 51
266.99999999999437
  0
ARC
  5
26C8
  8
0
 10
109.1562584445209
 20
647.28572801288453
 30
0.0
 40
0.3
 50
0.0
 51
90.0
  0
ARC
  5
26C9
  8
0
 10
109.1562584445209
 20
647.28572801288453
 30
0.0
 40
0.8
 50
0.0
 51
90.0
  0
ARC
  5
26CA
  8
0
 10
109.1562584445209
 20
638.28572801288453
 30
0.0
 40
0.3
 50
270.0
 51
0.0
  0
ARC
  5
26CB
  8
0
 10
109.1562584445209
 20
638.28572801288453
 30
0.0
 40
0.8
 50
270.0
 51
0.0
  0
ARC
  5
26CC
  8
0
 10
109.8562584445211
 20
629.21072801288449
 30
0.0
 40
4.0999999999999988
 50
224.9999999999954
 51
315.0000000000046
  0
ARC
  5
26CD
  8
0
 10
109.9562584445211
 20
629.21072801288449
 30
0.0
 40
2.5499999999999989
 50
222.32642799999979
 51
315.0000000000046
  0
ARC
  5
26CE
  8
0
 10
109.9562584445211
 20
629.04072801288453
 30
0.0
 40
2.379999999999999
 50
8.5695470000019647
 51
165.43045300000159
  0
ARC
  5
26CF
  8
0
 10
109.9562584445211
 20
629.04072801288453
 30
0.0
 40
2.379999999999999
 50
177.54585400000121
 51
356.45414600000072
  0
LINE
  5
26D0
  8
0
 10
107.44579044452119
 20
629.65027801288454
 30
0.0
 11
113.752860444521
 21
629.31973801288439
 31
0.0
  0
LINE
  5
26D1
  8
0
 10
107.4196224445209
 20
629.15096301288452
 30
0.0
 11
113.72669244452121
 21
628.82042301288448
 31
0.0
  0
LINE
  5
26D2
  8
0
 10
122.30625844452101
 20
629.22471001288454
 30
0.0
 11
122.30625844452101
 21
656.34674601288452
 31
0.0
  0
LINE
  5
26D3
  8
0
 10
106.5062584445209
 20
629.22471001288454
 30
0.0
 11
106.5062584445209
 21
656.34674601288452
 31
0.0
  0
LINE
  5
26D4
  8
0
 10
104.8562584445211
 20
629.22471001288454
 30
0.0
 11
104.8562584445211
 21
656.34674601288452
 31
0.0
  0
LINE
  5
26D5
  8
0
 10
106.7562584445209
 20
655.72145301288435
 30
0.0
 11
106.7562584445209
 21
648.38572801288456
 31
0.0
  0
LINE
  5
26D6
  8
0
 10
107.2562584445209
 20
655.72145301288435
 30
0.0
 11
107.2562584445209
 21
648.38572801288456
 31
0.0
  0
LINE
  5
26D7
  8
0
 10
122.05625844452101
 20
655.72145301288435
 30
0.0
 11
122.05625844452101
 21
648.38572801288456
 31
0.0
  0
LINE
  5
26D8
  8
0
 10
121.55625844452101
 20
655.72145301288435
 30
0.0
 11
121.55625844452101
 21
648.38572801288456
 31
0.0
  0
LINE
  5
26D9
  8
1
 10
99.956258444521154
 20
642.78572801288453
 30
0.0
 11
128.85625844452119
 21
642.78572801288453
 31
0.0
  0
ARC
  5
26DA
  8
0
 10
122.1562584445211
 20
629.22471001288454
 30
0.0
 40
1.8
 50
316.17881300000209
 51
0.0
  0
ARC
  5
26DB
  8
0
 10
122.1562584445211
 20
656.34674601288452
 30
0.0
 40
1.8
 50
0.0
 51
43.821186999997799
  0
LINE
  5
2B56
  8
0
 10
115.49625883084271
 20
658.67543701288446
 30
0.0
 11
116.4925054445211
 21
657.5791900128844
 31
0.0
  0
LINE
  5
2B57
  8
0
 10
112.3200104445209
 20
657.5791900128844
 30
0.0
 11
113.3162590582006
 21
658.67543701288446
 31
0.0
  0
LINE
  5
2B5A
  8
0
 10
112.3200104445209
 20
627.99226701288455
 30
0.0
 11
113.3162600178789
 21
626.89601901288449
 31
0.0
  0
LINE
  5
2B5B
  8
0
 10
115.4962584445211
 20
626.89601901288449
 30
0.0
 11
116.4925054445211
 21
627.99226701288455
 31
0.0
  0
LINE
  5
636B
  8
0
 10
922.35625844452125
 20
625.11072801288435
 30
0.0
 11
922.35625844452125
 21
630.36350501288439
 31
0.0
  0
LINE
  5
636C
  8
0
 10
922.35625844452125
 20
625.13572801288444
 30
0.0
 11
922.35625844452125
 21
630.58691101288446
 31
0.0
  0
LINE
  5
636D
  8
0
 10
922.35625844452125
 20
630.58691101288446
 30
0.0
 11
922.35625844452125
 21
625.13572801288444
 31
0.0
  0
LINE
  5
636E
  8
0
 10
922.35625844452125
 20
630.58691101288446
 30
0.0
 11
922.35625844452125
 21
625.13572801288444
 31
0.0
  0
LINE
  5
636F
  8
0
 10
922.35625844452125
 20
625.13572801288444
 30
0.0
 11
922.35625844452125
 21
630.58691101288446
 31
0.0
  0
LINE
  5
6370
  8
0
 10
922.35625844452125
 20
625.13572801288444
 30
0.0
 11
922.35625844452125
 21
630.58691101288446
 31
0.0
  0
LINE
  5
6371
  8
0
 10
922.35625844452125
 20
625.11072801288435
 30
0.0
 11
922.35625844452125
 21
630.58691101288446
 31
0.0
  0
POINT
  5
6372
  8
0
 10
922.35625844452125
 20
625.13572801288444
 30
0.0
  0
POINT
  5
6373
  8
0
 10
922.35625844452125
 20
625.13572801288444
 30
0.0
  0
LINE
  5
638C
  8
2
 10
926.55625844452106
 20
635.28572801288453
 30
0.0
 11
926.55625844452106
 21
650.28572801288453
 31
0.0
  0
LINE
  5
6393
  8
2
 10
924.95625844452115
 20
650.28572801288453
 30
0.0
 11
926.55625844452106
 21
650.28572801288453
 31
0.0
  0
LINE
  5
6394
  8
2
 10
924.95625844452115
 20
635.28572801288453
 30
0.0
 11
926.55625844452106
 21
635.28572801288453
 31
0.0
  0
LINE
  5
6395
  8
2
 10
924.95625844452115
 20
649.78572801288453
 30
0.0
 11
926.55625844452106
 21
649.78572801288453
 31
0.0
  0
LINE
  5
6396
  8
2
 10
924.95625844452115
 20
635.28572801288453
 30
0.0
 11
924.95625844452115
 21
650.28572801288453
 31
0.0
  0
LINE
  5
6397
  8
2
 10
922.35625844452125
 20
635.78572801288453
 30
0.0
 11
924.95625844452115
 21
635.28572801288453
 31
0.0
  0
LINE
  5
6398
  8
2
 10
924.95625844452115
 20
635.78572801288453
 30
0.0
 11
926.55625844452106
 21
635.78572801288453
 31
0.0
  0
LINE
  5
6399
  8
2
 10
922.35625844452125
 20
649.78572801288453
 30
0.0
 11
924.95625844452115
 21
650.28572801288453
 31
0.0
  0
LINE
  5
639A
  8
0
 10
922.35625844452125
 20
655.20795201288445
 30
0.0
 11
922.35625844452125
 21
660.4607280128846
 31
0.0
  0
POINT
  5
639B
  8
0
 10
922.35625844452125
 20
660.4607280128846
 30
0.0
  0
POINT
  5
639C
  8
0
 10
926.55625844452106
 20
655.20795201288445
 30
0.0
  0
POINT
  5
639D
  8
0
 10
922.35625844452125
 20
660.4607280128846
 30
0.0
  0
POINT
  5
639E
  8
0
 10
922.35625844452125
 20
655.20795201288445
 30
0.0
  0
POINT
  5
639F
  8
0
 10
926.55625844452106
 20
655.20795201288445
 30
0.0
  0
POINT
  5
63A0
  8
0
 10
922.35625844452125
 20
653.20966801288421
 30
0.0
  0
POINT
  5
63A4
  8
0
 10
1557.856258444521
 20
633.92572801288441
 30
0.0
  0
POINT
  5
63A5
  8
0
 10
1633.5562584445211
 20
632.96072801288472
 30
0.0
  0
POINT
  5
63A6
  8
0
 10
1545.856258444521
 20
625.11072801288435
 30
0.0
  0
POINT
  5
63A7
  8
0
 10
1633.5562584445211
 20
660.4607280128846
 30
0.0
  0
POINT
  5
63A9
  8
0
 10
1633.5562584445211
 20
660.4607280128846
 30
0.0
  0
LINE
  5
63AB
  8
0
 10
1545.3320394445209
 20
626.89602001288438
 30
0.0
 11
1545.856258444521
 21
626.89602001288438
 31
0.0
  0
LINE
  5
63AC
  8
0
 10
1543.856258444521
 20
658.67543701288446
 30
0.0
 11
1633.5562584445211
 21
658.67543701288446
 31
0.0
  0
LINE
  5
63AD
  8
0
 10
1543.5208604445211
 20
625.11072801288435
 30
0.0
 11
1545.3320394445209
 21
626.89602001288438
 31
0.0
  0
LINE
  5
63AE
  8
0
 10
1545.856258444521
 20
625.11072801288435
 30
0.0
 11
1545.856258444521
 21
626.89602001288438
 31
0.0
  0
LINE
  5
63AF
  8
0
 10
1557.856258444521
 20
637.72572801288447
 30
0.0
 11
1557.856258444521
 21
633.92572801288441
 31
0.0
  0
LINE
  5
63B0
  8
0
 10
1559.856258444521
 20
637.72572801288447
 30
0.0
 11
1559.856258444521
 21
633.92572801288441
 31
0.0
  0
LINE
  5
63B1
  8
0
 10
1564.2562584445211
 20
633.92572801288441
 30
0.0
 11
1557.856258444521
 21
633.92572801288441
 31
0.0
  0
LINE
  5
63B2
  8
0
 10
1564.2562584445211
 20
637.72572801288447
 30
0.0
 11
1557.856258444521
 21
637.72572801288447
 31
0.0
  0
LINE
  5
63B3
  8
0
 10
1564.2562584445211
 20
647.84572801288448
 30
0.0
 11
1557.856258444521
 21
647.84572801288448
 31
0.0
  0
LINE
  5
63B4
  8
0
 10
1564.2562584445211
 20
651.64572801288466
 30
0.0
 11
1557.856258444521
 21
651.64572801288466
 31
0.0
  0
LINE
  5
63B5
  8
0
 10
1559.856258444521
 20
651.64572801288466
 30
0.0
 11
1559.856258444521
 21
647.84572801288448
 31
0.0
  0
LINE
  5
63B6
  8
0
 10
1557.856258444521
 20
651.64572801288466
 30
0.0
 11
1557.856258444521
 21
647.84572801288448
 31
0.0
  0
LINE
  5
63B7
  8
0
 10
1631.9562584445209
 20
652.56072801288462
 30
0.0
 11
1631.9562584445209
 21
632.96072801288472
 31
0.0
  0
LINE
  5
63B8
  8
0
 10
1633.5562584445211
 20
630.16072801288453
 30
0.0
 11
1633.5562584445211
 21
625.11072801288435
 31
0.0
  0
LINE
  5
63B9
  8
0
 10
1633.5562584445211
 20
652.56072801288462
 30
0.0
 11
1633.5562584445211
 21
632.96072801288472
 31
0.0
  0
LINE
  5
63BA
  8
0
 10
1633.5562584445211
 20
660.4607280128846
 30
0.0
 11
1633.5562584445211
 21
655.36072801288435
 31
0.0
  0
LINE
  5
63BB
  8
0
 10
1633.5562584445211
 20
660.43572801288462
 30
0.0
 11
1633.5562584445211
 21
656.73572801288435
 31
0.0
  0
LINE
  5
63BC
  8
0
 10
1633.5562584445211
 20
656.43572801288462
 30
0.0
 11
1633.5562584445211
 21
660.43572801288462
 31
0.0
  0
LINE
  5
63BD
  8
0
 10
1633.5562584445211
 20
656.43572801288462
 30
0.0
 11
1633.5562584445211
 21
660.43572801288462
 31
0.0
  0
POINT
  5
63BE
  8
0
 10
1633.5562584445211
 20
660.43572801288462
 30
0.0
  0
POINT
  5
63BF
  8
0
 10
1633.5562584445211
 20
660.43572801288462
 30
0.0
  0
POINT
  5
63C0
  8
0
 10
1633.5562584445211
 20
660.43572801288462
 30
0.0
  0
POINT
  5
63C1
  8
0
 10
1633.5562584445211
 20
660.43572801288462
 30
0.0
  0
POINT
  5
63C2
  8
0
 10
1633.5562584445211
 20
660.43572801288462
 30
0.0
  0
POINT
  5
63C3
  8
0
 10
1633.5562584445211
 20
660.43572801288462
 30
0.0
  0
POINT
  5
63C4
  8
0
 10
1633.5562584445211
 20
660.43572801288462
 30
0.0
  0
POINT
  5
63C5
  8
0
 10
1633.5562584445211
 20
660.43572801288462
 30
0.0
  0
POINT
  5
63C6
  8
0
 10
1633.5562584445211
 20
660.43572801288462
 30
0.0
  0
LINE
  5
63C7
  8
0
 10
1633.5562584445211
 20
660.4607280128846
 30
0.0
 11
1633.5562584445211
 21
656.73572801288435
 31
0.0
  0
LINE
  5
63C8
  8
0
 10
1633.5562584445211
 20
660.43572801288462
 30
0.0
 11
1633.5562584445211
 21
655.36072801288435
 31
0.0
1001
ACAD
1000
ASC_BOUNDS
1002
{
1070
    19
1002
}
  0
ARC
  5
63CF
  8
0
 10
1631.0562584445211
 20
653.06072801288462
 30
0.0
 40
0.5
 50
134.99999999999079
 51
270.0
1001
ACAD
1000
ASC_BOUNDS
1002
{
1070
    19
1002
}
  0
LINE
  5
63D0
  8
0
 10
1631.0562584445211
 20
652.56072801288462
 30
0.0
 11
1633.5562584445211
 21
652.56072801288462
 31
0.0
1001
ACAD
1000
ASC_BOUNDS
1002
{
1070
    19
1002
}
  0
LINE
  5
63D1
  8
0
 10
1630.7027054445209
 20
653.41428201288443
 30
0.0
 11
1633.5562584445211
 21
655.36072801288435
 31
0.0
1001
ACAD
1000
ASC_BOUNDS
1002
{
1070
    19
1002
}
  0
LINE
  5
63D2
  8
0
 10
1633.5562584445211
 20
625.13572801288444
 30
0.0
 11
1633.5562584445211
 21
628.83572801288472
 31
0.0
  0
LINE
  5
63D3
  8
0
 10
1633.5562584445211
 20
625.13572801288444
 30
0.0
 11
1633.5562584445211
 21
628.83572801288472
 31
0.0
  0
LINE
  5
63D4
  8
0
 10
1633.5562584445211
 20
629.13572801288444
 30
0.0
 11
1633.5562584445211
 21
625.13572801288444
 31
0.0
  0
LINE
  5
63D5
  8
0
 10
1633.5562584445211
 20
629.13572801288444
 30
0.0
 11
1633.5562584445211
 21
625.13572801288444
 31
0.0
  0
LINE
  5
63D6
  8
0
 10
1633.5562584445211
 20
630.16072801288453
 30
0.0
 11
1633.5562584445211
 21
625.11072801288435
 31
0.0
1001
ACAD
1000
ASC_BOUNDS
1002
{
1070
    19
1002
}
  0
POINT
  5
63D7
  8
0
 10
1633.5562584445211
 20
625.13572801288444
 30
0.0
  0
POINT
  5
63D8
  8
0
 10
1633.5562584445211
 20
625.13572801288444
 30
0.0
  0
ARC
  5
63D9
  8
0
 10
1631.0562584445211
 20
632.46072801288472
 30
0.0
 40
0.5
 50
90.0
 51
225.00000000000921
1001
ACAD
1000
ASC_BOUNDS
1002
{
1070
    19
1002
}
  0
LINE
  5
63DA
  8
0
 10
1630.7027054445209
 20
632.10717501288434
 30
0.0
 11
1633.5562584445211
 21
630.16072801288453
 31
0.0
1001
ACAD
1000
ASC_BOUNDS
1002
{
1070
    19
1002
}
  0
LINE
  5
63DB
  8
0
 10
1631.0562584445211
 20
632.96072801288472
 30
0.0
 11
1633.5562584445211
 21
632.96072801288472
 31
0.0
1001
ACAD
1000
ASC_BOUNDS
1002
{
1070
    19
1002
}
  0
LINE
  5
63E8
  8
0
 10
922.35625844452125
 20
625.11072801288435
 30
0.0
 11
1633.5562584445211
 21
625.11072801288435
 31
0.0
  0
LINE
  5
63E9
  8
0
 10
188.85625844452119
 20
627.99226701288433
 30
0.0
 11
900.05625844452118
 21
627.99226701288433
 31
0.0
  0
LINE
  5
63EA
  8
0
 10
188.85625844452119
 20
626.89602001288438
 30
0.0
 11
900.05625844452118
 21
626.89602001288438
 31
0.0
  0
LINE
  5
63EB
  8
0
 10
188.85625844452119
 20
658.67543701288446
 30
0.0
 11
900.05625844452118
 21
658.67543701288446
 31
0.0
  0
LINE
  5
63EC
  8
0
 10
188.85625844452119
 20
657.57919001288406
 30
0.0
 11
900.05625844452118
 21
657.57919001288406
 31
0.0
  0
LINE
  5
63ED
  8
0
 10
922.35625844452125
 20
660.4607280128846
 30
0.0
 11
1633.5562584445211
 21
660.4607280128846
 31
0.0
  0
LINE
  5
6482
  8
1
 10
178.85625844452119
 20
642.78572801288453
 30
0.0
 11
1643.5562584445211
 21
642.78572801288453
 31
0.0
  0
POINT
  5
6483
  8
0
 10
188.85625844452119
 20
630.16072801288453
 30
0.0
  0
POINT
  5
6484
  8
0
 10
264.55625844452129
 20
633.92572801288441
 30
0.0
  0
POINT
  5
6485
  8
0
 10
188.85625844452119
 20
626.89602001288438
 30
0.0
  0
POINT
  5
6486
  8
0
 10
188.85625844452119
 20
660.4607280128846
 30
0.0
  0
POINT
  5
6487
  8
0
 10
188.85625844452119
 20
660.4607280128846
 30
0.0
  0
LINE
  5
6488
  8
0
 10
188.85625844452119
 20
660.4607280128846
 30
0.0
 11
188.85625844452119
 21
656.73572801288435
 31
0.0
  0
POINT
  5
6489
  8
0
 10
188.85625844452119
 20
660.43572801288462
 30
0.0
  0
POINT
  5
648A
  8
0
 10
188.85625844452119
 20
660.43572801288462
 30
0.0
  0
POINT
  5
648B
  8
0
 10
188.85625844452119
 20
660.43572801288462
 30
0.0
  0
POINT
  5
648C
  8
0
 10
188.85625844452119
 20
660.43572801288462
 30
0.0
  0
POINT
  5
648D
  8
0
 10
188.85625844452119
 20
660.43572801288462
 30
0.0
  0
POINT
  5
648E
  8
0
 10
188.85625844452119
 20
660.43572801288462
 30
0.0
  0
POINT
  5
648F
  8
0
 10
188.85625844452119
 20
660.43572801288462
 30
0.0
  0
POINT
  5
6490
  8
0
 10
188.85625844452119
 20
660.43572801288462
 30
0.0
  0
POINT
  5
6491
  8
0
 10
188.85625844452119
 20
660.43572801288462
 30
0.0
  0
LINE
  5
6492
  8
0
 10
188.85625844452119
 20
656.43572801288462
 30
0.0
 11
188.85625844452119
 21
660.43572801288462
 31
0.0
  0
LINE
  5
6493
  8
0
 10
188.85625844452119
 20
656.43572801288462
 30
0.0
 11
188.85625844452119
 21
660.43572801288462
 31
0.0
  0
LINE
  5
6494
  8
0
 10
188.85625844452119
 20
660.43572801288462
 30
0.0
 11
188.85625844452119
 21
656.73572801288435
 31
0.0
  0
POINT
  5
6495
  8
0
 10
188.85625844452119
 20
625.13572801288444
 30
0.0
  0
POINT
  5
6496
  8
0
 10
188.85625844452119
 20
625.13572801288444
 30
0.0
  0
LINE
  5
6497
  8
0
 10
188.85625844452119
 20
630.16072801288453
 30
0.0
 11
188.85625844452119
 21
625.11072801288435
 31
0.0
1001
ACAD
1000
ASC_BOUNDS
1002
{
1070
    19
1002
}
  0
LINE
  5
6498
  8
0
 10
188.85625844452119
 20
629.13572801288444
 30
0.0
 11
188.85625844452119
 21
625.13572801288444
 31
0.0
  0
LINE
  5
6499
  8
0
 10
188.85625844452119
 20
629.13572801288444
 30
0.0
 11
188.85625844452119
 21
625.13572801288444
 31
0.0
  0
LINE
  5
649A
  8
0
 10
188.85625844452119
 20
625.13572801288444
 30
0.0
 11
188.85625844452119
 21
628.83572801288472
 31
0.0
  0
LINE
  5
649B
  8
0
 10
188.85625844452119
 20
625.13572801288444
 30
0.0
 11
188.85625844452119
 21
628.83572801288472
 31
0.0
  0
LINE
  5
649C
  8
0
 10
188.85625844452119
 20
630.16072801288453
 30
0.0
 11
188.85625844452119
 21
625.11072801288435
 31
0.0
  0
LINE
  5
649D
  8
0
 10
188.85625844452119
 20
652.56072801288462
 30
0.0
 11
188.85625844452119
 21
632.96072801288472
 31
0.0
  0
LINE
  5
649E
  8
0
 10
188.85625844452119
 20
660.43572801288462
 30
0.0
 11
188.85625844452119
 21
655.36072801288435
 31
0.0
1001
ACAD
1000
ASC_BOUNDS
1002
{
1070
    19
1002
}
  0
LINE
  5
649F
  8
0
 10
188.85625844452119
 20
660.4607280128846
 30
0.0
 11
188.85625844452119
 21
655.36072801288435
 31
0.0
  0
ARC
  5
64A0
  8
0
 10
191.35625844452119
 20
653.06072801288462
 30
0.0
 40
0.5
 50
270.0
 51
45.000000000009209
1001
ACAD
1000
ASC_BOUNDS
1002
{
1070
    19
1002
}
  0
ARC
  5
64AD
  8
0
 10
191.35625844452119
 20
632.46072801288472
 30
0.0
 40
0.5
 50
314.99999999999079
 51
90.0
1001
ACAD
1000
ASC_BOUNDS
1002
{
1070
    19
1002
}
  0
LINE
  5
64AE
  8
0
 10
190.4562584445211
 20
652.56072801288462
 30
0.0
 11
190.4562584445211
 21
632.96072801288472
 31
0.0
  0
LINE
  5
64AF
  8
0
 10
258.1562584445212
 20
651.64572801288466
 30
0.0
 11
264.55625844452129
 21
651.64572801288466
 31
0.0
  0
LINE
  5
64B0
  8
0
 10
258.1562584445212
 20
647.84572801288448
 30
0.0
 11
264.55625844452129
 21
647.84572801288448
 31
0.0
  0
LINE
  5
64B1
  8
0
 10
258.1562584445212
 20
637.72572801288447
 30
0.0
 11
264.55625844452129
 21
637.72572801288447
 31
0.0
  0
LINE
  5
64B2
  8
0
 10
262.55625844452129
 20
651.64572801288466
 30
0.0
 11
262.55625844452129
 21
647.84572801288448
 31
0.0
  0
LINE
  5
64B3
  8
0
 10
264.55625844452129
 20
651.64572801288466
 30
0.0
 11
264.55625844452129
 21
647.84572801288448
 31
0.0
  0
LINE
  5
64B4
  8
0
 10
258.1562584445212
 20
633.92572801288441
 30
0.0
 11
264.55625844452129
 21
633.92572801288441
 31
0.0
  0
LINE
  5
64B5
  8
0
 10
262.55625844452129
 20
637.72572801288447
 30
0.0
 11
262.55625844452129
 21
633.92572801288441
 31
0.0
  0
LINE
  5
64B6
  8
0
 10
264.55625844452129
 20
637.72572801288447
 30
0.0
 11
264.55625844452129
 21
633.92572801288441
 31
0.0
  0
LINE
  5
64BD
  8
0
 10
191.70981244452099
 20
632.10717501288434
 30
0.0
 11
188.85625844452119
 21
630.16072801288453
 31
0.0
1001
ACAD
1000
ASC_BOUNDS
1002
{
1070
    19
1002
}
  0
LINE
  5
64BE
  8
0
 10
191.70981244452099
 20
653.41428201288443
 30
0.0
 11
188.85625844452119
 21
655.36072801288435
 31
0.0
1001
ACAD
1000
ASC_BOUNDS
1002
{
1070
    19
1002
}
  0
LINE
  5
64BF
  8
0
 10
191.35625844452119
 20
652.56072801288462
 30
0.0
 11
188.85625844452119
 21
652.56072801288462
 31
0.0
1001
ACAD
1000
ASC_BOUNDS
1002
{
1070
    19
1002
}
  0
LINE
  5
64C0
  8
0
 10
191.35625844452119
 20
632.96072801288472
 30
0.0
 11
188.85625844452119
 21
632.96072801288472
 31
0.0
1001
ACAD
1000
ASC_BOUNDS
1002
{
1070
    19
1002
}
  0
LINE
  5
64C6
  8
0
 10
900.05625844452095
 20
625.11072801288435
 30
0.0
 11
188.85625844452119
 21
625.11072801288435
 31
0.0
  0
LINE
  5
64C7
  8
0
 10
900.05625844452095
 20
660.4607280128846
 30
0.0
 11
188.85625844452119
 21
660.4607280128846
 31
0.0
  0
POINT
  5
64CC
  8
2
 10
895.85625844452125
 20
635.78572801288453
 30
0.0
  0
POINT
  5
64CD
  8
0
 10
900.05625844452095
 20
635.78572801288453
 30
0.0
  0
POINT
  5
64CE
  8
2
 10
895.85625844452125
 20
635.78572801288453
 30
0.0
  0
POINT
  5
64CF
  8
0
 10
900.05625844452095
 20
625.11072801288435
 30
0.0
  0
POINT
  5
64D0
  8
0
 10
900.05625844452095
 20
652.60072801288459
 30
0.0
  0
LINE
  5
64D1
  8
0
 10
900.05625844452095
 20
649.78572801288453
 30
0.0
 11
900.05625844452095
 21
660.4607280128846
 31
0.0
  0
LINE
  5
64D2
  8
0
 10
900.05625844452095
 20
649.78572801288453
 30
0.0
 11
900.05625844452095
 21
660.4607280128846
 31
0.0
  0
LINE
  5
64EB
  8
2
 10
897.45625844452115
 20
649.78572801288453
 30
0.0
 11
895.85625844452125
 21
649.78572801288453
 31
0.0
  0
LINE
  5
64EC
  8
2
 10
897.45625844452115
 20
650.28572801288453
 30
0.0
 11
895.85625844452125
 21
650.28572801288453
 31
0.0
  0
LINE
  5
64ED
  8
0
 10
900.05625844452095
 20
649.78572801288453
 30
0.0
 11
897.45625844452115
 21
650.28572801288453
 31
0.0
  0
LINE
  5
64EE
  8
0
 10
900.05625844452095
 20
625.13572801288444
 30
0.0
 11
900.05625844452095
 21
630.58691101288446
 31
0.0
  0
LINE
  5
64EF
  8
0
 10
900.05625844452095
 20
630.58691101288446
 30
0.0
 11
900.05625844452095
 21
625.13572801288444
 31
0.0
  0
LINE
  5
64F0
  8
0
 10
900.05625844452095
 20
630.58691101288446
 30
0.0
 11
900.05625844452095
 21
625.13572801288444
 31
0.0
  0
LINE
  5
64F1
  8
0
 10
900.05625844452095
 20
625.13572801288444
 30
0.0
 11
900.05625844452095
 21
630.58691101288446
 31
0.0
  0
LINE
  5
64F2
  8
0
 10
900.05625844452095
 20
625.13572801288444
 30
0.0
 11
900.05625844452095
 21
630.58691101288446
 31
0.0
  0
LINE
  5
64F3
  8
0
 10
900.05625844452095
 20
625.11072801288435
 30
0.0
 11
900.05625844452095
 21
630.58691101288446
 31
0.0
  0
POINT
  5
64F4
  8
0
 10
900.05625844452095
 20
625.13572801288444
 30
0.0
  0
POINT
  5
64F5
  8
0
 10
900.05625844452095
 20
625.13572801288444
 30
0.0
  0
LINE
  5
64F6
  8
2
 10
897.45625844452115
 20
635.28572801288453
 30
0.0
 11
895.85625844452125
 21
635.28572801288453
 31
0.0
  0
LINE
  5
64F7
  8
2
 10
897.45625844452115
 20
635.78572801288453
 30
0.0
 11
895.85625844452125
 21
635.78572801288453
 31
0.0
  0
LINE
  5
64F8
  8
0
 10
900.05625844452095
 20
635.78572801288453
 30
0.0
 11
897.45625844452115
 21
635.28572801288453
 31
0.0
  0
LINE
  5
64F9
  8
2
 10
895.85625844452125
 20
635.28572801288453
 30
0.0
 11
895.85625844452125
 21
650.28572801288453
 31
0.0
  0
LINE
  5
64FA
  8
0
 10
897.45625844452115
 20
635.28572801288453
 30
0.0
 11
897.45625844452115
 21
650.28572801288453
 31
0.0
  0
LINE
  5
64FB
  8
0
 10
900.05625844452095
 20
625.11072801288435
 30
0.0
 11
900.05625844452095
 21
635.78572801288453
 31
0.0
  0
LINE
  5
64FC
  8
0
 10
900.05625844452095
 20
625.11072801288435
 30
0.0
 11
900.05625844452095
 21
635.78572801288453
 31
0.0
  0
LINE
  5
6503
  8
0
 10
942.25625844452134
 20
655.20795201288445
 30
0.0
 11
900.05625844452095
 21
655.20795201288445
 31
0.0
  0
LINE
  5
6504
  8
0
 10
942.25625844452134
 20
630.36350501288439
 30
0.0
 11
900.05625844452095
 21
630.36350501288439
 31
0.0
  0
LINE
  5
6505
  8
0
 10
942.25625844452134
 20
630.36350501288439
 30
0.0
 11
900.05625844452095
 21
630.36350501288439
 31
0.0
  0
LINE
  5
6511
  8
0
 10
900.05625844452095
 20
632.3617880128844
 30
0.0
 11
1261.8062584445211
 21
632.3617880128844
 31
0.0
  0
LINE
  5
6512
  8
0
 10
900.05625844452095
 20
632.97072801288436
 30
0.0
 11
1261.8062584445211
 21
632.97072801288436
 31
0.0
  0
LINE
  5
6513
  8
0
 10
900.05625844452095
 20
652.60072801288459
 30
0.0
 11
1261.8062584445211
 21
652.60072801288459
 31
0.0
  0
LINE
  5
6514
  8
0
 10
900.05625844452095
 20
632.3617880128844
 30
0.0
 11
1261.8062584445211
 21
632.3617880128844
 31
0.0
  0
LINE
  5
6515
  8
0
 10
900.05625844452095
 20
632.97072801288436
 30
0.0
 11
1261.8062584445211
 21
632.97072801288436
 31
0.0
  0
LINE
  5
6516
  8
0
 10
900.05625844452095
 20
653.20966801288421
 30
0.0
 11
1261.8062584445211
 21
653.20966801288421
 31
0.0
  0
POLYLINE
  5
6517
  8
0
 66
     1
 10
0.0
 20
0.0
 30
0.0
  0
VERTEX
  5
6518
  8
0
 10
900.05625844452095
 20
654.66420801288439
 30
0.0
  0
VERTEX
  5
6519
  8
0
 10
1261.8062584445211
 20
654.66420801288439
 30
0.0
  0
SEQEND
  5
651A
  8
0
  0
POLYLINE
  5
651B
  8
0
 66
     1
 10
0.0
 20
0.0
 30
0.0
  0
VERTEX
  5
651C
  8
0
 10
900.05625844452095
 20
630.90724901288411
 30
0.0
  0
VERTEX
  5
651D
  8
0
 10
1261.8062584445211
 20
630.90724901288411
 30
0.0
  0
SEQEND
  5
651E
  8
0
  0
POINT
  5
651F
  8
0
 10
1266.8062584445211
 20
631.40724901288399
 30
0.0
  0
POINT
  5
6520
  8
0
 10
1266.8062584445211
 20
657.57919001288406
 30
0.0
  0
POINT
  5
6521
  8
0
 10
1262.2062584445209
 20
657.57919001288406
 30
0.0
  0
POINT
  5
6522
  8
0
 10
1262.2062584445209
 20
655.20795201288445
 30
0.0
  0
LINE
  5
6523
  8
2
 10
1264.2062584445209
 20
630.36350501288439
 30
0.0
 11
1264.2062584445209
 21
655.20795201288445
 31
0.0
  0
POINT
  5
6524
  8
0
 10
1260.1446684445209
 20
654.98454501288438
 30
0.0
  0
POINT
  5
6525
  8
0
 10
1260.1446684445209
 20
654.98454501288438
 30
0.0
  0
LINE
  5
6526
  8
0
 10
1261.8062584445211
 20
654.66420801288439
 30
0.0
 11
1266.8062584445211
 21
654.16420801288439
 31
0.0
  0
LINE
  5
6527
  8
0
 10
1261.8062584445211
 20
653.20966801288421
 30
0.0
 11
1266.8062584445211
 21
652.70966801288421
 31
0.0
  0
LINE
  5
6528
  8
0
 10
1261.8062584445211
 20
652.60072801288459
 30
0.0
 11
1266.8062584445211
 21
652.10072801288459
 31
0.0
  0
LINE
  5
6529
  8
0
 10
953.25625844452145
 20
655.20795201288445
 30
0.0
 11
1266.8062584445211
 21
655.20795201288445
 31
0.0
  0
LINE
  5
652A
  8
0
 10
942.25625844452134
 20
655.20795201288445
 30
0.0
 11
1266.8062584445211
 21
655.20795201288445
 31
0.0
  0
POINT
  5
652B
  8
0
 10
1260.1446684445209
 20
630.58691101288446
 30
0.0
  0
POINT
  5
652C
  8
0
 10
1260.1446684445209
 20
630.58691101288446
 30
0.0
  0
LINE
  5
652D
  8
0
 10
1261.8062584445211
 20
632.3617880128844
 30
0.0
 11
1266.8062584445211
 21
632.86178801288429
 31
0.0
  0
LINE
  5
652E
  8
0
 10
1261.8062584445211
 20
632.97072801288436
 30
0.0
 11
1266.8062584445211
 21
633.47072801288448
 31
0.0
  0
LINE
  5
652F
  8
0
 10
1261.8062584445211
 20
632.97072801288436
 30
0.0
 11
1266.8062584445211
 21
633.47072801288448
 31
0.0
  0
LINE
  5
6530
  8
0
 10
1261.8062584445211
 20
632.3617880128844
 30
0.0
 11
1266.8062584445211
 21
632.86178801288429
 31
0.0
  0
LINE
  5
6531
  8
0
 10
1261.8062584445211
 20
630.90724901288411
 30
0.0
 11
1266.8062584445211
 21
631.40724901288399
 31
0.0
  0
POINT
  5
6532
  8
0
 10
1260.1446684445209
 20
630.58691101288446
 30
0.0
  0
POINT
  5
6533
  8
0
 10
1260.1446684445209
 20
630.58691101288446
 30
0.0
  0
LINE
  5
6534
  8
0
 10
942.25625844452134
 20
630.36350501288439
 30
0.0
 11
1266.8062584445211
 21
630.36350501288439
 31
0.0
  0
LINE
  5
6535
  8
0
 10
953.25625844452145
 20
630.36350501288439
 30
0.0
 11
1266.8062584445211
 21
630.36350501288439
 31
0.0
  0
LINE
  5
6536
  8
0
 10
942.25625844452134
 20
630.36350501288439
 30
0.0
 11
1266.8062584445211
 21
630.36350501288439
 31
0.0
  0
LINE
  5
6537
  8
0
 10
953.25625844452145
 20
630.36350501288439
 30
0.0
 11
1266.8062584445211
 21
630.36350501288439
 31
0.0
  0
LINE
  5
6538
  8
0
 10
1266.8062584445211
 20
655.20795201288445
 30
0.0
 11
1266.8062584445211
 21
630.36350501288439
 31
0.0
  0
LINE
  5
6539
  8
2
 10
1262.2062584445209
 20
630.36350501288439
 30
0.0
 11
1262.2062584445209
 21
655.20795201288445
 31
0.0
  0
LINE
  5
653A
  8
2
 10
560.20625844452115
 20
655.20795201288445
 30
0.0
 11
560.20625844452115
 21
630.36350501288439
 31
0.0
  0
LINE
  5
653B
  8
2
 10
558.60625844452125
 20
652.26398901288428
 30
0.0
 11
558.60625844452125
 21
633.30746801288421
 31
0.0
  0
LINE
  5
653C
  8
2
 10
558.60625844452125
 20
633.30746801288421
 30
0.0
 11
560.20625844452115
 21
632.78572801288453
 31
0.0
  0
LINE
  5
653D
  8
2
 10
558.60625844452125
 20
633.30746801288421
 30
0.0
 11
560.20625844452115
 21
632.78572801288453
 31
0.0
  0
LINE
  5
653E
  8
2
 10
558.60625844452125
 20
652.26398901288428
 30
0.0
 11
560.20625844452115
 21
652.78572801288453
 31
0.0
  0
LINE
  5
653F
  8
2
 10
555.60625844452125
 20
630.36350501288439
 30
0.0
 11
555.60625844452125
 21
655.20795201288445
 31
0.0
  0
LINE
  5
6540
  8
2
 10
900.05625844452095
 20
655.20795201288445
 30
0.0
 11
555.60625844452125
 21
655.20795201288445
 31
0.0
  0
LINE
  5
6541
  8
2
 10
900.05625844452095
 20
630.36350501288439
 30
0.0
 11
555.60625844452125
 21
630.36350501288439
 31
0.0
  0
POINT
  5
6542
  8
0
 10
555.60625844452125
 20
625.11072801288435
 30
0.0
  0
POINT
  5
6543
  8
2
 10
560.20625844452115
 20
630.36350501288439
 30
0.0
  0
POINT
  5
6544
  8
2
 10
555.60625844452125
 20
630.36350501288439
 30
0.0
  0
POINT
  5
6545
  8
2
 10
560.20625844452115
 20
630.90724901288411
 30
0.0
  0
ARC
  5
66FA
  8
0
 10
217.45625844452121
 20
642.38572801288467
 30
0.0
 40
2.25
 50
180.0
 51
0.0
  0
ARC
  5
66FB
  8
0
 10
217.45625844452121
 20
643.18572801288462
 30
0.0
 40
2.25
 50
0.0
 51
180.0
  0
LINE
  5
66FC
  8
1
 10
204.75625844452111
 20
648.43572801288462
 30
0.0
 11
204.75625844452111
 21
637.13572801288456
 31
0.0
  0
LINE
  5
66FD
  8
1
 10
217.45625844452121
 20
648.43572801288462
 30
0.0
 11
217.45625844452121
 21
637.13572801288456
 31
0.0
  0
ARC
  5
66FE
  8
0
 10
204.75625844452111
 20
642.38572801288467
 30
0.0
 40
2.25
 50
180.0
 51
0.0
  0
ARC
  5
66FF
  8
0
 10
204.75625844452111
 20
643.18572801288462
 30
0.0
 40
2.25
 50
0.0
 51
180.0
  0
LINE
  5
6700
  8
0
 10
202.50625844452111
 20
643.18572801288462
 30
0.0
 11
202.50625844452111
 21
642.38572801288467
 31
0.0
  0
LINE
  5
6701
  8
0
 10
215.20625844452121
 20
643.18572801288462
 30
0.0
 11
215.20625844452121
 21
642.38572801288467
 31
0.0
  0
LINE
  5
6702
  8
0
 10
207.00625844452111
 20
643.18572801288462
 30
0.0
 11
207.00625844452111
 21
642.38572801288467
 31
0.0
  0
LINE
  5
6703
  8
0
 10
219.70625844452121
 20
643.18572801288462
 30
0.0
 11
219.70625844452121
 21
642.38572801288467
 31
0.0
  0
LINE
  5
6704
  8
1
 10
328.55625844452101
 20
648.43572801288462
 30
0.0
 11
328.55625844452101
 21
637.13572801288456
 31
0.0
  0
ARC
  5
6705
  8
0
 10
328.95625844452098
 20
642.78572801288465
 30
0.0
 40
2.25
 50
270.0
 51
90.0
  0
ARC
  5
6706
  8
0
 10
328.15625844452109
 20
642.78572801288465
 30
0.0
 40
2.25
 50
90.0
 51
270.0
  0
LINE
  5
6707
  8
0
 10
328.15625844452109
 20
640.53572801288465
 30
0.0
 11
328.95625844452098
 21
640.53572801288465
 31
0.0
  0
LINE
  5
6708
  8
0
 10
328.15625844452109
 20
645.03572801288465
 30
0.0
 11
328.95625844452098
 21
645.03572801288465
 31
0.0
  0
LINE
  5
6709
  8
1
 10
544.40625844452109
 20
648.43572951288445
 30
0.0
 11
544.40625844452109
 21
637.1357295128845
 31
0.0
  0
ARC
  5
670A
  8
0
 10
544.80625844452106
 20
642.78572951288447
 30
0.0
 40
2.25
 50
270.0
 51
90.0
  0
ARC
  5
670B
  8
0
 10
544.00625844452122
 20
642.78572951288447
 30
0.0
 40
2.25
 50
90.0
 51
270.0
  0
LINE
  5
670C
  8
0
 10
544.00625844452122
 20
640.53572951288436
 30
0.0
 11
544.80625844452106
 21
640.53572951288436
 31
0.0
  0
LINE
  5
670D
  8
0
 10
544.00625844452122
 20
645.03572951288447
 30
0.0
 11
544.80625844452106
 21
645.03572951288447
 31
0.0
  0
LINE
  5
670E
  8
1
 10
773.05625844452095
 20
648.43572801288451
 30
0.0
 11
773.05625844452095
 21
637.13572801288456
 31
0.0
  0
ARC
  5
670F
  8
0
 10
772.65625844452097
 20
642.78572801288465
 30
0.0
 40
2.25
 50
90.0
 51
270.0
  0
LINE
  5
6710
  8
0
 10
772.65625844452097
 20
640.53572801288453
 30
0.0
 11
773.45625844452104
 21
640.53572801288453
 31
0.0
  0
LINE
  5
6711
  8
0
 10
772.65625844452097
 20
645.03572801288453
 30
0.0
 11
773.45625844452104
 21
645.03572801288453
 31
0.0
  0
ARC
  5
6712
  8
0
 10
773.45625844452104
 20
642.78572801288465
 30
0.0
 40
2.25
 50
270.0
 51
90.0
  0
LINE
  5
6713
  8
1
 10
858.75625844452099
 20
648.43572801288451
 30
0.0
 11
858.75625844452099
 21
637.13572801288456
 31
0.0
  0
ARC
  5
6714
  8
0
 10
858.35625844452113
 20
642.78572801288465
 30
0.0
 40
2.25
 50
90.0
 51
270.0
  0
ARC
  5
6715
  8
0
 10
859.15625844452109
 20
642.78572801288465
 30
0.0
 40
2.25
 50
270.0
 51
90.0
  0
LINE
  5
6716
  8
0
 10
858.35625844452113
 20
640.53572801288453
 30
0.0
 11
859.15625844452109
 21
640.53572801288453
 31
0.0
  0
LINE
  5
6717
  8
0
 10
858.35625844452113
 20
645.03572801288453
 30
0.0
 11
859.15625844452109
 21
645.03572801288453
 31
0.0
  0
POLYLINE
  5
6718
  8
0
 66
     1
 10
0.0
 20
0.0
 30
0.0
 70
     1
  0
VERTEX
  5
6719
  8
0
 10
883.55625844452106
 20
637.73572801288435
 30
0.0
 42
-1.0
  0
VERTEX
  5
671A
  8
0
 10
883.55625844452106
 20
647.83572801288449
 30
0.0
  0
VERTEX
  5
671B
  8
0
 10
886.15625844452086
 20
647.83572801288449
 30
0.0
 42
-1.0
  0
VERTEX
  5
671C
  8
0
 10
886.15625844452086
 20
637.73572801288435
 30
0.0
  0
SEQEND
  5
671D
  8
0
  0
LINE
  5
671E
  8
1
 10
871.45625844452115
 20
648.43572801288451
 30
0.0
 11
871.45625844452115
 21
637.13572801288456
 31
0.0
  0
LINE
  5
671F
  8
1
 10
884.15625844452109
 20
648.43572801288451
 30
0.0
 11
884.15625844452109
 21
637.13572801288456
 31
0.0
  0
ARC
  5
6720
  8
0
 10
871.45625844452115
 20
642.38572801288456
 30
0.0
 40
2.25
 50
180.0
 51
0.0
  0
LINE
  5
6721
  8
0
 10
873.70625844452115
 20
643.18572801288451
 30
0.0
 11
873.70625844452115
 21
642.38572801288456
 31
0.0
  0
LINE
  5
6722
  8
0
 10
869.20625844452115
 20
643.18572801288451
 30
0.0
 11
869.20625844452115
 21
642.38572801288456
 31
0.0
  0
ARC
  5
6723
  8
0
 10
871.45625844452115
 20
643.18572801288451
 30
0.0
 40
2.25
 50
0.0
 51
180.0
  0
LINE
  5
6724
  8
0
 10
886.4062584445212
 20
643.18572801288451
 30
0.0
 11
886.4062584445212
 21
642.38572801288456
 31
0.0
  0
LINE
  5
6725
  8
0
 10
881.9062584445212
 20
643.18572801288451
 30
0.0
 11
881.9062584445212
 21
642.38572801288456
 31
0.0
  0
ARC
  5
6726
  8
0
 10
884.15625844452109
 20
643.18572801288451
 30
0.0
 40
2.25
 50
0.0
 51
180.0
  0
ARC
  5
6727
  8
0
 10
884.15625844452109
 20
642.38572801288456
 30
0.0
 40
2.25
 50
180.0
 51
0.0
  0
ARC
  5
6728
  8
2
 10
964.05625844452106
 20
642.78572801288465
 30
0.0
 40
2.25
 50
270.0
 51
90.0
  0
POLYLINE
  5
6729
  8
2
 66
     1
 10
0.0
 20
0.0
 30
0.0
 70
     1
  0
VERTEX
  5
672A
  8
2
 10
936.25625844452099
 20
637.73572801288435
 30
0.0
 42
-1.0
  0
VERTEX
  5
672B
  8
2
 10
936.25625844452099
 20
647.83572801288449
 30
0.0
  0
VERTEX
  5
672C
  8
2
 10
938.85625844452102
 20
647.83572801288449
 30
0.0
 42
-1.0
  0
VERTEX
  5
672D
  8
2
 10
938.85625844452102
 20
637.73572801288435
 30
0.0
  0
SEQEND
  5
672E
  8
2
  0
LINE
  5
672F
  8
1
 10
938.25625844452099
 20
648.43572801288451
 30
0.0
 11
938.25625844452099
 21
637.13572801288456
 31
0.0
  0
LINE
  5
6730
  8
1
 10
950.95625844452093
 20
648.43572801288451
 30
0.0
 11
950.95625844452093
 21
637.13572801288456
 31
0.0
  0
LINE
  5
6731
  8
1
 10
963.65625844452109
 20
648.43572801288451
 30
0.0
 11
963.65625844452109
 21
637.13572801288456
 31
0.0
  0
ARC
  5
6732
  8
2
 10
938.25625844452099
 20
642.38572801288456
 30
0.0
 40
2.25
 50
180.0
 51
0.0
  0
ARC
  5
6733
  8
2
 10
938.25625844452099
 20
643.18572801288451
 30
0.0
 40
2.25
 50
0.0
 51
180.0
  0
LINE
  5
6734
  8
2
 10
936.00625844452111
 20
643.18572801288451
 30
0.0
 11
936.00625844452111
 21
642.38572801288456
 31
0.0
  0
ARC
  5
6735
  8
2
 10
950.95625844452093
 20
642.38572801288456
 30
0.0
 40
2.25
 50
180.0
 51
0.0
  0
ARC
  5
6736
  8
2
 10
950.95625844452093
 20
643.18572801288451
 30
0.0
 40
2.25
 50
0.0
 51
180.0
  0
LINE
  5
6737
  8
2
 10
948.70625844452104
 20
643.18572801288451
 30
0.0
 11
948.70625844452104
 21
642.38572801288456
 31
0.0
  0
LINE
  5
6738
  8
2
 10
940.50625844452111
 20
643.18572801288451
 30
0.0
 11
940.50625844452111
 21
642.38572801288456
 31
0.0
  0
ARC
  5
6739
  8
2
 10
963.25625844452099
 20
642.78572801288465
 30
0.0
 40
2.25
 50
90.0
 51
270.0
  0
LINE
  5
673A
  8
2
 10
963.25625844452099
 20
640.53572801288453
 30
0.0
 11
964.05625844452106
 21
640.53572801288453
 31
0.0
  0
LINE
  5
673B
  8
2
 10
963.25625844452099
 20
645.03572801288453
 30
0.0
 11
964.05625844452106
 21
645.03572801288453
 31
0.0
  0
LINE
  5
673C
  8
2
 10
953.20625844452104
 20
643.18572801288451
 30
0.0
 11
953.20625844452104
 21
642.38572801288456
 31
0.0
  0
LINE
  5
673D
  8
1
 10
1049.356258444521
 20
648.43572801288451
 30
0.0
 11
1049.356258444521
 21
637.13572801288456
 31
0.0
  0
ARC
  5
673E
  8
2
 10
1049.7562584445211
 20
642.78572801288465
 30
0.0
 40
2.25
 50
270.0
 51
90.0
  0
LINE
  5
673F
  8
2
 10
1048.9562584445209
 20
640.53572801288453
 30
0.0
 11
1049.7562584445211
 21
640.53572801288453
 31
0.0
  0
LINE
  5
6740
  8
2
 10
1048.9562584445209
 20
645.03572801288453
 30
0.0
 11
1049.7562584445211
 21
645.03572801288453
 31
0.0
  0
ARC
  5
6741
  8
2
 10
1048.9562584445209
 20
642.78572801288465
 30
0.0
 40
2.25
 50
90.0
 51
270.0
  0
LINE
  5
6742
  8
1
 10
1277.9562584445209
 20
648.46072901288437
 30
0.0
 11
1277.9562584445209
 21
637.16072901288453
 31
0.0
  0
ARC
  5
6743
  8
0
 10
1277.5562584445211
 20
642.81072901288462
 30
0.0
 40
2.25
 50
90.0
 51
270.0
  0
ARC
  5
6744
  8
0
 10
1278.356258444521
 20
642.81072901288462
 30
0.0
 40
2.25
 50
270.0
 51
90.0
  0
LINE
  5
6745
  8
0
 10
1277.5562584445211
 20
640.56072901288462
 30
0.0
 11
1278.356258444521
 21
640.56072901288462
 31
0.0
  0
LINE
  5
6746
  8
0
 10
1277.5562584445211
 20
645.06072901288462
 30
0.0
 11
1278.356258444521
 21
645.06072901288462
 31
0.0
  0
LINE
  5
6747
  8
1
 10
1493.856258444521
 20
648.46072801288449
 30
0.0
 11
1493.856258444521
 21
637.16072801288465
 31
0.0
  0
ARC
  5
6748
  8
0
 10
1493.4562584445209
 20
642.81072801288474
 30
0.0
 40
2.25
 50
90.0
 51
270.0
  0
ARC
  5
6749
  8
0
 10
1494.2562584445211
 20
642.81072801288474
 30
0.0
 40
2.25
 50
270.0
 51
90.0
  0
LINE
  5
674A
  8
0
 10
1493.4562584445209
 20
640.56072801288474
 30
0.0
 11
1494.2562584445211
 21
640.56072801288474
 31
0.0
  0
LINE
  5
674B
  8
0
 10
1493.4562584445209
 20
645.06072801288474
 30
0.0
 11
1494.2562584445211
 21
645.06072801288474
 31
0.0
  0
LINE
  5
674C
  8
1
 10
1604.9562584445209
 20
648.48572801288469
 30
0.0
 11
1604.9562584445209
 21
637.18572801288474
 31
0.0
  0
ARC
  5
674D
  8
0
 10
1604.9562584445209
 20
642.43572801288474
 30
0.0
 40
2.25
 50
180.0
 51
0.0
  0
ARC
  5
674E
  8
0
 10
1604.9562584445209
 20
643.23572801288458
 30
0.0
 40
2.25
 50
0.0
 51
180.0
  0
LINE
  5
674F
  8
0
 10
1602.7062584445209
 20
643.23572801288458
 30
0.0
 11
1602.7062584445209
 21
642.43572801288474
 31
0.0
  0
LINE
  5
6750
  8
0
 10
1607.2062584445209
 20
643.23572801288458
 30
0.0
 11
1607.2062584445209
 21
642.43572801288474
 31
0.0
  0
LINE
  5
6751
  8
1
 10
1617.656258444521
 20
648.48572801288469
 30
0.0
 11
1617.656258444521
 21
637.18572801288474
 31
0.0
  0
ARC
  5
6752
  8
0
 10
1617.656258444521
 20
642.43572801288474
 30
0.0
 40
2.25
 50
180.0
 51
0.0
  0
ARC
  5
6753
  8
0
 10
1617.656258444521
 20
643.23572801288458
 30
0.0
 40
2.25
 50
0.0
 51
180.0
  0
LINE
  5
6754
  8
0
 10
1615.406258444521
 20
643.23572801288458
 30
0.0
 11
1615.406258444521
 21
642.43572801288474
 31
0.0
  0
LINE
  5
6755
  8
0
 10
1619.906258444521
 20
643.23572801288458
 30
0.0
 11
1619.906258444521
 21
642.43572801288474
 31
0.0
  0
LINE
  5
6756
  8
0
 10
922.35625844452125
 20
627.99226701288433
 30
0.0
 11
1633.5562584445211
 21
627.99226701288433
 31
0.0
  0
LINE
  5
6757
  8
0
 10
922.35625844452125
 20
626.89602001288438
 30
0.0
 11
1633.5562584445211
 21
626.89602001288438
 31
0.0
  0
LINE
  5
6758
  8
0
 10
922.35625844452113
 20
658.67543701288446
 30
0.0
 11
1543.856258444521
 21
658.67543701288446
 31
0.0
  0
LINE
  5
6759
  8
0
 10
922.35625844452125
 20
657.57919001288406
 30
0.0
 11
1633.5562584445211
 21
657.57919001288406
 31
0.0
  0
LINE
  5
6761
  8
2
 10
922.35625844452125
 20
655.20795201288445
 30
0.0
 11
922.35625844452125
 21
649.78572801288453
 31
0.0
  0
LINE
  5
6762
  8
2
 10
922.35625844452125
 20
635.78572801288453
 30
0.0
 11
922.35625844452125
 21
630.58691101288446
 31
0.0
  0
TEXT
  5
6815
  8
0
 62
     3
 10
0.0
 20
0.0
 30
0.0
 40
10.0
  1
RS35D-28
  7
STANDARD1
  0
ENDSEC
  0
EOF
