  0
SECTION
  2
HEADER
  9
$ACADVER
  1
AC1009
  9
$INSBASE
 10
0.0
 20
0.0
 30
0.0
  9
$EXTMIN
 10
0.0
 20
-2.960436562073669
 30
0.0
  9
$EXTMAX
 10
848.01229501238379
 20
367.75457266917101
 30
0.0
  9
$LIMMIN
 10
0.0
 20
0.0
  9
$LIMMAX
 10
187.5
 20
135.0
  9
$ORTHOMODE
 70
     0
  9
$REGENMODE
 70
     1
  9
$FILLMODE
 70
     1
  9
$QTEXTMODE
 70
     0
  9
$MIRRTEXT
 70
     0
  9
$DRAGMODE
 70
     2
  9
$LTSCALE
 40
5.0
  9
$OSMODE
 70
    55
  9
$ATTMODE
 70
     1
  9
$TEXTSIZE
 40
2.5
  9
$TRACEWID
 40
0.05
  9
$TEXTSTYLE
  7
STANDARD
  9
$CLAYER
  8
0
  9
$CELTYPE
  6
BYLAYER
  9
$CECOLOR
 62
   256
  9
$DIMSCALE
 40
0.5
  9
$DIMASZ
 40
3.0
  9
$DIMEXO
 40
2.0
  9
$DIMDLI
 40
10.0
  9
$DIMRND
 40
0.0
  9
$DIMDLE
 40
0.0
  9
$DIMEXE
 40
2.0
  9
$DIMTP
 40
0.0
  9
$DIMTM
 40
0.0
  9
$DIMTXT
 40
3.0
  9
$DIMCEN
 40
0.09
  9
$DIMTSZ
 40
0.0
  9
$DIMTOL
 70
     0
  9
$DIMLIM
 70
     0
  9
$DIMTIH
 70
     0
  9
$DIMTOH
 70
     0
  9
$DIMSE1
 70
     0
  9
$DIMSE2
 70
     0
  9
$DIMTAD
 70
     1
  9
$DIMZIN
 70
     0
  9
$DIMBLK
  1

  9
$DIMASO
 70
     0
  9
$DIMSHO
 70
     0
  9
$DIMPOST
  1

  9
$DIMAPOST
  1

  9
$DIMALT
 70
     0
  9
$DIMALTD
 70
     2
  9
$DIMALTF
 40
25.399999999999999
  9
$DIMLFAC
 40
1.0
  9
$DIMTOFL
 70
     1
  9
$DIMTVP
 40
1.6000000000000001
  9
$DIMTIX
 70
     1
  9
$DIMSOXD
 70
     0
  9
$DIMSAH
 70
     0
  9
$DIMBLK1
  1

  9
$DIMBLK2
  1

  9
$DIMSTYLE
  2
STANDARD
  9
$DIMCLRD
 70
     0
  9
$DIMCLRE
 70
     0
  9
$DIMCLRT
 70
     0
  9
$DIMTFAC
 40
1.0
  9
$DIMGAP
 40
0.09
  9
$LUNITS
 70
     2
  9
$LUPREC
 70
     4
  9
$SKETCHINC
 40
0.1
  9
$FILLETRAD
 40
0.0
  9
$AUNITS
 70
     0
  9
$AUPREC
 70
     0
  9
$MENU
  1
E:\r13\win\SUPPORT\ACAD
  9
$ELEVATION
 40
0.0
  9
$PELEVATION
 40
0.0
  9
$THICKNESS
 40
0.0
  9
$LIMCHECK
 70
     0
  9
$BLIPMODE
 70
     0
  9
$CHAMFERA
 40
1.6000000000000001
  9
$CHAMFERB
 40
1.6000000000000001
  9
$SKPOLY
 70
     0
  9
$TDCREATE
 40
2449840.5944097228
  9
$TDUPDATE
 40
2456598.6049923031
  9
$TDINDWG
 40
0.1394392477
  9
$TDUSRTIMER
 40
0.1394392477
  9
$USRTIMER
 70
     1
  9
$ANGBASE
 50
0.0
  9
$ANGDIR
 70
     0
  9
$PDMODE
 70
     0
  9
$PDSIZE
 40
0.0
  9
$PLINEWID
 40
0.0
  9
$COORDS
 70
     1
  9
$SPLFRAME
 70
     0
  9
$SPLINETYPE
 70
     6
  9
$SPLINESEGS
 70
     8
  9
$ATTDIA
 70
     0
  9
$ATTREQ
 70
     1
  9
$HANDLING
 70
     1
  9
$HANDSEED
  5
2CBC
  9
$SURFTAB1
 70
     6
  9
$SURFTAB2
 70
     6
  9
$SURFTYPE
 70
     6
  9
$SURFU
 70
     6
  9
$SURFV
 70
     6
  9
$UCSNAME
  2

  9
$UCSORG
 10
0.0
 20
0.0
 30
0.0
  9
$UCSXDIR
 10
1.0
 20
0.0
 30
0.0
  9
$UCSYDIR
 10
0.0
 20
1.0
 30
0.0
  9
$PUCSNAME
  2

  9
$PUCSORG
 10
0.0
 20
0.0
 30
0.0
  9
$PUCSXDIR
 10
1.0
 20
0.0
 30
0.0
  9
$PUCSYDIR
 10
0.0
 20
1.0
 30
0.0
  9
$USERI1
 70
     0
  9
$USERI2
 70
     1
  9
$USERI3
 70
     1
  9
$USERI4
 70
     0
  9
$USERI5
 70
     0
  9
$USERR1
 40
0.0
  9
$USERR2
 40
0.0
  9
$USERR3
 40
0.0
  9
$USERR4
 40
0.0
  9
$USERR5
 40
0.0
  9
$WORLDVIEW
 70
     1
  9
$SHADEDGE
 70
     3
  9
$SHADEDIF
 70
    70
  9
$TILEMODE
 70
     1
  9
$MAXACTVP
 70
    16
  9
$PLIMCHECK
 70
     0
  9
$PEXTMIN
 10
1.0000000000000000E+020
 20
1.0000000000000000E+020
 30
1.0000000000000000E+020
  9
$PEXTMAX
 10
-1.0000000000000000E+020
 20
-1.0000000000000000E+020
 30
-1.0000000000000000E+020
  9
$PLIMMIN
 10
0.0
 20
0.0
  9
$PLIMMAX
 10
12.0
 20
9.0
  9
$UNITMODE
 70
     0
  9
$VISRETAIN
 70
     0
  9
$PLINEGEN
 70
     0
  9
$PSLTSCALE
 70
     0
  0
ENDSEC
  0
SECTION
  2
TABLES
  0
TABLE
  2
VPORT
 70
     1
  0
VPORT
  2
*ACTIVE
 70
     0
 10
0.0
 20
0.0
 11
1.0
 21
1.0
 12
424.00614948062429
 22
265.60992563601502
 13
0.0
 23
0.0
 14
5.0
 24
5.0
 15
5.0
 25
5.0
 16
0.0
 26
0.0
 36
1.0
 17
0.0
 27
0.0
 37
0.0
 40
542.38791978229779
 41
1.7807262569832401
 42
50.0
 43
0.0
 44
0.0
 50
0.0
 51
0.0
 71
     0
 72
   100
 73
     1
 74
     0
 75
     0
 76
     0
 77
     0
 78
     0
  0
ENDTAB
  0
TABLE
  2
LTYPE
 70
     4
  0
LTYPE
  2
CONTINUOUS
 70
     0
  3
Solid Line
 72
    65
 73
     0
 40
0.0
  0
LTYPE
  2
CENTER
 70
     0
  3
____ _ ____ _ ____ _ ____ _ ____ _ ____ _ ____
 72
    65
 73
     4
 40
2.0
 49
1.25
 49
-0.25
 49
0.25
 49
-0.25
  0
LTYPE
  2
HIDDEN
 70
     0
  3
_ _ _ _ _ _ _ _ _ _ _ _ _ _ _ _ _ _ _ _ _ _ _
 72
    65
 73
     2
 40
0.375
 49
0.25
 49
-0.125
  0
LTYPE
  2
PHANTOM2
 70
     0
  3
___ _ _ ___ _ _ ___ _ _ ___ _ _
 72
    65
 73
     6
 40
1.25
 49
0.625
 49
-0.125
 49
0.125
 49
-0.125
 49
0.125
 49
-0.125
  0
ENDTAB
  0
TABLE
  2
LAYER
 70
     4
  0
LAYER
  2
0
 70
     0
 62
     7
  6
CONTINUOUS
  0
LAYER
  2
1
 70
     0
 62
     1
  6
CENTER
  0
LAYER
  2
2
 70
     0
 62
     2
  6
HIDDEN
  0
LAYER
  2
4
 70
     0
 62
     1
  6
CONTINUOUS
  0
ENDTAB
  0
TABLE
  2
STYLE
 70
     5
  0
STYLE
  2
STANDARD
 70
     0
 40
0.0
 41
1.0
 50
0.0
 71
     0
 42
2.5
  3
TXT
  4
BIGFONT
  0
STYLE
  2
KANJI
 70
     0
 40
0.0
 41
1.0
 50
0.0
 71
     0
 42
5.0
  3
TXT.SHX
  4
bigfont
  0
STYLE
  2
STYLE2
 70
     0
 40
13.0
 41
1.0
 50
0.0
 71
     0
 42
2.5
  3
C:\Program Files\AutoCAD LT\txt.shx
  4
C:\Program Files\AutoCAD LT\bigfont.shx
  0
STYLE
  2
STANDARD2
 70
     0
 40
8.0
 41
1.0
 50
0.0
 71
     0
 42
0.2
  3
C:\Program Files\AutoCAD LT\txt.shx
  4
C:\Program Files\AutoCAD LT\bigfont.shx
  0
STYLE
  2
STANDARD1
 70
     0
 40
0.0
 41
1.0
 50
0.0
 71
     0
 42
3.0
  3
txt
  4

  0
ENDTAB
  0
TABLE
  2
VIEW
 70
     1
  0
VIEW
  2
ALL
 70
     0
 40
135.0
 10
110.49579799999999
 20
67.5
 41
0.0
 11
0.0
 21
0.0
 31
1.0
 12
0.0
 22
0.0
 32
0.0
 42
0.0
 43
0.0
 44
0.0
 50
0.0
 71
     0
  0
ENDTAB
  0
TABLE
  2
UCS
 70
     0
  0
ENDTAB
  0
TABLE
  2
APPID
 70
     4
  0
APPID
  2
ACAD
 70
     0
  0
APPID
  2
DCO15
 70
     0
  0
APPID
  2
ACAD_MLEADERVER
 70
     0
  0
APPID
  2
ACAD_NAV_VCDISPLAY
 70
     0
  0
ENDTAB
  0
TABLE
  2
DIMSTYLE
 70
     1
  0
DIMSTYLE
  2
STANDARD
 70
     0
  3

  4

  5

  6

  7

 40
1.0
 41
0.18
 42
0.0625
 43
0.38
 44
0.18
 45
0.0
 46
0.0
 47
0.0
 48
0.0
140
0.18
141
0.09
142
0.0
143
25.399999999999999
144
1.0
145
0.0
146
1.0
147
0.09
 71
     0
 72
     0
 73
     1
 74
     1
 75
     0
 76
     0
 77
     0
 78
     0
170
     0
171
     2
172
     0
173
     0
174
     0
175
     0
176
     0
177
     0
178
     0
  0
ENDTAB
  0
ENDSEC
  0
SECTION
  2
BLOCKS
  0
BLOCK
  8
0
  2
$MODEL_SPACE
 70
     0
 10
0.0
 20
0.0
 30
0.0
  3
$MODEL_SPACE
  1

  0
ENDBLK
  5
15D
  8
0
  0
BLOCK
 67
     1
  8
0
  2
$PAPER_SPACE
 70
     0
 10
0.0
 20
0.0
 30
0.0
  3
$PAPER_SPACE
  1

  0
ENDBLK
  5
15B
 67
     1
  8
0
  0
BLOCK
  8
0
  2
STDGX5
 70
     0
 10
0.0
 20
0.0
 30
0.0
  3
STDGX5
  1

  0
ENDBLK
  5
41
  8
0
  0
ENDSEC
  0
SECTION
  2
ENTITIES
  0
INSERT
  5
CA
  8
0
  2
STDGX5
 10
0.0
 20
0.0
 30
0.0
  0
INSERT
  5
69A
  8
0
  2
STDGX5
 10
194.3272563481562
 20
13.52129245667936
 30
0.0
  0
INSERT
  5
1343
  8
0
  2
STDGX5
 10
563.10080863610574
 20
-59.557035590067017
 30
0.0
  0
INSERT
  5
1345
  8
0
  2
STDGX5
 10
757.42806498426194
 20
-46.035743133387648
 30
0.0
  0
LINE
  5
247B
  8
0
 10
129.5584050123841
 20
344.28957266917092
 30
0.0
 11
129.5584050123841
 21
337.1895726691705
 31
0.0
  0
LINE
  5
247C
  8
0
 10
128.85840501238431
 20
344.28957266917092
 30
0.0
 11
128.85840501238431
 21
337.1895726691705
 31
0.0
  0
ARC
  5
247D
  8
0
 10
132.15840501238361
 20
336.34457266917019
 30
0.0
 40
3.931
 50
47.952971999981628
 51
126.9999999999952
  0
LINE
  5
247E
  8
0
 10
136.6584050123835
 20
339.40480866917051
 30
0.0
 11
136.6584050123835
 21
360.77433766917011
 31
0.0
  0
LINE
  5
247F
  8
0
 10
135.10840501238431
 20
339.40480866917051
 30
0.0
 11
135.10840501238431
 21
360.77433766917011
 31
0.0
  0
LINE
  5
2480
  8
0
 10
128.63240501238371
 20
336.91244566917021
 30
0.0
 11
128.63240501238371
 21
363.26669966917098
 31
0.0
  0
LINE
  5
2481
  8
0
 10
127.1084050123843
 20
336.91244566917021
 30
0.0
 11
127.1084050123843
 21
363.26669966917098
 31
0.0
  0
ARC
  5
2482
  8
0
 10
134.9184050123838
 20
339.40480866917051
 30
0.0
 40
1.74
 50
227.95297199998171
 51
0.0
  0
LINE
  5
2483
  8
0
 10
135.85840501238431
 20
336.88957266917032
 30
0.0
 11
135.85840501238431
 21
336.1895726691705
 31
0.0
  0
ARC
  5
2484
  8
0
 10
134.9184050123838
 20
339.40480866917051
 30
0.0
 40
0.19
 50
227.95297199998171
 51
0.0
  0
LINE
  5
2485
  8
0
 10
134.84506601238419
 20
335.55388866916968
 30
0.0
 11
135.86840501238359
 21
334.42457266917017
 31
0.0
  0
LINE
  5
2486
  8
0
 10
134.6253410123843
 20
333.2981606691705
 30
0.0
 11
135.86840501238359
 21
334.42457266917017
 31
0.0
  0
LINE
  5
2487
  8
0
 10
133.88922801238431
 20
334.68774766917022
 30
0.0
 11
134.84506601238419
 21
335.55388866916968
 31
0.0
  0
ARC
  5
2488
  8
0
 10
129.85840501238431
 20
337.1895726691705
 30
0.0
 40
0.3
 50
180.0
 51
270.0
  0
LINE
  5
2489
  8
0
 10
129.79267001238409
 20
339.48400866917069
 30
0.0
 11
130.72548301238359
 21
338.24612366917017
 31
0.0
  0
LINE
  5
248A
  8
0
 10
130.52433701238419
 20
334.59224966917049
 30
0.0
 11
129.0490290123841
 21
335.95869166917009
 31
0.0
  0
LINE
  5
248B
  8
0
 10
129.4887490123844
 20
333.47415566917022
 30
0.0
 11
128.01344101238439
 21
334.84059766917062
 31
0.0
  0
ARC
  5
248C
  8
0
 10
129.9324050123839
 20
336.91244566917021
 30
0.0
 40
2.823999999999999
 50
180.0
 51
227.1938819999904
  0
ARC
  5
248D
  8
0
 10
129.9324050123839
 20
336.91244566917021
 30
0.0
 40
1.3
 50
180.0
 51
227.1938819999904
  0
ARC
  5
248E
  8
0
 10
129.85840501238431
 20
337.1895726691705
 30
0.0
 40
1.0
 50
180.0
 51
270.0
  0
ARC
  5
248F
  8
0
 10
132.15840501238361
 20
336.34457266917019
 30
0.0
 40
2.379999999999999
 50
13.23770999997376
 51
166.7508530000195
  0
LINE
  5
2490
  8
0
 10
135.85840501238431
 20
336.1895726691705
 30
0.0
 11
129.85840501238431
 21
336.1895726691705
 31
0.0
  0
LINE
  5
2491
  8
0
 10
135.85840501238431
 20
336.88957266917032
 30
0.0
 11
129.85840501238431
 21
336.88957266917032
 31
0.0
  0
ARC
  5
2492
  8
0
 10
132.15840501238361
 20
336.34457266917019
 30
0.0
 40
2.3809999999999989
 50
47.952971999981628
 51
126.9999999999952
  0
ARC
  5
2493
  8
0
 10
132.15840501238361
 20
336.34457266917019
 30
0.0
 40
3.919999999999999
 50
227.04230300001271
 51
309.00000000000932
  0
ARC
  5
2494
  8
0
 10
132.15840501238361
 20
336.34457266917019
 30
0.0
 40
2.395999999999999
 50
226.9999999999857
 51
316.25133899997968
  0
ARC
  5
2495
  8
0
 10
132.15840501238361
 20
336.34457266917019
 30
0.0
 40
2.379999999999999
 50
183.66590899997581
 51
356.26590899998581
  0
ARC
  5
2496
  8
0
 10
134.9184050123838
 20
360.77433766917011
 30
0.0
 40
1.74
 50
0.0
 51
132.04702800001829
  0
ARC
  5
2497
  8
0
 10
134.9184050123838
 20
360.77433766917011
 30
0.0
 40
0.19
 50
0.0
 51
132.04702800001829
  0
LINE
  5
2498
  8
0
 10
134.84506601238419
 20
364.6252566691706
 30
0.0
 11
135.86840501238359
 21
365.7545726691701
 31
0.0
  0
LINE
  5
2499
  8
0
 10
133.88922801238431
 20
365.49139766917
 30
0.0
 11
134.84506601238419
 21
364.6252566691706
 31
0.0
  0
LINE
  5
249A
  8
0
 10
135.85840501238431
 20
363.98957266917068
 30
0.0
 11
135.85840501238431
 21
363.28957266917092
 31
0.0
  0
LINE
  5
249B
  8
0
 10
134.6253410123843
 20
366.88098466917057
 30
0.0
 11
135.86840501238359
 21
365.7545726691701
 31
0.0
  0
ARC
  5
249C
  8
0
 10
129.9324050123839
 20
363.26669966917098
 30
0.0
 40
2.823999999999999
 50
132.8061180000096
 51
180.0
  0
LINE
  5
249D
  8
0
 10
129.79267001238409
 20
360.69513666917049
 30
0.0
 11
130.72548301238359
 21
361.93302166917101
 31
0.0
  0
ARC
  5
249E
  8
0
 10
129.9324050123839
 20
363.26669966917098
 30
0.0
 40
1.3
 50
132.8061180000096
 51
180.0
  0
ARC
  5
249F
  8
0
 10
129.85840501238431
 20
362.98957266917068
 30
0.0
 40
0.3
 50
90.0
 51
180.0
  0
LINE
  5
24A0
  8
0
 10
130.52433701238419
 20
365.58689666917098
 30
0.0
 11
129.0490290123841
 21
364.22045366917109
 31
0.0
  0
ARC
  5
24A1
  8
0
 10
129.85840501238431
 20
362.98957266917068
 30
0.0
 40
1.0
 50
90.0
 51
180.0
  0
LINE
  5
24A2
  8
0
 10
131.25840501238389
 20
354.88957266917032
 30
0.0
 11
129.85840501238431
 21
354.88957266917032
 31
0.0
  0
LINE
  5
24A3
  8
0
 10
131.25840501238389
 20
355.58957266917008
 30
0.0
 11
129.85840501238431
 21
355.58957266917008
 31
0.0
  0
ARC
  5
24A4
  8
0
 10
129.85840501238431
 20
355.88957266917032
 30
0.0
 40
0.3
 50
180.0
 51
270.0
  0
ARC
  5
24A5
  8
0
 10
129.85840501238431
 20
355.88957266917032
 30
0.0
 40
1.0
 50
180.0
 51
270.0
  0
LINE
  5
24A6
  8
0
 10
128.85840501238431
 20
362.98957266917068
 30
0.0
 11
128.85840501238431
 21
355.88957266917032
 31
0.0
  0
LINE
  5
24A7
  8
0
 10
129.5584050123841
 20
362.98957266917068
 30
0.0
 11
129.5584050123841
 21
355.88957266917032
 31
0.0
  0
LINE
  5
24A8
  8
0
 10
129.4887490123844
 20
366.70498966917103
 30
0.0
 11
128.01344101238439
 21
365.33854766917062
 31
0.0
  0
ARC
  5
24A9
  8
0
 10
132.15840501238361
 20
363.83457266916997
 30
0.0
 40
3.919999999999999
 50
50.999999999990742
 51
132.95769699998729
  0
ARC
  5
24AA
  8
0
 10
132.15840501238361
 20
363.83457266916997
 30
0.0
 40
2.379999999999999
 50
193.2491469999805
 51
346.76229000002621
  0
ARC
  5
24AB
  8
0
 10
132.15840501238361
 20
363.83457266916997
 30
0.0
 40
2.3809999999999989
 50
233.0000000000048
 51
312.04702800001837
  0
ARC
  5
24AC
  8
0
 10
132.15840501238361
 20
363.83457266916997
 30
0.0
 40
3.931
 50
233.0000000000048
 51
312.04702800001837
  0
LINE
  5
24AD
  8
0
 10
135.85840501238431
 20
363.98957266917068
 30
0.0
 11
129.85840501238431
 21
363.98957266917068
 31
0.0
  0
LINE
  5
24AE
  8
0
 10
135.85840501238431
 20
363.28957266917092
 30
0.0
 11
129.85840501238431
 21
363.28957266917092
 31
0.0
  0
ARC
  5
24AF
  8
0
 10
131.25840501238389
 20
354.58957266917008
 30
0.0
 40
1.0
 50
0.0
 51
90.0
  0
ARC
  5
24B0
  8
0
 10
131.25840501238389
 20
354.58957266917008
 30
0.0
 40
0.3
 50
0.0
 51
90.0
  0
ARC
  5
24B1
  8
0
 10
132.15840501238361
 20
363.83457266916997
 30
0.0
 40
2.379999999999999
 50
3.7340910000142311
 51
176.33409100002419
  0
ARC
  5
24B2
  8
0
 10
132.15840501238361
 20
363.83457266916997
 30
0.0
 40
2.395999999999999
 50
43.74866100002027
 51
133.00000000001421
  0
LINE
  5
24B3
  8
0
 10
131.25840501238389
 20
345.28957266917092
 30
0.0
 11
129.85840501238431
 21
345.28957266917092
 31
0.0
  0
LINE
  5
24B4
  8
0
 10
131.25840501238389
 20
344.5895726691702
 30
0.0
 11
129.85840501238431
 21
344.5895726691702
 31
0.0
  0
ARC
  5
24B5
  8
0
 10
129.85840501238431
 20
344.28957266917092
 30
0.0
 40
0.3
 50
90.0
 51
180.0
  0
ARC
  5
24B6
  8
0
 10
129.85840501238431
 20
344.28957266917092
 30
0.0
 40
1.0
 50
90.0
 51
180.0
  0
ARC
  5
24B7
  8
0
 10
131.25840501238389
 20
345.58957266917008
 30
0.0
 40
1.0
 50
270.0
 51
0.0
  0
ARC
  5
24B8
  8
0
 10
131.25840501238389
 20
345.58957266917008
 30
0.0
 40
0.3
 50
270.0
 51
0.0
  0
LINE
  5
24B9
  8
1
 10
141.65840501238361
 20
350.08957266917008
 30
0.0
 11
122.1084050123843
 21
350.08957266917008
 31
0.0
1001
ACAD
1000
ASC_BOUNDS
1002
{
1070
    19
1002
}
  0
LINE
  5
24BA
  8
0
 10
132.25840501238389
 20
354.58957266917008
 30
0.0
 11
132.25840501238389
 21
345.58957266917008
 31
0.0
  0
LINE
  5
24BB
  8
0
 10
131.5584050123841
 20
354.58957266917008
 30
0.0
 11
131.5584050123841
 21
345.58957266917008
 31
0.0
  0
ARC
  5
28D4
  8
0
 10
608.26229501238379
 20
349.58957266917008
 30
0.0
 40
1.5
 50
180.0
 51
270.0
  0
ARC
  5
28D5
  8
0
 10
608.26229501238379
 20
350.58957266917008
 30
0.0
 40
1.5
 50
90.0
 51
180.0
  0
LINE
  5
28D6
  8
0
 10
606.7622950123839
 20
349.58957266917008
 30
0.0
 11
606.7622950123839
 21
350.58957266917008
 31
0.0
  0
ARC
  5
28D7
  8
0
 10
610.56229501238408
 20
349.58957266917008
 30
0.0
 40
1.5
 50
270.0
 51
0.0
  0
ARC
  5
28D8
  8
0
 10
610.56229501238408
 20
350.58957266917008
 30
0.0
 40
1.5
 50
0.0
 51
90.0
  0
LINE
  5
28D9
  8
0
 10
612.06229501238397
 20
349.58957266917008
 30
0.0
 11
612.06229501238397
 21
350.58957266917008
 31
0.0
  0
LINE
  5
28DA
  8
0
 10
610.56229501238408
 20
348.08957266917008
 30
0.0
 11
608.26229501238379
 21
348.08957266917008
 31
0.0
  0
LINE
  5
28DB
  8
0
 10
610.56229501238408
 20
352.08957266917008
 30
0.0
 11
608.26229501238379
 21
352.08957266917008
 31
0.0
  0
ARC
  5
28DD
  8
0
 10
522.56229501238408
 20
349.58957266917008
 30
0.0
 40
1.5
 50
180.0
 51
270.0
  0
ARC
  5
28DE
  8
0
 10
522.56229501238408
 20
350.58957266917008
 30
0.0
 40
1.5
 50
90.0
 51
180.0
  0
LINE
  5
28DF
  8
0
 10
521.06229501238397
 20
349.58957266917008
 30
0.0
 11
521.06229501238397
 21
350.58957266917008
 31
0.0
  0
ARC
  5
28E0
  8
0
 10
524.86229501238415
 20
349.58957266917008
 30
0.0
 40
1.5
 50
270.0
 51
0.0
  0
ARC
  5
28E1
  8
0
 10
524.86229501238415
 20
350.58957266917008
 30
0.0
 40
1.5
 50
0.0
 51
90.0
  0
LINE
  5
28E2
  8
0
 10
526.36229501238415
 20
349.58957266917008
 30
0.0
 11
526.36229501238415
 21
350.58957266917008
 31
0.0
  0
LINE
  5
28E3
  8
0
 10
524.86229501238415
 20
348.08957266917008
 30
0.0
 11
522.56229501238408
 21
348.08957266917008
 31
0.0
  0
LINE
  5
28E4
  8
0
 10
524.86229501238415
 20
352.08957266917008
 30
0.0
 11
522.56229501238408
 21
352.08957266917008
 31
0.0
  0
ARC
  5
28E5
  8
0
 10
510.51229501238379
 20
351.23957266917068
 30
0.0
 40
1.5
 50
90.0
 51
180.0
  0
ARC
  5
28E6
  8
0
 10
511.5122950123839
 20
351.23957266917068
 30
0.0
 40
1.5
 50
0.0
 51
90.0
  0
LINE
  5
28E7
  8
0
 10
510.51229501238379
 20
352.73957266917068
 30
0.0
 11
511.5122950123839
 21
352.73957266917068
 31
0.0
  0
ARC
  5
28E8
  8
0
 10
510.51229501238379
 20
348.9395726691705
 30
0.0
 40
1.5
 50
180.0
 51
270.0
  0
ARC
  5
28E9
  8
0
 10
511.5122950123839
 20
348.9395726691705
 30
0.0
 40
1.5
 50
270.0
 51
0.0
  0
LINE
  5
28EA
  8
0
 10
510.51229501238379
 20
347.4395726691705
 30
0.0
 11
511.5122950123839
 21
347.4395726691705
 31
0.0
  0
LINE
  5
28EB
  8
0
 10
509.0122950123839
 20
348.9395726691705
 30
0.0
 11
509.0122950123839
 21
351.23957266917068
 31
0.0
  0
LINE
  5
28EC
  8
0
 10
513.0122950123839
 20
348.9395726691705
 30
0.0
 11
513.0122950123839
 21
351.23957266917068
 31
0.0
  0
ARC
  5
28ED
  8
0
 10
497.81229501238403
 20
351.23957266917068
 30
0.0
 40
1.5
 50
90.0
 51
180.0
  0
ARC
  5
28EE
  8
0
 10
498.81229501238403
 20
351.23957266917068
 30
0.0
 40
1.5
 50
0.0
 51
90.0
  0
LINE
  5
28EF
  8
0
 10
497.81229501238403
 20
352.73957266917068
 30
0.0
 11
498.81229501238403
 21
352.73957266917068
 31
0.0
  0
ARC
  5
28F0
  8
0
 10
497.81229501238403
 20
348.9395726691705
 30
0.0
 40
1.5
 50
180.0
 51
270.0
  0
ARC
  5
28F1
  8
0
 10
498.81229501238403
 20
348.9395726691705
 30
0.0
 40
1.5
 50
270.0
 51
0.0
  0
LINE
  5
28F2
  8
0
 10
497.81229501238403
 20
347.4395726691705
 30
0.0
 11
498.81229501238403
 21
347.4395726691705
 31
0.0
  0
LINE
  5
28F3
  8
0
 10
496.31229501238408
 20
348.9395726691705
 30
0.0
 11
496.31229501238408
 21
351.23957266917068
 31
0.0
  0
LINE
  5
28F4
  8
0
 10
500.31229501238408
 20
348.9395726691705
 30
0.0
 11
500.31229501238408
 21
351.23957266917068
 31
0.0
  0
LINE
  5
28F7
  8
1
 10
523.71229501238372
 20
345.08957266917008
 30
0.0
 11
523.71229501238372
 21
355.0895726691702
 31
0.0
  0
LINE
  5
28F8
  8
1
 10
511.01229501238379
 20
344.4395726691705
 30
0.0
 11
511.01229501238379
 21
355.73957266917068
 31
0.0
  0
LINE
  5
28FA
  8
1
 10
609.41229501238354
 20
345.08957266917008
 30
0.0
 11
609.41229501238354
 21
355.0895726691702
 31
0.0
  0
LINE
  5
2943
  8
0
 10
482.41229501238348
 20
337.66635466917018
 30
0.0
 11
482.41229501238348
 21
332.42457266917017
 31
0.0
  0
LINE
  5
2944
  8
0
 10
482.41229501238348
 20
337.66635466917018
 30
0.0
 11
482.41229501238348
 21
332.42457266917017
 31
0.0
  0
LINE
  5
2945
  8
0
 10
482.41229501238348
 20
337.66635466917018
 30
0.0
 11
482.41229501238348
 21
332.42457266917017
 31
0.0
  0
LINE
  5
2946
  8
0
 10
482.41229501238348
 20
337.66635466917018
 30
0.0
 11
482.41229501238348
 21
332.42457266917017
 31
0.0
  0
LINE
  5
2947
  8
0
 10
482.41229501238348
 20
337.66635466917018
 30
0.0
 11
482.41229501238348
 21
332.42457266917017
 31
0.0
  0
LINE
  5
2948
  8
0
 10
482.41229501238348
 20
337.66635466917018
 30
0.0
 11
482.41229501238348
 21
332.42457266917017
 31
0.0
  0
LINE
  5
294F
  8
0
 10
482.41229501238348
 20
367.75457266917101
 30
0.0
 11
482.41229501238348
 21
362.51279066917101
 31
0.0
  0
LINE
  5
2950
  8
0
 10
482.41229501238348
 20
367.75457266917101
 30
0.0
 11
482.41229501238348
 21
362.51279066917101
 31
0.0
  0
LINE
  5
2951
  8
0
 10
482.41229501238348
 20
367.75457266917101
 30
0.0
 11
482.41229501238348
 21
362.51279066917101
 31
0.0
  0
LINE
  5
2952
  8
0
 10
482.41229501238348
 20
367.75457266917101
 30
0.0
 11
482.41229501238348
 21
362.51279066917101
 31
0.0
  0
LINE
  5
2953
  8
0
 10
482.41229501238348
 20
367.75457266917101
 30
0.0
 11
482.41229501238348
 21
362.51279066917101
 31
0.0
  0
LINE
  5
2954
  8
0
 10
482.41229501238348
 20
367.75457266917101
 30
0.0
 11
482.41229501238348
 21
362.51279066917101
 31
0.0
  0
LINE
  5
2959
  8
0
 10
838.0122950123839
 20
367.75457266917101
 30
0.0
 11
838.0122950123839
 21
332.42457266917017
 31
0.0
  0
LINE
  5
295A
  8
0
 10
838.0122950123839
 20
367.75457266917101
 30
0.0
 11
838.0122950123839
 21
332.42457266917017
 31
0.0
  0
LINE
  5
295B
  8
0
 10
838.0122950123839
 20
367.75457266917101
 30
0.0
 11
838.0122950123839
 21
332.42457266917017
 31
0.0
  0
LINE
  5
295C
  8
0
 10
838.0122950123839
 20
367.75457266917101
 30
0.0
 11
838.0122950123839
 21
332.42457266917017
 31
0.0
  0
LINE
  5
295D
  8
0
 10
838.0122950123839
 20
367.75457266917101
 30
0.0
 11
838.0122950123839
 21
332.42457266917017
 31
0.0
  0
LINE
  5
295E
  8
0
 10
838.0122950123839
 20
367.75457266917101
 30
0.0
 11
838.0122950123839
 21
332.42457266917017
 31
0.0
  0
LINE
  5
295F
  8
0
 10
838.0122950123839
 20
367.75457266917101
 30
0.0
 11
838.0122950123839
 21
332.42457266917017
 31
0.0
  0
LINE
  5
2960
  8
0
 10
838.0122950123839
 20
367.75457266917101
 30
0.0
 11
838.0122950123839
 21
332.42457266917017
 31
0.0
  0
LINE
  5
2961
  8
0
 10
838.0122950123839
 20
367.75457266917101
 30
0.0
 11
838.0122950123839
 21
332.42457266917017
 31
0.0
  0
LINE
  5
2962
  8
0
 10
838.0122950123839
 20
367.75457266917101
 30
0.0
 11
838.0122950123839
 21
332.42457266917017
 31
0.0
  0
LINE
  5
2963
  8
0
 10
482.41229501238348
 20
367.75457266917101
 30
0.0
 11
838.0122950123839
 21
367.75457266917101
 31
0.0
  0
LINE
  5
2964
  8
0
 10
482.41229501238348
 20
364.6252566691706
 30
0.0
 11
838.0122950123839
 21
364.6252566691706
 31
0.0
  0
LINE
  5
2965
  8
0
 10
482.41229501238348
 20
365.75457266917101
 30
0.0
 11
838.0122950123839
 21
365.75457266917101
 31
0.0
  0
LINE
  5
2966
  8
0
 10
482.41229501238348
 20
335.55388866917059
 30
0.0
 11
838.0122950123839
 21
335.55388866917059
 31
0.0
  0
LINE
  5
2967
  8
0
 10
482.41229501238348
 20
334.42457266917017
 30
0.0
 11
838.0122950123839
 21
334.42457266917017
 31
0.0
  0
LINE
  5
2968
  8
0
 10
482.41229501238348
 20
332.42457266917017
 30
0.0
 11
838.0122950123839
 21
332.42457266917017
 31
0.0
  0
ARC
  5
296A
  8
0
 10
697.16229501238354
 20
349.58957266917008
 30
0.0
 40
1.5
 50
180.0
 51
270.0
  0
ARC
  5
296B
  8
0
 10
697.16229501238354
 20
350.58957266917008
 30
0.0
 40
1.5
 50
90.0
 51
180.0
  0
ARC
  5
296D
  8
0
 10
699.46229501238372
 20
349.58957266917008
 30
0.0
 40
1.5
 50
270.0
 51
0.0
  0
ARC
  5
296E
  8
0
 10
699.46229501238372
 20
350.58957266917008
 30
0.0
 40
1.5
 50
0.0
 51
90.0
  0
LINE
  5
2970
  8
0
 10
699.46229501238372
 20
348.08957266917008
 30
0.0
 11
697.16229501238354
 21
348.08957266917008
 31
0.0
  0
LINE
  5
2971
  8
0
 10
699.46229501238372
 20
352.08957266917008
 30
0.0
 11
697.16229501238354
 21
352.08957266917008
 31
0.0
  0
LINE
  5
297B
  8
0
 10
811.41229501238354
 20
348.9395726691705
 30
0.0
 11
811.41229501238354
 21
351.23957266917068
 31
0.0
  0
LINE
  5
297C
  8
0
 10
807.41229501238342
 20
348.9395726691705
 30
0.0
 11
807.41229501238342
 21
351.23957266917068
 31
0.0
  0
LINE
  5
297D
  8
0
 10
808.91229501238354
 20
347.4395726691705
 30
0.0
 11
809.91229501238354
 21
347.4395726691705
 31
0.0
  0
ARC
  5
297E
  8
0
 10
809.91229501238354
 20
348.9395726691705
 30
0.0
 40
1.5
 50
270.0
 51
0.0
  0
ARC
  5
297F
  8
0
 10
808.91229501238354
 20
348.9395726691705
 30
0.0
 40
1.5
 50
180.0
 51
270.0
  0
LINE
  5
2980
  8
0
 10
808.91229501238354
 20
352.73957266917068
 30
0.0
 11
809.91229501238354
 21
352.73957266917068
 31
0.0
  0
ARC
  5
2981
  8
0
 10
809.91229501238354
 20
351.23957266917068
 30
0.0
 40
1.5
 50
0.0
 51
90.0
  0
ARC
  5
2982
  8
0
 10
808.91229501238354
 20
351.23957266917068
 30
0.0
 40
1.5
 50
90.0
 51
180.0
  0
LINE
  5
2987
  8
0
 10
824.11229501238427
 20
348.9395726691705
 30
0.0
 11
824.11229501238427
 21
351.23957266917068
 31
0.0
  0
LINE
  5
2988
  8
0
 10
820.11229501238415
 20
348.9395726691705
 30
0.0
 11
820.11229501238415
 21
351.23957266917068
 31
0.0
  0
LINE
  5
2989
  8
0
 10
821.61229501238427
 20
347.4395726691705
 30
0.0
 11
822.61229501238415
 21
347.4395726691705
 31
0.0
  0
ARC
  5
298A
  8
0
 10
822.61229501238415
 20
348.9395726691705
 30
0.0
 40
1.5
 50
270.0
 51
0.0
  0
ARC
  5
298B
  8
0
 10
821.61229501238427
 20
348.9395726691705
 30
0.0
 40
1.5
 50
180.0
 51
270.0
  0
LINE
  5
298C
  8
0
 10
821.61229501238427
 20
352.73957266917068
 30
0.0
 11
822.61229501238415
 21
352.73957266917068
 31
0.0
  0
ARC
  5
298D
  8
0
 10
822.61229501238415
 20
351.23957266917068
 30
0.0
 40
1.5
 50
0.0
 51
90.0
  0
ARC
  5
298E
  8
0
 10
821.61229501238427
 20
351.23957266917068
 30
0.0
 40
1.5
 50
90.0
 51
180.0
  0
ARC
  5
299A
  8
0
 10
331.16229501238348
 20
350.58957266917008
 30
0.0
 40
1.5
 50
0.0
 51
90.0
  0
LINE
  5
299B
  8
1
 10
330.0122950123839
 20
354.94014734385399
 30
0.0
 11
330.01229501238402
 21
345.23899799448623
 31
0.0
  0
ARC
  5
299C
  8
0
 10
331.16229501238348
 20
349.58957266917008
 30
0.0
 40
1.5
 50
270.0
 51
0.0
  0
LINE
  5
299D
  8
0
 10
327.36229501238432
 20
349.58957266917008
 30
0.0
 11
327.36229501238432
 21
350.58957266917008
 31
0.0
  0
ARC
  5
299E
  8
0
 10
328.86229501238432
 20
350.58957266917008
 30
0.0
 40
1.5
 50
90.0
 51
180.0
  0
ARC
  5
299F
  8
0
 10
328.86229501238432
 20
349.58957266917008
 30
0.0
 40
1.5
 50
180.0
 51
270.0
  0
LINE
  5
29A0
  8
0
 10
332.66229501238359
 20
349.58957266917008
 30
0.0
 11
332.66229501238359
 21
350.58957266917008
 31
0.0
  0
LINE
  5
29A2
  8
0
 10
328.86229501238432
 20
352.08957266917008
 30
0.0
 11
331.16229501238348
 21
352.08957266917008
 31
0.0
  0
LINE
  5
29A3
  8
0
 10
328.86229501238432
 20
348.08957266917008
 30
0.0
 11
331.16229501238348
 21
348.08957266917008
 31
0.0
  0
ARC
  5
29A7
  8
0
 10
227.91229501238351
 20
351.23957266917068
 30
0.0
 40
1.5
 50
90.0
 51
180.0
  0
LINE
  5
29A8
  8
1
 10
228.41229501238359
 20
344.4395726691705
 30
0.0
 11
228.41229501238359
 21
355.73957266917068
 31
0.0
  0
ARC
  5
29A9
  8
0
 10
228.91229501238351
 20
351.23957266917068
 30
0.0
 40
1.5
 50
0.0
 51
90.0
  0
LINE
  5
29AA
  8
0
 10
227.91229501238351
 20
352.73957266917068
 30
0.0
 11
228.91229501238351
 21
352.73957266917068
 31
0.0
  0
ARC
  5
29AB
  8
0
 10
227.91229501238351
 20
348.9395726691705
 30
0.0
 40
1.5
 50
180.0
 51
270.0
  0
ARC
  5
29AC
  8
0
 10
228.91229501238351
 20
348.9395726691705
 30
0.0
 40
1.5
 50
270.0
 51
0.0
  0
LINE
  5
29AD
  8
0
 10
227.91229501238351
 20
347.4395726691705
 30
0.0
 11
228.91229501238351
 21
347.4395726691705
 31
0.0
  0
LINE
  5
29AE
  8
0
 10
226.41229501238359
 20
348.9395726691705
 30
0.0
 11
226.41229501238359
 21
351.23957266917068
 31
0.0
  0
LINE
  5
29AF
  8
0
 10
230.41229501238359
 20
348.9395726691705
 30
0.0
 11
230.41229501238359
 21
351.23957266917068
 31
0.0
  0
CIRCLE
  5
29B0
  8
0
 10
218.91229501238351
 20
350.08957266917008
 30
0.0
 40
4.75
  0
LINE
  5
29B3
  8
0
 10
203.0122950123839
 20
337.66635466917018
 30
0.0
 11
203.0122950123839
 21
362.51279066917101
 31
0.0
  0
LINE
  5
29B4
  8
0
 10
203.0122950123839
 20
337.66635466917018
 30
0.0
 11
203.0122950123839
 21
362.51279066917101
 31
0.0
  0
LINE
  5
29B5
  8
0
 10
203.0122950123839
 20
337.66635466917018
 30
0.0
 11
203.0122950123839
 21
362.51279066917101
 31
0.0
  0
LINE
  5
29B6
  8
0
 10
203.0122950123839
 20
337.66635466917018
 30
0.0
 11
203.0122950123839
 21
362.51279066917101
 31
0.0
  0
LINE
  5
29B7
  8
0
 10
203.0122950123839
 20
337.54313566917108
 30
0.0
 11
203.0122950123839
 21
362.38957266917032
 31
0.0
  0
LINE
  5
29B8
  8
0
 10
203.0122950123839
 20
337.54313566917108
 30
0.0
 11
203.0122950123839
 21
362.38957266917032
 31
0.0
  0
LINE
  5
29B9
  8
0
 10
203.0122950123839
 20
337.66635466917018
 30
0.0
 11
203.0122950123839
 21
362.51279066917101
 31
0.0
  0
LINE
  5
29BA
  8
0
 10
203.0122950123839
 20
362.51279066917101
 30
0.0
 11
203.0122950123839
 21
337.66635466917018
 31
0.0
  0
LINE
  5
29BB
  8
0
 10
203.0122950123839
 20
337.66635466917018
 30
0.0
 11
203.0122950123839
 21
362.51279066917101
 31
0.0
  0
LINE
  5
29BC
  8
0
 10
203.0122950123839
 20
337.66635466917018
 30
0.0
 11
203.0122950123839
 21
362.51279066917101
 31
0.0
  0
LINE
  5
29BF
  8
1
 10
191.65840501238361
 20
350.08957266917008
 30
0.0
 11
848.01229501238379
 21
350.08957266917008
 31
0.0
  0
LINE
  5
29C0
  8
2
 10
203.0122950123839
 20
359.90357266917039
 30
0.0
 11
557.01229501238379
 21
359.90357266917039
 31
0.0
  0
LINE
  5
29C1
  8
0
 10
203.0122950123839
 20
362.51279066917101
 30
0.0
 11
557.01229501238379
 21
362.51279066917101
 31
0.0
  0
LINE
  5
29C2
  8
2
 10
203.0122950123839
 20
340.2755726691708
 30
0.0
 11
557.01229501238379
 21
340.2755726691708
 31
0.0
  0
LINE
  5
29C3
  8
0
 10
203.0122950123839
 20
337.66635466917018
 30
0.0
 11
557.01229501238379
 21
337.66635466917018
 31
0.0
  0
LINE
  5
29C4
  8
0
 10
557.01229501238379
 20
337.66635466917018
 30
0.0
 11
557.01229501238379
 21
362.51279066917101
 31
0.0
  0
LINE
  5
29C5
  8
0
 10
558.61229501238427
 20
341.58957266917008
 30
0.0
 11
557.01229501238379
 21
341.58957266917008
 31
0.0
  0
LINE
  5
29C6
  8
0
 10
558.61229501238427
 20
345.59958366917039
 30
0.0
 11
557.01229501238379
 21
345.59958366917039
 31
0.0
  0
LINE
  5
29C7
  8
0
 10
555.21229501238372
 20
344.08957266917008
 30
0.0
 11
557.01229501238379
 21
344.8145726691705
 31
0.0
  0
LINE
  5
29C8
  8
0
 10
555.21229501238372
 20
344.08957266917008
 30
0.0
 11
557.01229501238379
 21
343.36457266917068
 31
0.0
  0
LINE
  5
29C9
  8
0
 10
555.21229501238372
 20
344.08957266917008
 30
0.0
 11
557.01229501238379
 21
344.08957266917008
 31
0.0
  0
LINE
  5
29CA
  8
0
 10
557.01229501238379
 20
360.08957266917008
 30
0.0
 11
558.61229501238427
 21
359.56783366917028
 31
0.0
  0
LINE
  5
29CB
  8
0
 10
558.61229501238427
 20
358.58957266917008
 30
0.0
 11
557.01229501238379
 21
358.58957266917008
 31
0.0
  0
LINE
  5
29CC
  8
0
 10
558.61229501238427
 20
354.57956166917069
 30
0.0
 11
557.01229501238379
 21
354.57956166917069
 31
0.0
  0
LINE
  5
29CD
  8
0
 10
555.21229501238372
 20
356.08957266917008
 30
0.0
 11
557.01229501238379
 21
356.8145726691705
 31
0.0
  0
LINE
  5
29CE
  8
0
 10
555.21229501238372
 20
356.08957266917008
 30
0.0
 11
557.01229501238379
 21
355.36457266917068
 31
0.0
  0
LINE
  5
29CF
  8
0
 10
555.21229501238372
 20
356.08957266917008
 30
0.0
 11
557.01229501238379
 21
356.08957266917008
 31
0.0
  0
LINE
  5
29D0
  8
0
 10
558.61229501238427
 20
340.6113116691709
 30
0.0
 11
558.61229501238427
 21
359.56783366917028
 31
0.0
  0
LINE
  5
29D1
  8
0
 10
557.01229501238379
 20
340.08957266917008
 30
0.0
 11
558.61229501238427
 21
340.6113116691709
 31
0.0
  0
ARC
  5
29D3
  8
0
 10
532.71229501238372
 20
351.23957266917068
 30
0.0
 40
1.5
 50
90.0
 51
180.0
  0
ARC
  5
29D4
  8
0
 10
533.71229501238372
 20
351.23957266917068
 30
0.0
 40
1.5
 50
0.0
 51
90.0
  0
LINE
  5
29D5
  8
0
 10
532.71229501238372
 20
352.73957266917068
 30
0.0
 11
533.71229501238372
 21
352.73957266917068
 31
0.0
  0
ARC
  5
29D6
  8
0
 10
532.71229501238372
 20
348.9395726691705
 30
0.0
 40
1.5
 50
180.0
 51
270.0
  0
ARC
  5
29D7
  8
0
 10
533.71229501238372
 20
348.9395726691705
 30
0.0
 40
1.5
 50
270.0
 51
0.0
  0
LINE
  5
29D8
  8
0
 10
531.21229501238361
 20
348.9395726691705
 30
0.0
 11
531.21229501238361
 21
351.23957266917068
 31
0.0
  0
LINE
  5
29D9
  8
0
 10
535.21229501238361
 20
348.9395726691705
 30
0.0
 11
535.21229501238361
 21
351.23957266917068
 31
0.0
  0
LINE
  5
29DA
  8
0
 10
532.71229501238372
 20
347.4395726691705
 30
0.0
 11
533.71229501238372
 21
347.4395726691705
 31
0.0
  0
LINE
  5
29DD
  8
0
 10
526.65172801238407
 20
367.75457266917101
 30
0.0
 11
803.11229501238415
 21
367.75457266917101
 31
0.0
  0
LINE
  5
29DF
  8
0
 10
530.56229501238397
 20
350.58957266917008
 30
0.0
 11
530.56229501238397
 21
349.58957266917008
 31
0.0
  0
LINE
  5
29E0
  8
0
 10
532.06229501238408
 20
348.08957266917008
 30
0.0
 11
534.36229501238415
 21
348.08957266917008
 31
0.0
  0
LINE
  5
29E1
  8
0
 10
532.06229501238408
 20
352.08957266917008
 30
0.0
 11
534.36229501238415
 21
352.08957266917008
 31
0.0
  0
ARC
  5
29E2
  8
0
 10
532.06229501238408
 20
349.58957266917008
 30
0.0
 40
1.5
 50
180.0
 51
270.0
  0
ARC
  5
29E3
  8
0
 10
532.06229501238408
 20
350.58957266917008
 30
0.0
 40
1.5
 50
90.0
 51
180.0
  0
LINE
  5
29E4
  8
0
 10
535.86229501238427
 20
350.58957266917008
 30
0.0
 11
535.86229501238427
 21
349.58957266917008
 31
0.0
  0
ARC
  5
29E5
  8
0
 10
534.36229501238415
 20
349.58957266917008
 30
0.0
 40
1.5
 50
270.0
 51
0.0
  0
ARC
  5
29E7
  8
0
 10
534.36229501238415
 20
350.58957266917008
 30
0.0
 40
1.5
 50
0.0
 51
90.0
  0
ARC
  5
29E9
  8
0
 10
432.7622950123839
 20
349.58957266917008
 30
0.0
 40
1.5
 50
270.0
 51
0.0
  0
LINE
  5
29EA
  8
0
 10
430.46229501238372
 20
348.08957266917008
 30
0.0
 11
432.7622950123839
 21
348.08957266917008
 31
0.0
  0
LINE
  5
29EB
  8
0
 10
430.46229501238372
 20
352.08957266917008
 30
0.0
 11
432.7622950123839
 21
352.08957266917008
 31
0.0
  0
LINE
  5
29EC
  8
0
 10
428.96229501238361
 20
350.58957266917008
 30
0.0
 11
428.96229501238361
 21
349.58957266917008
 31
0.0
  0
ARC
  5
29ED
  8
0
 10
430.46229501238372
 20
349.58957266917008
 30
0.0
 40
1.5
 50
180.0
 51
270.0
  0
ARC
  5
29EE
  8
0
 10
430.46229501238372
 20
350.58957266917008
 30
0.0
 40
1.5
 50
90.0
 51
180.0
  0
LINE
  5
29EF
  8
0
 10
434.26229501238379
 20
350.58957266917008
 30
0.0
 11
434.26229501238379
 21
349.58957266917008
 31
0.0
  0
LINE
  5
29F0
  8
1
 10
431.61229501238421
 20
355.0895726691702
 30
0.0
 11
431.61229501238421
 21
345.08957266917008
 31
0.0
  0
ARC
  5
29F1
  8
0
 10
432.7622950123839
 20
350.58957266917008
 30
0.0
 40
1.5
 50
0.0
 51
90.0
  0
LINE
  5
2B43
  8
1
 10
218.91229501238351
 20
357.83957266917008
 30
0.0
 11
218.91229501238351
 21
342.3395726691702
 31
0.0
  0
LINE
  5
2B4F
  8
1
 10
498.31229501238403
 20
344.4395726691705
 30
0.0
 11
498.31229501238403
 21
355.73957266917068
 31
0.0
  0
LINE
  5
2B51
  8
1
 10
533.21229501238372
 20
344.4395726691705
 30
0.0
 11
533.21229501238372
 21
355.73957266917068
 31
0.0
  0
LINE
  5
2B57
  8
0
 10
700.96229501238372
 20
350.58957266917008
 30
0.0
 11
700.96229501238372
 21
349.58957266917008
 31
0.0
  0
LINE
  5
2B58
  8
0
 10
695.66229501238354
 20
350.58957266917008
 30
0.0
 11
695.66229501238354
 21
349.58957266917008
 31
0.0
  0
LINE
  5
2B5B
  8
1
 10
698.31229501238363
 20
355.0895726691702
 30
0.0
 11
698.31229501238363
 21
345.08957266917008
 31
0.0
  0
LINE
  5
2B5E
  8
1
 10
809.41229501238365
 20
355.73957266917068
 30
0.0
 11
809.41229501238365
 21
344.4395726691705
 31
0.0
  0
LINE
  5
2B5F
  8
1
 10
822.11229501238415
 20
355.73957266917068
 30
0.0
 11
822.11229501238415
 21
344.4395726691705
 31
0.0
  0
TEXT
  5
2C21
  8
0
 62
     3
 10
0.0
 20
0.0
 30
0.0
 40
10.0
  1
RS35S-14
  7
STANDARD1
  0
ENDSEC
  0
EOF
