  0
SECTION
  2
HEADER
  9
$ACADVER
  1
AC1009
  9
$INSBASE
 10
0.0
 20
0.0
 30
0.0
  9
$EXTMIN
 10
0.0
 20
-2.960436562073669
 30
0.0
  9
$EXTMAX
 10
1100.0193501621011
 20
418.31890477812198
 30
0.0
  9
$LIMMIN
 10
0.0
 20
0.0
  9
$LIMMAX
 10
187.5
 20
135.0
  9
$ORTHOMODE
 70
     0
  9
$REGENMODE
 70
     1
  9
$FILLMODE
 70
     1
  9
$QTEXTMODE
 70
     0
  9
$MIRRTEXT
 70
     0
  9
$DRAGMODE
 70
     2
  9
$LTSCALE
 40
10.0
  9
$OSMODE
 70
    55
  9
$ATTMODE
 70
     1
  9
$TEXTSIZE
 40
2.5
  9
$TRACEWID
 40
0.05
  9
$TEXTSTYLE
  7
STANDARD
  9
$CLAYER
  8
1
  9
$CELTYPE
  6
BYLAYER
  9
$CECOLOR
 62
   256
  9
$DIMSCALE
 40
0.5
  9
$DIMASZ
 40
3.0
  9
$DIMEXO
 40
2.0
  9
$DIMDLI
 40
10.0
  9
$DIMRND
 40
0.0
  9
$DIMDLE
 40
0.0
  9
$DIMEXE
 40
2.0
  9
$DIMTP
 40
0.0
  9
$DIMTM
 40
0.0
  9
$DIMTXT
 40
3.0
  9
$DIMCEN
 40
0.09
  9
$DIMTSZ
 40
0.0
  9
$DIMTOL
 70
     0
  9
$DIMLIM
 70
     0
  9
$DIMTIH
 70
     0
  9
$DIMTOH
 70
     0
  9
$DIMSE1
 70
     0
  9
$DIMSE2
 70
     0
  9
$DIMTAD
 70
     1
  9
$DIMZIN
 70
     0
  9
$DIMBLK
  1

  9
$DIMASO
 70
     0
  9
$DIMSHO
 70
     0
  9
$DIMPOST
  1

  9
$DIMAPOST
  1

  9
$DIMALT
 70
     0
  9
$DIMALTD
 70
     2
  9
$DIMALTF
 40
25.399999999999999
  9
$DIMLFAC
 40
1.0
  9
$DIMTOFL
 70
     1
  9
$DIMTVP
 40
1.6000000000000001
  9
$DIMTIX
 70
     1
  9
$DIMSOXD
 70
     0
  9
$DIMSAH
 70
     0
  9
$DIMBLK1
  1

  9
$DIMBLK2
  1

  9
$DIMSTYLE
  2
STANDARD
  9
$DIMCLRD
 70
     0
  9
$DIMCLRE
 70
     0
  9
$DIMCLRT
 70
     0
  9
$DIMTFAC
 40
1.0
  9
$DIMGAP
 40
0.09
  9
$LUNITS
 70
     2
  9
$LUPREC
 70
     4
  9
$SKETCHINC
 40
0.1
  9
$FILLETRAD
 40
0.0
  9
$AUNITS
 70
     0
  9
$AUPREC
 70
     0
  9
$MENU
  1
E:\r13\win\SUPPORT\ACAD
  9
$ELEVATION
 40
0.0
  9
$PELEVATION
 40
0.0
  9
$THICKNESS
 40
0.0
  9
$LIMCHECK
 70
     0
  9
$BLIPMODE
 70
     0
  9
$CHAMFERA
 40
1.6000000000000001
  9
$CHAMFERB
 40
1.6000000000000001
  9
$SKPOLY
 70
     0
  9
$TDCREATE
 40
2449840.5944097228
  9
$TDUPDATE
 40
2456598.6054124539
  9
$TDINDWG
 40
0.179691088
  9
$TDUSRTIMER
 40
0.179691088
  9
$USRTIMER
 70
     1
  9
$ANGBASE
 50
0.0
  9
$ANGDIR
 70
     0
  9
$PDMODE
 70
     0
  9
$PDSIZE
 40
0.0
  9
$PLINEWID
 40
0.0
  9
$COORDS
 70
     1
  9
$SPLFRAME
 70
     0
  9
$SPLINETYPE
 70
     6
  9
$SPLINESEGS
 70
     8
  9
$ATTDIA
 70
     0
  9
$ATTREQ
 70
     1
  9
$HANDLING
 70
     1
  9
$HANDSEED
  5
420C
  9
$SURFTAB1
 70
     6
  9
$SURFTAB2
 70
     6
  9
$SURFTYPE
 70
     6
  9
$SURFU
 70
     6
  9
$SURFV
 70
     6
  9
$UCSNAME
  2

  9
$UCSORG
 10
0.0
 20
0.0
 30
0.0
  9
$UCSXDIR
 10
1.0
 20
0.0
 30
0.0
  9
$UCSYDIR
 10
0.0
 20
1.0
 30
0.0
  9
$PUCSNAME
  2

  9
$PUCSORG
 10
0.0
 20
0.0
 30
0.0
  9
$PUCSXDIR
 10
1.0
 20
0.0
 30
0.0
  9
$PUCSYDIR
 10
0.0
 20
1.0
 30
0.0
  9
$USERI1
 70
     0
  9
$USERI2
 70
     1
  9
$USERI3
 70
     1
  9
$USERI4
 70
     0
  9
$USERI5
 70
     0
  9
$USERR1
 40
0.0
  9
$USERR2
 40
0.0
  9
$USERR3
 40
0.0
  9
$USERR4
 40
0.0
  9
$USERR5
 40
0.0
  9
$WORLDVIEW
 70
     1
  9
$SHADEDGE
 70
     3
  9
$SHADEDIF
 70
    70
  9
$TILEMODE
 70
     1
  9
$MAXACTVP
 70
    16
  9
$PLIMCHECK
 70
     0
  9
$PEXTMIN
 10
1.0000000000000000E+020
 20
1.0000000000000000E+020
 30
1.0000000000000000E+020
  9
$PEXTMAX
 10
-1.0000000000000000E+020
 20
-1.0000000000000000E+020
 30
-1.0000000000000000E+020
  9
$PLIMMIN
 10
0.0
 20
0.0
  9
$PLIMMAX
 10
12.0
 20
9.0
  9
$UNITMODE
 70
     0
  9
$VISRETAIN
 70
     0
  9
$PLINEGEN
 70
     0
  9
$PSLTSCALE
 70
     0
  0
ENDSEC
  0
SECTION
  2
TABLES
  0
TABLE
  2
VPORT
 70
     1
  0
VPORT
  2
*ACTIVE
 70
     0
 10
0.0
 20
0.0
 11
1.0
 21
1.0
 12
550.00967764223208
 22
302.97894776803878
 13
0.0
 23
0.0
 14
5.0
 24
5.0
 15
5.0
 25
5.0
 16
0.0
 26
0.0
 36
1.0
 17
0.0
 27
0.0
 37
0.0
 40
621.14505752001833
 41
1.7807262569832401
 42
50.0
 43
0.0
 44
0.0
 50
0.0
 51
0.0
 71
     0
 72
   100
 73
     1
 74
     0
 75
     0
 76
     0
 77
     0
 78
     0
  0
ENDTAB
  0
TABLE
  2
LTYPE
 70
     4
  0
LTYPE
  2
CONTINUOUS
 70
     0
  3
Solid Line
 72
    65
 73
     0
 40
0.0
  0
LTYPE
  2
CENTER
 70
     0
  3
____ _ ____ _ ____ _ ____ _ ____ _ ____ _ ____
 72
    65
 73
     4
 40
2.0
 49
1.25
 49
-0.25
 49
0.25
 49
-0.25
  0
LTYPE
  2
HIDDEN
 70
     0
  3
_ _ _ _ _ _ _ _ _ _ _ _ _ _ _ _ _ _ _ _ _ _ _
 72
    65
 73
     2
 40
0.375
 49
0.25
 49
-0.125
  0
LTYPE
  2
PHANTOM2
 70
     0
  3
___ _ _ ___ _ _ ___ _ _ ___ _ _
 72
    65
 73
     6
 40
1.25
 49
0.625
 49
-0.125
 49
0.125
 49
-0.125
 49
0.125
 49
-0.125
  0
ENDTAB
  0
TABLE
  2
LAYER
 70
     4
  0
LAYER
  2
0
 70
     0
 62
     7
  6
CONTINUOUS
  0
LAYER
  2
1
 70
     0
 62
     1
  6
CENTER
  0
LAYER
  2
2
 70
     0
 62
     2
  6
HIDDEN
  0
LAYER
  2
4
 70
     0
 62
     1
  6
CONTINUOUS
  0
ENDTAB
  0
TABLE
  2
STYLE
 70
     5
  0
STYLE
  2
STANDARD
 70
     0
 40
0.0
 41
1.0
 50
0.0
 71
     0
 42
2.5
  3
TXT
  4
BIGFONT
  0
STYLE
  2
KANJI
 70
     0
 40
0.0
 41
1.0
 50
0.0
 71
     0
 42
5.0
  3
TXT.SHX
  4
bigfont
  0
STYLE
  2
STYLE2
 70
     0
 40
13.0
 41
1.0
 50
0.0
 71
     0
 42
2.5
  3
C:\Program Files\AutoCAD LT\txt.shx
  4
C:\Program Files\AutoCAD LT\bigfont.shx
  0
STYLE
  2
STANDARD2
 70
     0
 40
8.0
 41
1.0
 50
0.0
 71
     0
 42
0.2
  3
C:\Program Files\AutoCAD LT\txt.shx
  4
C:\Program Files\AutoCAD LT\bigfont.shx
  0
STYLE
  2
STANDARD1
 70
     0
 40
0.0
 41
1.0
 50
0.0
 71
     0
 42
3.0
  3
txt
  4

  0
ENDTAB
  0
TABLE
  2
VIEW
 70
     1
  0
VIEW
  2
ALL
 70
     0
 40
135.0
 10
110.49579799999999
 20
67.5
 41
0.0
 11
0.0
 21
0.0
 31
1.0
 12
0.0
 22
0.0
 32
0.0
 42
0.0
 43
0.0
 44
0.0
 50
0.0
 71
     0
  0
ENDTAB
  0
TABLE
  2
UCS
 70
     0
  0
ENDTAB
  0
TABLE
  2
APPID
 70
     4
  0
APPID
  2
ACAD
 70
     0
  0
APPID
  2
DCO15
 70
     0
  0
APPID
  2
ACAD_MLEADERVER
 70
     0
  0
APPID
  2
ACAD_NAV_VCDISPLAY
 70
     0
  0
ENDTAB
  0
TABLE
  2
DIMSTYLE
 70
     1
  0
DIMSTYLE
  2
STANDARD
 70
     0
  3

  4

  5

  6

  7

 40
1.0
 41
0.18
 42
0.0625
 43
0.38
 44
0.18
 45
0.0
 46
0.0
 47
0.0
 48
0.0
140
0.18
141
0.09
142
0.0
143
25.399999999999999
144
1.0
145
0.0
146
1.0
147
0.09
 71
     0
 72
     0
 73
     1
 74
     1
 75
     0
 76
     0
 77
     0
 78
     0
170
     0
171
     2
172
     0
173
     0
174
     0
175
     0
176
     0
177
     0
178
     0
  0
ENDTAB
  0
ENDSEC
  0
SECTION
  2
BLOCKS
  0
BLOCK
  8
0
  2
$MODEL_SPACE
 70
     0
 10
0.0
 20
0.0
 30
0.0
  3
$MODEL_SPACE
  1

  0
ENDBLK
  5
15D
  8
0
  0
BLOCK
 67
     1
  8
0
  2
$PAPER_SPACE
 70
     0
 10
0.0
 20
0.0
 30
0.0
  3
$PAPER_SPACE
  1

  0
ENDBLK
  5
15B
 67
     1
  8
0
  0
BLOCK
  8
0
  2
STDGX5
 70
     0
 10
0.0
 20
0.0
 30
0.0
  3
STDGX5
  1

  0
ENDBLK
  5
41
  8
0
  0
ENDSEC
  0
SECTION
  2
ENTITIES
  0
INSERT
  5
CA
  8
0
  2
STDGX5
 10
0.0
 20
0.0
 30
0.0
  0
INSERT
  5
69A
  8
0
  2
STDGX5
 10
194.3272563481562
 20
13.52129245667936
 30
0.0
  0
INSERT
  5
1343
  8
0
  2
STDGX5
 10
563.10080863610574
 20
-59.557035590067017
 30
0.0
  0
INSERT
  5
1345
  8
0
  2
STDGX5
 10
757.42806498426194
 20
-46.035743133387648
 30
0.0
  0
LINE
  5
247B
  8
0
 10
51.365460162101719
 20
394.8539047781228
 30
0.0
 11
51.365460162101719
 21
387.75390477812238
 31
0.0
  0
LINE
  5
247C
  8
0
 10
50.665460162101908
 20
394.8539047781228
 30
0.0
 11
50.665460162101908
 21
387.75390477812238
 31
0.0
  0
ARC
  5
247D
  8
0
 10
53.965460162101181
 20
386.90890477812218
 30
0.0
 40
3.931
 50
47.952971999981628
 51
126.9999999999952
  0
LINE
  5
247E
  8
0
 10
58.465460162101181
 20
389.96914077812238
 30
0.0
 11
58.465460162101181
 21
411.33866977812198
 31
0.0
  0
LINE
  5
247F
  8
0
 10
56.915460162101908
 20
389.96914077812238
 30
0.0
 11
56.915460162101908
 21
411.33866977812198
 31
0.0
  0
LINE
  5
2480
  8
0
 10
50.439460162101341
 20
387.47677777812208
 30
0.0
 11
50.439460162101341
 21
413.83103177812291
 31
0.0
  0
LINE
  5
2481
  8
0
 10
48.915460162101908
 20
387.47677777812208
 30
0.0
 11
48.915460162101908
 21
413.83103177812291
 31
0.0
  0
ARC
  5
2482
  8
0
 10
56.725460162101399
 20
389.96914077812238
 30
0.0
 40
1.74
 50
227.95297199998171
 51
0.0
  0
LINE
  5
2483
  8
0
 10
57.665460162101908
 20
387.45390477812219
 30
0.0
 11
57.665460162101908
 21
386.75390477812249
 31
0.0
  0
ARC
  5
2484
  8
0
 10
56.725460162101399
 20
389.96914077812238
 30
0.0
 40
0.19
 50
227.95297199998171
 51
0.0
  0
LINE
  5
2485
  8
0
 10
56.652121162101821
 20
386.11822077812172
 30
0.0
 11
57.675460162101217
 21
384.98890477812211
 31
0.0
  0
LINE
  5
2486
  8
0
 10
56.432396162101888
 20
383.86249277812249
 30
0.0
 11
57.675460162101217
 21
384.98890477812211
 31
0.0
  0
LINE
  5
2487
  8
0
 10
55.696283162101963
 20
385.25207977812221
 30
0.0
 11
56.652121162101821
 21
386.11822077812172
 31
0.0
  0
ARC
  5
2488
  8
0
 10
51.665460162101901
 20
387.75390477812238
 30
0.0
 40
0.3
 50
180.0
 51
270.0
  0
LINE
  5
2489
  8
0
 10
51.599725162101777
 20
390.04834077812262
 30
0.0
 11
52.532538162101218
 21
388.8104557781221
 31
0.0
  0
LINE
  5
248A
  8
0
 10
52.331392162101793
 20
385.15658177812247
 30
0.0
 11
50.856084162101752
 21
386.52302377812202
 31
0.0
  0
LINE
  5
248B
  8
0
 10
51.295804162102058
 20
384.03848777812209
 30
0.0
 11
49.82049616210201
 21
385.40492977812261
 31
0.0
  0
ARC
  5
248C
  8
0
 10
51.739460162101523
 20
387.47677777812208
 30
0.0
 40
2.823999999999999
 50
180.0
 51
227.1938819999904
  0
ARC
  5
248D
  8
0
 10
51.739460162101523
 20
387.47677777812208
 30
0.0
 40
1.3
 50
180.0
 51
227.1938819999904
  0
ARC
  5
248E
  8
0
 10
51.665460162101901
 20
387.75390477812238
 30
0.0
 40
1.0
 50
180.0
 51
270.0
  0
ARC
  5
248F
  8
0
 10
53.965460162101181
 20
386.90890477812218
 30
0.0
 40
2.379999999999999
 50
13.23770999997376
 51
166.7508530000195
  0
LINE
  5
2490
  8
0
 10
57.665460162101908
 20
386.75390477812249
 30
0.0
 11
51.665460162101901
 21
386.75390477812249
 31
0.0
  0
LINE
  5
2491
  8
0
 10
57.665460162101908
 20
387.45390477812219
 30
0.0
 11
51.665460162101901
 21
387.45390477812219
 31
0.0
  0
ARC
  5
2492
  8
0
 10
53.965460162101181
 20
386.90890477812218
 30
0.0
 40
2.3809999999999989
 50
47.952971999981628
 51
126.9999999999952
  0
ARC
  5
2493
  8
0
 10
53.965460162101181
 20
386.90890477812218
 30
0.0
 40
3.919999999999999
 50
227.04230300001271
 51
309.00000000000932
  0
ARC
  5
2494
  8
0
 10
53.965460162101181
 20
386.90890477812218
 30
0.0
 40
2.395999999999999
 50
226.9999999999857
 51
316.25133899997968
  0
ARC
  5
2495
  8
0
 10
53.965460162101181
 20
386.90890477812218
 30
0.0
 40
2.379999999999999
 50
183.66590899997581
 51
356.26590899998581
  0
ARC
  5
2496
  8
0
 10
56.725460162101399
 20
411.33866977812198
 30
0.0
 40
1.74
 50
0.0
 51
132.04702800001829
  0
ARC
  5
2497
  8
0
 10
56.725460162101399
 20
411.33866977812198
 30
0.0
 40
0.19
 50
0.0
 51
132.04702800001829
  0
LINE
  5
2498
  8
0
 10
56.652121162101821
 20
415.18958877812253
 30
0.0
 11
57.675460162101217
 21
416.31890477812198
 31
0.0
  0
LINE
  5
2499
  8
0
 10
55.696283162101963
 20
416.05572977812187
 30
0.0
 11
56.652121162101821
 21
415.18958877812253
 31
0.0
  0
LINE
  5
249A
  8
0
 10
57.665460162101908
 20
414.55390477812261
 30
0.0
 11
57.665460162101908
 21
413.85390477812268
 31
0.0
  0
LINE
  5
249B
  8
0
 10
56.432396162101888
 20
417.4453167781225
 30
0.0
 11
57.675460162101217
 21
416.31890477812198
 31
0.0
  0
ARC
  5
249C
  8
0
 10
51.739460162101523
 20
413.83103177812291
 30
0.0
 40
2.823999999999999
 50
132.8061180000096
 51
180.0
  0
LINE
  5
249D
  8
0
 10
51.599725162101777
 20
411.25946877812243
 30
0.0
 11
52.532538162101218
 21
412.49735377812289
 31
0.0
  0
ARC
  5
249E
  8
0
 10
51.739460162101523
 20
413.83103177812291
 30
0.0
 40
1.3
 50
132.8061180000096
 51
180.0
  0
ARC
  5
249F
  8
0
 10
51.665460162101901
 20
413.55390477812261
 30
0.0
 40
0.3
 50
90.0
 51
180.0
  0
LINE
  5
24A0
  8
0
 10
52.331392162101793
 20
416.15122877812291
 30
0.0
 11
50.856084162101752
 21
414.78478577812302
 31
0.0
  0
ARC
  5
24A1
  8
0
 10
51.665460162101901
 20
413.55390477812261
 30
0.0
 40
1.0
 50
90.0
 51
180.0
  0
LINE
  5
24A2
  8
0
 10
53.065460162101537
 20
405.45390477812219
 30
0.0
 11
51.665460162101901
 21
405.45390477812219
 31
0.0
  0
LINE
  5
24A3
  8
0
 10
53.065460162101537
 20
406.15390477812201
 30
0.0
 11
51.665460162101901
 21
406.15390477812201
 31
0.0
  0
ARC
  5
24A4
  8
0
 10
51.665460162101901
 20
406.45390477812219
 30
0.0
 40
0.3
 50
180.0
 51
270.0
  0
ARC
  5
24A5
  8
0
 10
51.665460162101901
 20
406.45390477812219
 30
0.0
 40
1.0
 50
180.0
 51
270.0
  0
LINE
  5
24A6
  8
0
 10
50.665460162101908
 20
413.55390477812261
 30
0.0
 11
50.665460162101908
 21
406.45390477812219
 31
0.0
  0
LINE
  5
24A7
  8
0
 10
51.365460162101719
 20
413.55390477812261
 30
0.0
 11
51.365460162101719
 21
406.45390477812219
 31
0.0
  0
LINE
  5
24A8
  8
0
 10
51.295804162102058
 20
417.2693217781229
 30
0.0
 11
49.82049616210201
 21
415.9028797781225
 31
0.0
  0
ARC
  5
24A9
  8
0
 10
53.965460162101181
 20
414.3989047781219
 30
0.0
 40
3.919999999999999
 50
50.999999999990742
 51
132.95769699998729
  0
ARC
  5
24AA
  8
0
 10
53.965460162101181
 20
414.3989047781219
 30
0.0
 40
2.379999999999999
 50
193.2491469999805
 51
346.76229000002621
  0
ARC
  5
24AB
  8
0
 10
53.965460162101181
 20
414.3989047781219
 30
0.0
 40
2.3809999999999989
 50
233.0000000000048
 51
312.04702800001837
  0
ARC
  5
24AC
  8
0
 10
53.965460162101181
 20
414.3989047781219
 30
0.0
 40
3.931
 50
233.0000000000048
 51
312.04702800001837
  0
LINE
  5
24AD
  8
0
 10
57.665460162101908
 20
414.55390477812261
 30
0.0
 11
51.665460162101901
 21
414.55390477812261
 31
0.0
  0
LINE
  5
24AE
  8
0
 10
57.665460162101908
 20
413.85390477812268
 30
0.0
 11
51.665460162101901
 21
413.85390477812268
 31
0.0
  0
ARC
  5
24AF
  8
0
 10
53.065460162101537
 20
405.15390477812201
 30
0.0
 40
1.0
 50
0.0
 51
90.0
  0
ARC
  5
24B0
  8
0
 10
53.065460162101537
 20
405.15390477812201
 30
0.0
 40
0.3
 50
0.0
 51
90.0
  0
ARC
  5
24B1
  8
0
 10
53.965460162101181
 20
414.3989047781219
 30
0.0
 40
2.379999999999999
 50
3.7340910000142311
 51
176.33409100002419
  0
ARC
  5
24B2
  8
0
 10
53.965460162101181
 20
414.3989047781219
 30
0.0
 40
2.395999999999999
 50
43.74866100002027
 51
133.00000000001421
  0
LINE
  5
24B3
  8
0
 10
53.065460162101537
 20
395.8539047781228
 30
0.0
 11
51.665460162101901
 21
395.8539047781228
 31
0.0
  0
LINE
  5
24B4
  8
0
 10
53.065460162101537
 20
395.15390477812213
 30
0.0
 11
51.665460162101901
 21
395.15390477812213
 31
0.0
  0
ARC
  5
24B5
  8
0
 10
51.665460162101901
 20
394.8539047781228
 30
0.0
 40
0.3
 50
90.0
 51
180.0
  0
ARC
  5
24B6
  8
0
 10
51.665460162101901
 20
394.8539047781228
 30
0.0
 40
1.0
 50
90.0
 51
180.0
  0
ARC
  5
24B7
  8
0
 10
53.065460162101537
 20
396.15390477812213
 30
0.0
 40
1.0
 50
270.0
 51
0.0
  0
ARC
  5
24B8
  8
0
 10
53.065460162101537
 20
396.15390477812213
 30
0.0
 40
0.3
 50
270.0
 51
0.0
  0
LINE
  5
24B9
  8
1
 10
63.465460162101181
 20
400.65390477812201
 30
0.0
 11
43.915460162101908
 21
400.65390477812201
 31
0.0
1001
ACAD
1000
ASC_BOUNDS
1002
{
1070
    19
1002
}
  0
LINE
  5
24BA
  8
0
 10
54.065460162101537
 20
405.15390477812201
 30
0.0
 11
54.065460162101537
 21
396.15390477812213
 31
0.0
  0
LINE
  5
24BB
  8
0
 10
53.365460162101719
 20
405.15390477812201
 30
0.0
 11
53.365460162101719
 21
396.15390477812213
 31
0.0
  0
LINE
  5
3DE3
  8
0
 10
124.819350162101
 20
388.2306867781212
 30
0.0
 11
124.819350162101
 21
413.07712277812192
 31
0.0
  0
LINE
  5
3DE4
  8
0
 10
124.819350162101
 20
388.2306867781212
 30
0.0
 11
124.819350162101
 21
413.07712277812192
 31
0.0
  0
LINE
  5
3DE5
  8
0
 10
124.819350162101
 20
413.07712277812192
 30
0.0
 11
124.819350162101
 21
388.2306867781212
 31
0.0
  0
LINE
  5
3DE6
  8
0
 10
124.819350162101
 20
388.2306867781212
 30
0.0
 11
124.819350162101
 21
413.07712277812192
 31
0.0
  0
LINE
  5
3DE7
  8
0
 10
124.819350162101
 20
388.10746777812119
 30
0.0
 11
124.819350162101
 21
412.95390477812128
 31
0.0
  0
LINE
  5
3DE8
  8
0
 10
124.819350162101
 20
388.10746777812119
 30
0.0
 11
124.819350162101
 21
412.95390477812128
 31
0.0
  0
LINE
  5
3DE9
  8
0
 10
124.819350162101
 20
388.2306867781212
 30
0.0
 11
124.819350162101
 21
413.07712277812192
 31
0.0
  0
LINE
  5
3DEA
  8
0
 10
124.819350162101
 20
388.2306867781212
 30
0.0
 11
124.819350162101
 21
413.07712277812192
 31
0.0
  0
LINE
  5
3DEB
  8
0
 10
124.819350162101
 20
388.2306867781212
 30
0.0
 11
124.819350162101
 21
413.07712277812192
 31
0.0
  0
LINE
  5
3DEC
  8
0
 10
124.819350162101
 20
388.2306867781212
 30
0.0
 11
124.819350162101
 21
413.07712277812192
 31
0.0
  0
LINE
  5
3DED
  8
0
 10
658.21935016210068
 20
396.50390477812152
 30
0.0
 11
658.21935016210068
 21
404.80390477812171
 31
0.0
  0
LINE
  5
3DF0
  8
1
 10
114.819350162101
 20
400.65390477812201
 30
0.0
 11
1100.0193501621011
 21
400.65390477812201
 31
0.0
  0
ARC
  5
3DF1
  8
0
 10
657.71935016210068
 20
401.80390477812171
 30
0.0
 40
1.5
 50
90.0
 51
180.0
  0
ARC
  5
3DF2
  8
0
 10
658.71935016210068
 20
401.80390477812171
 30
0.0
 40
1.5
 50
0.0
 51
90.0
  0
LINE
  5
3DF3
  8
0
 10
657.71935016210068
 20
403.30390477812159
 30
0.0
 11
658.71935016210068
 21
403.30390477812159
 31
0.0
  0
ARC
  5
3DF4
  8
0
 10
657.71935016210068
 20
399.50390477812152
 30
0.0
 40
1.5
 50
180.0
 51
270.0
  0
ARC
  5
3DF5
  8
0
 10
658.71935016210068
 20
399.50390477812152
 30
0.0
 40
1.5
 50
270.0
 51
0.0
  0
LINE
  5
3DF6
  8
0
 10
656.21935016210057
 20
399.50390477812152
 30
0.0
 11
656.21935016210057
 21
401.80390477812171
 31
0.0
  0
LINE
  5
3DF7
  8
0
 10
660.21935016210057
 20
399.50390477812152
 30
0.0
 11
660.21935016210057
 21
401.80390477812171
 31
0.0
  0
LINE
  5
3DF8
  8
0
 10
657.71935016210068
 20
398.00390477812152
 30
0.0
 11
658.71935016210068
 21
398.00390477812152
 31
0.0
  0
LINE
  5
3DF9
  8
0
 10
658.21935016210068
 20
398.65390477812213
 30
0.0
 11
658.21935016210068
 21
402.65390477812201
 31
0.0
  0
LINE
  5
3DFA
  8
0
 10
658.21935016210068
 20
404.85390477812177
 30
0.0
 11
658.21935016210068
 21
396.45390477812128
 31
0.0
  0
ARC
  5
3DFC
  8
0
 10
557.76935016210075
 20
401.15390477812201
 30
0.0
 40
1.5
 50
0.0
 51
90.0
  0
ARC
  5
3DFE
  8
0
 10
557.76935016210075
 20
400.15390477812201
 30
0.0
 40
1.5
 50
270.0
 51
0.0
  0
LINE
  5
3DFF
  8
0
 10
559.26935016210075
 20
401.15390477812201
 30
0.0
 11
559.26935016210075
 21
400.15390477812201
 31
0.0
  0
ARC
  5
3E00
  8
0
 10
555.46935016210068
 20
401.15390477812201
 30
0.0
 40
1.5
 50
90.0
 51
180.0
  0
ARC
  5
3E01
  8
0
 10
555.46935016210068
 20
400.15390477812201
 30
0.0
 40
1.5
 50
180.0
 51
270.0
  0
LINE
  5
3E02
  8
0
 10
555.46935016210068
 20
402.65390477812201
 30
0.0
 11
557.76935016210075
 21
402.65390477812201
 31
0.0
  0
LINE
  5
3E03
  8
0
 10
555.46935016210068
 20
398.65390477812213
 30
0.0
 11
557.76935016210075
 21
398.65390477812213
 31
0.0
  0
LINE
  5
3E04
  8
0
 10
553.96935016210057
 20
401.15390477812201
 30
0.0
 11
553.96935016210057
 21
400.15390477812201
 31
0.0
  0
LINE
  5
3E06
  8
0
 10
682.01935016210075
 20
390.65390477812213
 30
0.0
 11
683.61935016210123
 21
391.17564377812192
 31
0.0
  0
LINE
  5
3E07
  8
0
 10
683.61935016210123
 20
391.17564377812192
 30
0.0
 11
683.61935016210123
 21
410.1321657781213
 31
0.0
  0
LINE
  5
3E08
  8
0
 10
680.21935016210057
 20
406.65390477812201
 30
0.0
 11
682.01935016210075
 21
406.65390477812201
 31
0.0
  0
LINE
  5
3E09
  8
0
 10
680.21935016210057
 20
406.65390477812201
 30
0.0
 11
682.01935016210075
 21
405.92890477812159
 31
0.0
  0
LINE
  5
3E0A
  8
0
 10
680.21935016210057
 20
406.65390477812201
 30
0.0
 11
682.01935016210075
 21
407.37890477812152
 31
0.0
  0
LINE
  5
3E0B
  8
0
 10
683.61935016210123
 20
405.14389377812182
 30
0.0
 11
682.01935016210075
 21
405.14389377812182
 31
0.0
  0
LINE
  5
3E0C
  8
0
 10
683.61935016210123
 20
409.15390477812201
 30
0.0
 11
682.01935016210075
 21
409.15390477812201
 31
0.0
  0
LINE
  5
3E0D
  8
0
 10
682.01935016210075
 20
410.65390477812201
 30
0.0
 11
683.61935016210123
 21
410.1321657781213
 31
0.0
  0
LINE
  5
3E0E
  8
0
 10
680.21935016210057
 20
394.65390477812213
 30
0.0
 11
682.01935016210075
 21
394.65390477812213
 31
0.0
  0
LINE
  5
3E0F
  8
0
 10
680.21935016210057
 20
394.65390477812213
 30
0.0
 11
682.01935016210075
 21
393.92890477812171
 31
0.0
  0
LINE
  5
3E10
  8
0
 10
680.21935016210057
 20
394.65390477812213
 30
0.0
 11
682.01935016210075
 21
395.37890477812152
 31
0.0
  0
LINE
  5
3E11
  8
0
 10
683.61935016210123
 20
396.16391577812152
 30
0.0
 11
682.01935016210075
 21
396.16391577812152
 31
0.0
  0
LINE
  5
3E12
  8
0
 10
683.61935016210123
 20
392.15390477812213
 30
0.0
 11
682.01935016210075
 21
392.15390477812213
 31
0.0
  0
LINE
  5
3E13
  8
0
 10
682.01935016210075
 20
388.2306867781212
 30
0.0
 11
682.01935016210075
 21
413.07712277812192
 31
0.0
  0
CIRCLE
  5
3E14
  8
0
 10
140.71935016210111
 20
400.65390477812201
 30
0.0
 40
4.75
  0
LINE
  5
3E15
  8
0
 10
152.21935016210111
 20
399.50390477812152
 30
0.0
 11
152.21935016210111
 21
401.80390477812171
 31
0.0
  0
LINE
  5
3E16
  8
0
 10
148.21935016210111
 20
399.50390477812152
 30
0.0
 11
148.21935016210111
 21
401.80390477812171
 31
0.0
  0
LINE
  5
3E17
  8
0
 10
149.71935016210111
 20
398.00390477812152
 30
0.0
 11
150.71935016210111
 21
398.00390477812152
 31
0.0
  0
ARC
  5
3E18
  8
0
 10
150.71935016210111
 20
399.50390477812152
 30
0.0
 40
1.5
 50
270.0
 51
0.0
  0
ARC
  5
3E19
  8
0
 10
149.71935016210111
 20
399.50390477812152
 30
0.0
 40
1.5
 50
180.0
 51
270.0
  0
LINE
  5
3E1A
  8
0
 10
149.71935016210111
 20
403.30390477812159
 30
0.0
 11
150.71935016210111
 21
403.30390477812159
 31
0.0
  0
ARC
  5
3E1B
  8
0
 10
150.71935016210111
 20
401.80390477812171
 30
0.0
 40
1.5
 50
0.0
 51
90.0
  0
ARC
  5
3E1D
  8
0
 10
149.71935016210111
 20
401.80390477812171
 30
0.0
 40
1.5
 50
90.0
 51
180.0
  0
LINE
  5
3E21
  8
2
 10
124.819350162101
 20
410.46790477812141
 30
0.0
 11
682.01935016210075
 21
410.46790477812141
 31
0.0
  0
LINE
  5
3E22
  8
0
 10
124.819350162101
 20
413.07712277812192
 30
0.0
 11
682.01935016210075
 21
413.07712277812192
 31
0.0
  0
LINE
  5
3E23
  8
2
 10
124.819350162101
 20
390.83990477812182
 30
0.0
 11
682.01935016210075
 21
390.83990477812182
 31
0.0
  0
LINE
  5
3E24
  8
0
 10
124.819350162101
 20
388.2306867781212
 30
0.0
 11
682.01935016210075
 21
388.2306867781212
 31
0.0
  0
LINE
  5
3E25
  8
0
 10
250.6693501621009
 20
398.65390477812213
 30
0.0
 11
252.96935016210111
 21
398.65390477812213
 31
0.0
  0
LINE
  5
3E26
  8
0
 10
250.6693501621009
 20
402.65390477812201
 30
0.0
 11
252.96935016210111
 21
402.65390477812201
 31
0.0
  0
LINE
  5
3E28
  8
0
 10
254.46935016210111
 20
400.15390477812201
 30
0.0
 11
254.46935016210111
 21
401.15390477812201
 31
0.0
  0
ARC
  5
3E29
  8
0
 10
250.6693501621009
 20
400.15390477812201
 30
0.0
 40
1.5
 50
180.0
 51
270.0
  0
ARC
  5
3E2A
  8
0
 10
250.6693501621009
 20
401.15390477812201
 30
0.0
 40
1.5
 50
90.0
 51
180.0
  0
LINE
  5
3E2B
  8
0
 10
249.16935016210101
 20
400.15390477812201
 30
0.0
 11
249.16935016210101
 21
401.15390477812201
 31
0.0
  0
ARC
  5
3E2C
  8
0
 10
252.96935016210111
 20
400.15390477812201
 30
0.0
 40
1.5
 50
270.0
 51
0.0
  0
ARC
  5
3E2E
  8
0
 10
252.96935016210111
 20
401.15390477812201
 30
0.0
 40
1.5
 50
0.0
 51
90.0
  0
ARC
  5
3E31
  8
0
 10
405.36935016210123
 20
401.15390477812201
 30
0.0
 40
1.5
 50
0.0
 51
90.0
  0
LINE
  5
3E33
  8
0
 10
406.86935016210111
 20
401.15390477812201
 30
0.0
 11
406.86935016210111
 21
400.15390477812201
 31
0.0
  0
ARC
  5
3E34
  8
0
 10
403.06935016210099
 20
401.15390477812201
 30
0.0
 40
1.5
 50
90.0
 51
180.0
  0
ARC
  5
3E35
  8
0
 10
403.06935016210099
 20
400.15390477812201
 30
0.0
 40
1.5
 50
180.0
 51
270.0
  0
LINE
  5
3E36
  8
0
 10
401.56935016210099
 20
401.15390477812201
 30
0.0
 11
401.56935016210099
 21
400.15390477812201
 31
0.0
  0
LINE
  5
3E37
  8
0
 10
403.06935016210099
 20
402.65390477812201
 30
0.0
 11
405.36935016210123
 21
402.65390477812201
 31
0.0
  0
LINE
  5
3E38
  8
0
 10
403.06935016210099
 20
398.65390477812213
 30
0.0
 11
405.36935016210123
 21
398.65390477812213
 31
0.0
  0
ARC
  5
3E39
  8
0
 10
405.36935016210123
 20
400.15390477812201
 30
0.0
 40
1.5
 50
270.0
 51
0.0
  0
LINE
  5
3E3B
  8
0
 10
1090.0193501621011
 20
418.31890477812198
 30
0.0
 11
1090.0193501621011
 21
382.9889047781212
 31
0.0
  0
LINE
  5
3E3C
  8
0
 10
1090.0193501621011
 20
418.31890477812198
 30
0.0
 11
1090.0193501621011
 21
382.9889047781212
 31
0.0
  0
LINE
  5
3E3D
  8
0
 10
1090.0193501621011
 20
418.31890477812198
 30
0.0
 11
1090.0193501621011
 21
382.9889047781212
 31
0.0
  0
LINE
  5
3E3E
  8
0
 10
1090.0193501621011
 20
418.31890477812198
 30
0.0
 11
1090.0193501621011
 21
382.9889047781212
 31
0.0
  0
LINE
  5
3E3F
  8
0
 10
1090.0193501621011
 20
418.31890477812198
 30
0.0
 11
1090.0193501621011
 21
382.9889047781212
 31
0.0
  0
ARC
  5
3E40
  8
0
 10
657.06935016210105
 20
400.15390477812201
 30
0.0
 40
1.5
 50
180.0
 51
270.0
  0
ARC
  5
3E41
  8
0
 10
657.06935016210105
 20
401.15390477812201
 30
0.0
 40
1.5
 50
90.0
 51
180.0
  0
LINE
  5
3E42
  8
0
 10
655.56935016210105
 20
400.15390477812201
 30
0.0
 11
655.56935016210105
 21
401.15390477812201
 31
0.0
  0
ARC
  5
3E43
  8
0
 10
659.36935016210123
 20
400.15390477812201
 30
0.0
 40
1.5
 50
270.0
 51
0.0
  0
ARC
  5
3E44
  8
0
 10
659.36935016210123
 20
401.15390477812201
 30
0.0
 40
1.5
 50
0.0
 51
90.0
  0
LINE
  5
3E45
  8
0
 10
660.86935016210111
 20
400.15390477812201
 30
0.0
 11
660.86935016210111
 21
401.15390477812201
 31
0.0
  0
LINE
  5
3E46
  8
0
 10
659.36935016210123
 20
398.65390477812213
 30
0.0
 11
657.06935016210105
 21
398.65390477812213
 31
0.0
  0
LINE
  5
3E47
  8
0
 10
659.36935016210123
 20
402.65390477812201
 30
0.0
 11
657.06935016210105
 21
402.65390477812201
 31
0.0
  0
LINE
  5
3E48
  8
0
 10
662.41935016210141
 20
400.65390477812201
 30
0.0
 11
654.01935016210086
 21
400.65390477812201
 31
0.0
  0
ARC
  5
3E49
  8
0
 10
571.36935016210123
 20
400.15390477812201
 30
0.0
 40
1.5
 50
180.0
 51
270.0
  0
ARC
  5
3E4A
  8
0
 10
571.36935016210123
 20
401.15390477812201
 30
0.0
 40
1.5
 50
90.0
 51
180.0
  0
LINE
  5
3E4B
  8
0
 10
569.86935016210123
 20
400.15390477812201
 30
0.0
 11
569.86935016210123
 21
401.15390477812201
 31
0.0
  0
ARC
  5
3E4C
  8
0
 10
573.6693501621013
 20
400.15390477812201
 30
0.0
 40
1.5
 50
270.0
 51
0.0
  0
ARC
  5
3E4D
  8
0
 10
573.6693501621013
 20
401.15390477812201
 30
0.0
 40
1.5
 50
0.0
 51
90.0
  0
LINE
  5
3E4E
  8
0
 10
575.16935016210141
 20
400.15390477812201
 30
0.0
 11
575.16935016210141
 21
401.15390477812201
 31
0.0
  0
LINE
  5
3E4F
  8
0
 10
573.6693501621013
 20
398.65390477812213
 30
0.0
 11
571.36935016210123
 21
398.65390477812213
 31
0.0
  0
LINE
  5
3E50
  8
0
 10
573.6693501621013
 20
402.65390477812201
 30
0.0
 11
571.36935016210123
 21
402.65390477812201
 31
0.0
  0
ARC
  5
3E51
  8
0
 10
559.31935016210105
 20
401.80390477812171
 30
0.0
 40
1.5
 50
90.0
 51
180.0
  0
ARC
  5
3E52
  8
0
 10
560.31935016210105
 20
401.80390477812171
 30
0.0
 40
1.5
 50
0.0
 51
90.0
  0
LINE
  5
3E53
  8
0
 10
559.31935016210105
 20
403.30390477812159
 30
0.0
 11
560.31935016210105
 21
403.30390477812159
 31
0.0
  0
ARC
  5
3E54
  8
0
 10
559.31935016210105
 20
399.50390477812152
 30
0.0
 40
1.5
 50
180.0
 51
270.0
  0
ARC
  5
3E55
  8
0
 10
560.31935016210105
 20
399.50390477812152
 30
0.0
 40
1.5
 50
270.0
 51
0.0
  0
LINE
  5
3E56
  8
0
 10
559.31935016210105
 20
398.00390477812152
 30
0.0
 11
560.31935016210105
 21
398.00390477812152
 31
0.0
  0
LINE
  5
3E57
  8
0
 10
557.81935016210105
 20
399.50390477812152
 30
0.0
 11
557.81935016210105
 21
401.80390477812171
 31
0.0
  0
LINE
  5
3E58
  8
0
 10
561.81935016210105
 20
399.50390477812152
 30
0.0
 11
561.81935016210105
 21
401.80390477812171
 31
0.0
  0
ARC
  5
3E59
  8
0
 10
546.61935016210123
 20
401.80390477812171
 30
0.0
 40
1.5
 50
90.0
 51
180.0
  0
ARC
  5
3E5A
  8
0
 10
547.61935016210123
 20
401.80390477812171
 30
0.0
 40
1.5
 50
0.0
 51
90.0
  0
LINE
  5
3E5B
  8
0
 10
546.61935016210123
 20
403.30390477812159
 30
0.0
 11
547.61935016210123
 21
403.30390477812159
 31
0.0
  0
ARC
  5
3E5C
  8
0
 10
546.61935016210123
 20
399.50390477812152
 30
0.0
 40
1.5
 50
180.0
 51
270.0
  0
ARC
  5
3E5D
  8
0
 10
547.61935016210123
 20
399.50390477812152
 30
0.0
 40
1.5
 50
270.0
 51
0.0
  0
LINE
  5
3E5E
  8
0
 10
546.61935016210123
 20
398.00390477812152
 30
0.0
 11
547.61935016210123
 21
398.00390477812152
 31
0.0
  0
LINE
  5
3E5F
  8
0
 10
545.11935016210123
 20
399.50390477812152
 30
0.0
 11
545.11935016210123
 21
401.80390477812171
 31
0.0
  0
LINE
  5
3E60
  8
0
 10
549.11935016210123
 20
399.50390477812152
 30
0.0
 11
549.11935016210123
 21
401.80390477812171
 31
0.0
  0
LINE
  5
3E66
  8
0
 10
658.21935016210068
 20
396.65390477812213
 30
0.0
 11
658.21935016210068
 21
400.65390477812201
 31
0.0
  0
LINE
  5
3E68
  8
0
 10
658.21935016210068
 20
396.65390477812213
 30
0.0
 11
658.21935016210068
 21
404.65390477812201
 31
0.0
  0
LINE
  5
3E69
  8
0
 10
658.21935016210068
 20
396.65390477812213
 30
0.0
 11
658.21935016210068
 21
404.65390477812201
 31
0.0
  0
LINE
  5
3E6A
  8
0
 10
550.05878316210158
 20
418.31890477812198
 30
0.0
 11
1039.2193501621
 21
418.31890477812198
 31
0.0
  0
LINE
  5
3E70
  8
0
 10
811.76935016210075
 20
402.65390477812201
 30
0.0
 11
809.46935016210068
 21
402.65390477812201
 31
0.0
  0
LINE
  5
3E71
  8
0
 10
811.76935016210075
 20
398.65390477812213
 30
0.0
 11
809.46935016210068
 21
398.65390477812213
 31
0.0
  0
LINE
  5
3E72
  8
0
 10
813.26935016210086
 20
400.15390477812201
 30
0.0
 11
813.26935016210086
 21
401.15390477812201
 31
0.0
  0
ARC
  5
3E73
  8
0
 10
811.76935016210075
 20
401.15390477812201
 30
0.0
 40
1.5
 50
0.0
 51
90.0
  0
ARC
  5
3E74
  8
0
 10
811.76935016210075
 20
400.15390477812201
 30
0.0
 40
1.5
 50
270.0
 51
0.0
  0
LINE
  5
3E75
  8
0
 10
807.96935016210057
 20
400.15390477812201
 30
0.0
 11
807.96935016210057
 21
401.15390477812201
 31
0.0
  0
ARC
  5
3E76
  8
0
 10
809.46935016210068
 20
401.15390477812201
 30
0.0
 40
1.5
 50
90.0
 51
180.0
  0
ARC
  5
3E77
  8
0
 10
809.46935016210068
 20
400.15390477812201
 30
0.0
 40
1.5
 50
180.0
 51
270.0
  0
LINE
  5
3E80
  8
0
 10
1063.419350162101
 20
399.50390477812152
 30
0.0
 11
1063.419350162101
 21
401.80390477812171
 31
0.0
  0
LINE
  5
3E81
  8
0
 10
1059.419350162101
 20
399.50390477812152
 30
0.0
 11
1059.419350162101
 21
401.80390477812171
 31
0.0
  0
LINE
  5
3E82
  8
0
 10
1060.919350162101
 20
398.00390477812152
 30
0.0
 11
1061.919350162101
 21
398.00390477812152
 31
0.0
  0
ARC
  5
3E83
  8
0
 10
1061.919350162101
 20
399.50390477812152
 30
0.0
 40
1.5
 50
270.0
 51
0.0
  0
ARC
  5
3E84
  8
0
 10
1060.919350162101
 20
399.50390477812152
 30
0.0
 40
1.5
 50
180.0
 51
270.0
  0
LINE
  5
3E85
  8
0
 10
1060.919350162101
 20
403.30390477812159
 30
0.0
 11
1061.919350162101
 21
403.30390477812159
 31
0.0
  0
ARC
  5
3E86
  8
0
 10
1061.919350162101
 20
401.80390477812171
 30
0.0
 40
1.5
 50
0.0
 51
90.0
  0
ARC
  5
3E87
  8
0
 10
1060.919350162101
 20
401.80390477812171
 30
0.0
 40
1.5
 50
90.0
 51
180.0
  0
LINE
  5
3E88
  8
0
 10
1076.119350162101
 20
399.50390477812152
 30
0.0
 11
1076.119350162101
 21
401.80390477812171
 31
0.0
  0
LINE
  5
3E89
  8
0
 10
1072.119350162101
 20
399.50390477812152
 30
0.0
 11
1072.119350162101
 21
401.80390477812171
 31
0.0
  0
LINE
  5
3E8A
  8
0
 10
1073.619350162101
 20
398.00390477812152
 30
0.0
 11
1074.619350162101
 21
398.00390477812152
 31
0.0
  0
ARC
  5
3E8B
  8
0
 10
1074.619350162101
 20
399.50390477812152
 30
0.0
 40
1.5
 50
270.0
 51
0.0
  0
ARC
  5
3E8C
  8
0
 10
1073.619350162101
 20
399.50390477812152
 30
0.0
 40
1.5
 50
180.0
 51
270.0
  0
LINE
  5
3E8D
  8
0
 10
1073.619350162101
 20
403.30390477812159
 30
0.0
 11
1074.619350162101
 21
403.30390477812159
 31
0.0
  0
ARC
  5
3E8E
  8
0
 10
1074.619350162101
 20
401.80390477812171
 30
0.0
 40
1.5
 50
0.0
 51
90.0
  0
ARC
  5
3E8F
  8
0
 10
1073.619350162101
 20
401.80390477812171
 30
0.0
 40
1.5
 50
90.0
 51
180.0
  0
LINE
  5
3E96
  8
0
 10
951.46935016210068
 20
402.65390477812201
 30
0.0
 11
949.16935016210141
 21
402.65390477812201
 31
0.0
  0
LINE
  5
3E97
  8
0
 10
951.46935016210068
 20
398.65390477812213
 30
0.0
 11
949.16935016210141
 21
398.65390477812213
 31
0.0
  0
LINE
  5
3E98
  8
0
 10
952.96935016210068
 20
400.15390477812201
 30
0.0
 11
952.96935016210068
 21
401.15390477812201
 31
0.0
  0
ARC
  5
3E99
  8
0
 10
951.46935016210068
 20
401.15390477812201
 30
0.0
 40
1.5
 50
0.0
 51
90.0
  0
ARC
  5
3E9A
  8
0
 10
951.46935016210068
 20
400.15390477812201
 30
0.0
 40
1.5
 50
270.0
 51
0.0
  0
LINE
  5
3E9B
  8
0
 10
947.66935016210141
 20
400.15390477812201
 30
0.0
 11
947.66935016210141
 21
401.15390477812201
 31
0.0
  0
ARC
  5
3E9C
  8
0
 10
949.16935016210141
 20
401.15390477812201
 30
0.0
 40
1.5
 50
90.0
 51
180.0
  0
ARC
  5
3E9D
  8
0
 10
949.16935016210141
 20
400.15390477812201
 30
0.0
 40
1.5
 50
180.0
 51
270.0
  0
LINE
  5
3E9E
  8
0
 10
531.21935016210057
 20
418.31890477812198
 30
0.0
 11
1090.0193501621011
 21
418.31890477812198
 31
0.0
  0
LINE
  5
3E9F
  8
0
 10
531.21935016210057
 20
415.1895887781215
 30
0.0
 11
1090.0193501621011
 21
415.1895887781215
 31
0.0
  0
LINE
  5
3EA0
  8
0
 10
531.21935016210057
 20
416.31890477812198
 30
0.0
 11
1090.0193501621011
 21
416.31890477812198
 31
0.0
  0
LINE
  5
3EA1
  8
0
 10
531.21935016210057
 20
386.11822077812172
 30
0.0
 11
1090.0193501621011
 21
386.11822077812172
 31
0.0
  0
LINE
  5
3EA2
  8
0
 10
531.21935016210057
 20
384.9889047781212
 30
0.0
 11
1090.0193501621011
 21
384.9889047781212
 31
0.0
  0
LINE
  5
3EA3
  8
0
 10
531.21935016210057
 20
382.9889047781212
 30
0.0
 11
1090.0193501621011
 21
382.9889047781212
 31
0.0
  0
LINE
  5
3EE7
  8
0
 10
531.21935016210057
 20
388.2306867781212
 30
0.0
 11
531.21935016210057
 21
382.9889047781212
 31
0.0
  0
LINE
  5
3EE8
  8
0
 10
531.21935016210057
 20
388.2306867781212
 30
0.0
 11
531.21935016210057
 21
382.9889047781212
 31
0.0
  0
LINE
  5
3EE9
  8
0
 10
531.21935016210057
 20
388.2306867781212
 30
0.0
 11
531.21935016210057
 21
382.9889047781212
 31
0.0
  0
LINE
  5
3EEA
  8
0
 10
531.21935016210057
 20
388.2306867781212
 30
0.0
 11
531.21935016210057
 21
382.9889047781212
 31
0.0
  0
LINE
  5
3EEB
  8
0
 10
531.21935016210057
 20
388.2306867781212
 30
0.0
 11
531.21935016210057
 21
382.9889047781212
 31
0.0
  0
LINE
  5
3EEC
  8
0
 10
531.21935016210057
 20
388.2306867781212
 30
0.0
 11
531.21935016210057
 21
382.9889047781212
 31
0.0
  0
LINE
  5
3EF2
  8
0
 10
987.41935016210141
 20
409.60390477812189
 30
0.0
 11
987.41935016210141
 21
405.80390477812171
 31
0.0
  0
LINE
  5
3EF3
  8
0
 10
989.41935016210141
 20
409.60390477812189
 30
0.0
 11
989.41935016210141
 21
405.80390477812171
 31
0.0
  0
LINE
  5
3EF4
  8
0
 10
987.41935016210141
 20
395.50390477812152
 30
0.0
 11
993.81935016210105
 21
395.50390477812152
 31
0.0
  0
LINE
  5
3EF5
  8
0
 10
987.41935016210141
 20
391.7039047781214
 30
0.0
 11
993.81935016210105
 21
391.7039047781214
 31
0.0
  0
LINE
  5
3EF6
  8
0
 10
987.41935016210141
 20
405.80390477812171
 30
0.0
 11
993.81935016210105
 21
405.80390477812171
 31
0.0
  0
LINE
  5
3EF7
  8
0
 10
989.41935016210141
 20
395.50390477812152
 30
0.0
 11
989.41935016210141
 21
391.7039047781214
 31
0.0
  0
LINE
  5
3EF8
  8
0
 10
987.41935016210141
 20
395.50390477812152
 30
0.0
 11
987.41935016210141
 21
391.7039047781214
 31
0.0
  0
POINT
  5
3EF9
  8
0
 10
987.41935016210141
 20
391.7039047781214
 30
0.0
  0
LINE
  5
3EFA
  8
0
 10
987.41935016210141
 20
409.60390477812189
 30
0.0
 11
993.81935016210105
 21
409.60390477812189
 31
0.0
  0
POINT
  5
3EFB
  8
0
 10
987.41935016210141
 20
409.60390477812189
 30
0.0
  0
LINE
  5
3F02
  8
0
 10
531.21935016210057
 20
418.31890477812198
 30
0.0
 11
531.21935016210057
 21
413.07712277812192
 31
0.0
  0
LINE
  5
3F03
  8
0
 10
531.21935016210057
 20
418.31890477812198
 30
0.0
 11
531.21935016210057
 21
413.07712277812192
 31
0.0
  0
LINE
  5
3F04
  8
0
 10
531.21935016210057
 20
418.31890477812198
 30
0.0
 11
531.21935016210057
 21
413.07712277812192
 31
0.0
  0
LINE
  5
3F05
  8
0
 10
531.21935016210057
 20
418.31890477812198
 30
0.0
 11
531.21935016210057
 21
413.07712277812192
 31
0.0
  0
LINE
  5
3F06
  8
0
 10
531.21935016210057
 20
418.31890477812198
 30
0.0
 11
531.21935016210057
 21
413.07712277812192
 31
0.0
  0
LINE
  5
3F07
  8
0
 10
531.21935016210057
 20
418.31890477812198
 30
0.0
 11
531.21935016210057
 21
413.07712277812192
 31
0.0
  0
LINE
  5
3F08
  8
0
 10
1090.0193501621011
 20
418.31890477812198
 30
0.0
 11
1090.0193501621011
 21
382.9889047781212
 31
0.0
  0
LINE
  5
3F09
  8
0
 10
1090.0193501621011
 20
418.31890477812198
 30
0.0
 11
1090.0193501621011
 21
382.9889047781212
 31
0.0
  0
LINE
  5
3F0A
  8
0
 10
1090.0193501621011
 20
418.31890477812198
 30
0.0
 11
1090.0193501621011
 21
382.9889047781212
 31
0.0
  0
LINE
  5
3F0B
  8
0
 10
1090.0193501621011
 20
418.31890477812198
 30
0.0
 11
1090.0193501621011
 21
382.9889047781212
 31
0.0
  0
LINE
  5
3F0C
  8
0
 10
1090.0193501621011
 20
418.31890477812198
 30
0.0
 11
1090.0193501621011
 21
382.9889047781212
 31
0.0
  0
LINE
  5
4091
  8
1
 10
140.71935016210111
 20
408.40390477812201
 30
0.0
 11
140.71935016210111
 21
392.90390477812213
 31
0.0
  0
LINE
  5
4095
  8
1
 10
150.21935016210111
 20
406.30390477812171
 30
0.0
 11
150.21935016210111
 21
395.00390477812152
 31
0.0
  0
LINE
  5
4098
  8
1
 10
251.8193501621011
 20
405.65390477812201
 30
0.0
 11
251.8193501621011
 21
395.65390477812213
 31
0.0
  0
LINE
  5
409B
  8
1
 10
404.21935016210108
 20
405.65390477812201
 30
0.0
 11
404.21935016210108
 21
395.65390477812213
 31
0.0
  0
LINE
  5
40A2
  8
1
 10
547.11935016210123
 20
406.30390477812171
 30
0.0
 11
547.11935016210123
 21
395.00390477812152
 31
0.0
  0
LINE
  5
40A3
  8
1
 10
556.61935016210077
 20
405.65390477812201
 30
0.0
 11
556.61935016210077
 21
395.65390477812213
 31
0.0
  0
LINE
  5
40A4
  8
1
 10
559.81935016210105
 20
406.30390477812171
 30
0.0
 11
559.81935016210105
 21
395.00390477812152
 31
0.0
  0
LINE
  5
40A5
  8
1
 10
572.51935016210132
 20
405.65390477812201
 30
0.0
 11
572.51935016210132
 21
395.65390477812213
 31
0.0
  0
LINE
  5
40A8
  8
1
 10
810.61935016210066
 20
405.65390477812201
 30
0.0
 11
810.61935016210066
 21
395.65390477812213
 31
0.0
  0
LINE
  5
40A9
  8
1
 10
950.31935016210105
 20
405.65390477812201
 30
0.0
 11
950.31935016210105
 21
395.65390477812213
 31
0.0
  0
LINE
  5
40AC
  8
1
 10
1061.419350162101
 20
406.30390477812171
 30
0.0
 11
1061.419350162101
 21
395.00390477812152
 31
0.0
  0
LINE
  5
40AD
  8
1
 10
1074.119350162101
 20
406.30390477812171
 30
0.0
 11
1074.119350162101
 21
395.00390477812152
 31
0.0
  0
TEXT
  5
4171
  8
0
 62
     3
 10
0.0
 20
0.0
 30
0.0
 40
10.0
  1
RS35S-22
  7
STANDARD1
  0
ENDSEC
  0
EOF
