  0
SECTION
  2
HEADER
  9
$ACADVER
  1
AC1009
  9
$INSBASE
 10
0.0
 20
0.0
 30
0.0
  9
$EXTMIN
 10
0.0
 20
-2.960436562073669
 30
0.0
  9
$EXTMAX
 10
1364.1840290594721
 20
549.01868124077509
 30
0.0
  9
$LIMMIN
 10
0.0
 20
0.0
  9
$LIMMAX
 10
187.5
 20
135.0
  9
$ORTHOMODE
 70
     0
  9
$REGENMODE
 70
     1
  9
$FILLMODE
 70
     1
  9
$QTEXTMODE
 70
     0
  9
$MIRRTEXT
 70
     0
  9
$DRAGMODE
 70
     2
  9
$LTSCALE
 40
10.0
  9
$OSMODE
 70
    55
  9
$ATTMODE
 70
     1
  9
$TEXTSIZE
 40
2.5
  9
$TRACEWID
 40
0.05
  9
$TEXTSTYLE
  7
STANDARD
  9
$CLAYER
  8
1
  9
$CELTYPE
  6
BYLAYER
  9
$CECOLOR
 62
   256
  9
$DIMSCALE
 40
0.5
  9
$DIMASZ
 40
3.0
  9
$DIMEXO
 40
2.0
  9
$DIMDLI
 40
10.0
  9
$DIMRND
 40
0.0
  9
$DIMDLE
 40
0.0
  9
$DIMEXE
 40
2.0
  9
$DIMTP
 40
0.0
  9
$DIMTM
 40
0.0
  9
$DIMTXT
 40
3.0
  9
$DIMCEN
 40
0.09
  9
$DIMTSZ
 40
0.0
  9
$DIMTOL
 70
     0
  9
$DIMLIM
 70
     0
  9
$DIMTIH
 70
     0
  9
$DIMTOH
 70
     0
  9
$DIMSE1
 70
     0
  9
$DIMSE2
 70
     0
  9
$DIMTAD
 70
     1
  9
$DIMZIN
 70
     0
  9
$DIMBLK
  1

  9
$DIMASO
 70
     0
  9
$DIMSHO
 70
     0
  9
$DIMPOST
  1

  9
$DIMAPOST
  1

  9
$DIMALT
 70
     0
  9
$DIMALTD
 70
     2
  9
$DIMALTF
 40
25.399999999999999
  9
$DIMLFAC
 40
1.0
  9
$DIMTOFL
 70
     1
  9
$DIMTVP
 40
1.6000000000000001
  9
$DIMTIX
 70
     1
  9
$DIMSOXD
 70
     0
  9
$DIMSAH
 70
     0
  9
$DIMBLK1
  1

  9
$DIMBLK2
  1

  9
$DIMSTYLE
  2
STANDARD
  9
$DIMCLRD
 70
     0
  9
$DIMCLRE
 70
     0
  9
$DIMCLRT
 70
     0
  9
$DIMTFAC
 40
1.0
  9
$DIMGAP
 40
0.09
  9
$LUNITS
 70
     2
  9
$LUPREC
 70
     4
  9
$SKETCHINC
 40
0.1
  9
$FILLETRAD
 40
0.0
  9
$AUNITS
 70
     0
  9
$AUPREC
 70
     0
  9
$MENU
  1
E:\r13\win\SUPPORT\ACAD
  9
$ELEVATION
 40
0.0
  9
$PELEVATION
 40
0.0
  9
$THICKNESS
 40
0.0
  9
$LIMCHECK
 70
     0
  9
$BLIPMODE
 70
     0
  9
$CHAMFERA
 40
1.6000000000000001
  9
$CHAMFERB
 40
1.6000000000000001
  9
$SKPOLY
 70
     0
  9
$TDCREATE
 40
2449840.5944097228
  9
$TDUPDATE
 40
2456598.6057865629
  9
$TDINDWG
 40
0.2544120255
  9
$TDUSRTIMER
 40
0.2544120255
  9
$USRTIMER
 70
     1
  9
$ANGBASE
 50
0.0
  9
$ANGDIR
 70
     0
  9
$PDMODE
 70
     0
  9
$PDSIZE
 40
0.0
  9
$PLINEWID
 40
0.0
  9
$COORDS
 70
     1
  9
$SPLFRAME
 70
     0
  9
$SPLINETYPE
 70
     6
  9
$SPLINESEGS
 70
     8
  9
$ATTDIA
 70
     0
  9
$ATTREQ
 70
     1
  9
$HANDLING
 70
     1
  9
$HANDSEED
  5
51B2
  9
$SURFTAB1
 70
     6
  9
$SURFTAB2
 70
     6
  9
$SURFTYPE
 70
     6
  9
$SURFU
 70
     6
  9
$SURFV
 70
     6
  9
$UCSNAME
  2

  9
$UCSORG
 10
0.0
 20
0.0
 30
0.0
  9
$UCSXDIR
 10
1.0
 20
0.0
 30
0.0
  9
$UCSYDIR
 10
0.0
 20
1.0
 30
0.0
  9
$PUCSNAME
  2

  9
$PUCSORG
 10
0.0
 20
0.0
 30
0.0
  9
$PUCSXDIR
 10
1.0
 20
0.0
 30
0.0
  9
$PUCSYDIR
 10
0.0
 20
1.0
 30
0.0
  9
$USERI1
 70
     0
  9
$USERI2
 70
     1
  9
$USERI3
 70
     1
  9
$USERI4
 70
     0
  9
$USERI5
 70
     0
  9
$USERR1
 40
0.0
  9
$USERR2
 40
0.0
  9
$USERR3
 40
0.0
  9
$USERR4
 40
0.0
  9
$USERR5
 40
0.0
  9
$WORLDVIEW
 70
     1
  9
$SHADEDGE
 70
     3
  9
$SHADEDIF
 70
    70
  9
$TILEMODE
 70
     1
  9
$MAXACTVP
 70
    16
  9
$PLIMCHECK
 70
     0
  9
$PEXTMIN
 10
1.0000000000000000E+020
 20
1.0000000000000000E+020
 30
1.0000000000000000E+020
  9
$PEXTMAX
 10
-1.0000000000000000E+020
 20
-1.0000000000000000E+020
 30
-1.0000000000000000E+020
  9
$PLIMMIN
 10
0.0
 20
0.0
  9
$PLIMMAX
 10
12.0
 20
9.0
  9
$UNITMODE
 70
     0
  9
$VISRETAIN
 70
     0
  9
$PLINEGEN
 70
     0
  9
$PSLTSCALE
 70
     0
  0
ENDSEC
  0
SECTION
  2
TABLES
  0
TABLE
  2
VPORT
 70
     1
  0
VPORT
  2
*ACTIVE
 70
     0
 10
0.0
 20
0.0
 11
1.0
 21
1.0
 12
682.09201770597463
 22
396.93147520808071
 13
0.0
 23
0.0
 14
5.0
 24
5.0
 15
5.0
 25
5.0
 16
0.0
 26
0.0
 36
1.0
 17
0.0
 27
0.0
 37
0.0
 40
807.58306747982203
 41
1.7807262569832401
 42
50.0
 43
0.0
 44
0.0
 50
0.0
 51
0.0
 71
     0
 72
   100
 73
     1
 74
     0
 75
     0
 76
     0
 77
     0
 78
     0
  0
ENDTAB
  0
TABLE
  2
LTYPE
 70
     4
  0
LTYPE
  2
CONTINUOUS
 70
     0
  3
Solid Line
 72
    65
 73
     0
 40
0.0
  0
LTYPE
  2
CENTER
 70
     0
  3
____ _ ____ _ ____ _ ____ _ ____ _ ____ _ ____
 72
    65
 73
     4
 40
2.0
 49
1.25
 49
-0.25
 49
0.25
 49
-0.25
  0
LTYPE
  2
HIDDEN
 70
     0
  3
_ _ _ _ _ _ _ _ _ _ _ _ _ _ _ _ _ _ _ _ _ _ _
 72
    65
 73
     2
 40
0.375
 49
0.25
 49
-0.125
  0
LTYPE
  2
PHANTOM2
 70
     0
  3
___ _ _ ___ _ _ ___ _ _ ___ _ _
 72
    65
 73
     6
 40
1.25
 49
0.625
 49
-0.125
 49
0.125
 49
-0.125
 49
0.125
 49
-0.125
  0
ENDTAB
  0
TABLE
  2
LAYER
 70
     4
  0
LAYER
  2
0
 70
     0
 62
     7
  6
CONTINUOUS
  0
LAYER
  2
1
 70
     0
 62
     1
  6
CENTER
  0
LAYER
  2
2
 70
     0
 62
     2
  6
HIDDEN
  0
LAYER
  2
4
 70
     0
 62
     1
  6
CONTINUOUS
  0
ENDTAB
  0
TABLE
  2
STYLE
 70
     5
  0
STYLE
  2
STANDARD
 70
     0
 40
0.0
 41
1.0
 50
0.0
 71
     0
 42
2.5
  3
TXT
  4
BIGFONT
  0
STYLE
  2
KANJI
 70
     0
 40
0.0
 41
1.0
 50
0.0
 71
     0
 42
5.0
  3
TXT.SHX
  4
bigfont
  0
STYLE
  2
STYLE2
 70
     0
 40
13.0
 41
1.0
 50
0.0
 71
     0
 42
2.5
  3
C:\Program Files\AutoCAD LT\txt.shx
  4
C:\Program Files\AutoCAD LT\bigfont.shx
  0
STYLE
  2
STANDARD2
 70
     0
 40
8.0
 41
1.0
 50
0.0
 71
     0
 42
0.2
  3
C:\Program Files\AutoCAD LT\txt.shx
  4
C:\Program Files\AutoCAD LT\bigfont.shx
  0
STYLE
  2
STANDARD1
 70
     0
 40
0.0
 41
1.0
 50
0.0
 71
     0
 42
3.0
  3
txt
  4

  0
ENDTAB
  0
TABLE
  2
VIEW
 70
     1
  0
VIEW
  2
ALL
 70
     0
 40
135.0
 10
110.49579799999999
 20
67.5
 41
0.0
 11
0.0
 21
0.0
 31
1.0
 12
0.0
 22
0.0
 32
0.0
 42
0.0
 43
0.0
 44
0.0
 50
0.0
 71
     0
  0
ENDTAB
  0
TABLE
  2
UCS
 70
     0
  0
ENDTAB
  0
TABLE
  2
APPID
 70
     4
  0
APPID
  2
ACAD
 70
     0
  0
APPID
  2
DCO15
 70
     0
  0
APPID
  2
ACAD_MLEADERVER
 70
     0
  0
APPID
  2
ACAD_NAV_VCDISPLAY
 70
     0
  0
ENDTAB
  0
TABLE
  2
DIMSTYLE
 70
     1
  0
DIMSTYLE
  2
STANDARD
 70
     0
  3

  4

  5

  6

  7

 40
1.0
 41
0.18
 42
0.0625
 43
0.38
 44
0.18
 45
0.0
 46
0.0
 47
0.0
 48
0.0
140
0.18
141
0.09
142
0.0
143
25.399999999999999
144
1.0
145
0.0
146
1.0
147
0.09
 71
     0
 72
     0
 73
     1
 74
     1
 75
     0
 76
     0
 77
     0
 78
     0
170
     0
171
     2
172
     0
173
     0
174
     0
175
     0
176
     0
177
     0
178
     0
  0
ENDTAB
  0
ENDSEC
  0
SECTION
  2
BLOCKS
  0
BLOCK
  8
0
  2
$MODEL_SPACE
 70
     0
 10
0.0
 20
0.0
 30
0.0
  3
$MODEL_SPACE
  1

  0
ENDBLK
  5
15D
  8
0
  0
BLOCK
 67
     1
  8
0
  2
$PAPER_SPACE
 70
     0
 10
0.0
 20
0.0
 30
0.0
  3
$PAPER_SPACE
  1

  0
ENDBLK
  5
15B
 67
     1
  8
0
  0
BLOCK
  8
0
  2
STDGX5
 70
     0
 10
0.0
 20
0.0
 30
0.0
  3
STDGX5
  1

  0
ENDBLK
  5
41
  8
0
  0
ENDSEC
  0
SECTION
  2
ENTITIES
  0
INSERT
  5
CA
  8
0
  2
STDGX5
 10
0.0
 20
0.0
 30
0.0
  0
INSERT
  5
69A
  8
0
  2
STDGX5
 10
194.3272563481562
 20
13.52129245667936
 30
0.0
  0
INSERT
  5
1343
  8
0
  2
STDGX5
 10
563.10080863610574
 20
-59.557035590067017
 30
0.0
  0
INSERT
  5
1345
  8
0
  2
STDGX5
 10
757.42806498426194
 20
-46.035743133387648
 30
0.0
  0
LINE
  5
247B
  8
0
 10
61.530139059472042
 20
525.55368124077586
 30
0.0
 11
61.530139059472042
 21
518.45368124077538
 31
0.0
  0
LINE
  5
247C
  8
0
 10
60.830139059472231
 20
525.55368124077586
 30
0.0
 11
60.830139059472231
 21
518.45368124077538
 31
0.0
  0
ARC
  5
247D
  8
0
 10
64.130139059471503
 20
517.60868124077524
 30
0.0
 40
3.931
 50
47.952971999981628
 51
126.9999999999952
  0
LINE
  5
247E
  8
0
 10
68.630139059471503
 20
520.6689172407755
 30
0.0
 11
68.630139059471503
 21
542.0384462407751
 31
0.0
  0
LINE
  5
247F
  8
0
 10
67.080139059472231
 20
520.6689172407755
 30
0.0
 11
67.080139059472231
 21
542.0384462407751
 31
0.0
  0
LINE
  5
2480
  8
0
 10
60.604139059471663
 20
518.1765542407752
 30
0.0
 11
60.604139059471663
 21
544.53080824077585
 31
0.0
  0
LINE
  5
2481
  8
0
 10
59.080139059472231
 20
518.1765542407752
 30
0.0
 11
59.080139059472231
 21
544.53080824077585
 31
0.0
  0
ARC
  5
2482
  8
0
 10
66.890139059471721
 20
520.6689172407755
 30
0.0
 40
1.74
 50
227.95297199998171
 51
0.0
  0
LINE
  5
2483
  8
0
 10
67.830139059472231
 20
518.1536812407752
 30
0.0
 11
67.830139059472231
 21
517.4536812407755
 31
0.0
  0
ARC
  5
2484
  8
0
 10
66.890139059471721
 20
520.6689172407755
 30
0.0
 40
0.19
 50
227.95297199998171
 51
0.0
  0
LINE
  5
2485
  8
0
 10
66.816800059472143
 20
516.81799724077473
 30
0.0
 11
67.840139059471539
 21
515.68868124077505
 31
0.0
  0
LINE
  5
2486
  8
0
 10
66.597075059472203
 20
514.56226924077555
 30
0.0
 11
67.840139059471539
 21
515.68868124077505
 31
0.0
  0
LINE
  5
2487
  8
0
 10
65.860962059472286
 20
515.95185624077521
 30
0.0
 11
66.816800059472143
 21
516.81799724077473
 31
0.0
  0
ARC
  5
2488
  8
0
 10
61.830139059472231
 20
518.45368124077538
 30
0.0
 40
0.3
 50
180.0
 51
270.0
  0
LINE
  5
2489
  8
0
 10
61.764404059472099
 20
520.74811724077563
 30
0.0
 11
62.697217059471541
 21
519.51023224077505
 31
0.0
  0
LINE
  5
248A
  8
0
 10
62.496071059472122
 20
515.85635824077553
 30
0.0
 11
61.020763059472067
 21
517.22280024077497
 31
0.0
  0
LINE
  5
248B
  8
0
 10
61.460483059472381
 20
514.73826424077515
 30
0.0
 11
59.985175059472333
 21
516.10470624077561
 31
0.0
  0
ARC
  5
248C
  8
0
 10
61.904139059471852
 20
518.1765542407752
 30
0.0
 40
2.823999999999999
 50
180.0
 51
227.1938819999904
  0
ARC
  5
248D
  8
0
 10
61.904139059471852
 20
518.1765542407752
 30
0.0
 40
1.3
 50
180.0
 51
227.1938819999904
  0
ARC
  5
248E
  8
0
 10
61.830139059472231
 20
518.45368124077538
 30
0.0
 40
1.0
 50
180.0
 51
270.0
  0
ARC
  5
248F
  8
0
 10
64.130139059471503
 20
517.60868124077524
 30
0.0
 40
2.379999999999999
 50
13.23770999997376
 51
166.7508530000195
  0
LINE
  5
2490
  8
0
 10
67.830139059472231
 20
517.4536812407755
 30
0.0
 11
61.830139059472231
 21
517.4536812407755
 31
0.0
  0
LINE
  5
2491
  8
0
 10
67.830139059472231
 20
518.1536812407752
 30
0.0
 11
61.830139059472231
 21
518.1536812407752
 31
0.0
  0
ARC
  5
2492
  8
0
 10
64.130139059471503
 20
517.60868124077524
 30
0.0
 40
2.3809999999999989
 50
47.952971999981628
 51
126.9999999999952
  0
ARC
  5
2493
  8
0
 10
64.130139059471503
 20
517.60868124077524
 30
0.0
 40
3.919999999999999
 50
227.04230300001271
 51
309.00000000000932
  0
ARC
  5
2494
  8
0
 10
64.130139059471503
 20
517.60868124077524
 30
0.0
 40
2.395999999999999
 50
226.9999999999857
 51
316.25133899997968
  0
ARC
  5
2495
  8
0
 10
64.130139059471503
 20
517.60868124077524
 30
0.0
 40
2.379999999999999
 50
183.66590899997581
 51
356.26590899998581
  0
ARC
  5
2496
  8
0
 10
66.890139059471721
 20
542.0384462407751
 30
0.0
 40
1.74
 50
0.0
 51
132.04702800001829
  0
ARC
  5
2497
  8
0
 10
66.890139059471721
 20
542.0384462407751
 30
0.0
 40
0.19
 50
0.0
 51
132.04702800001829
  0
LINE
  5
2498
  8
0
 10
66.816800059472143
 20
545.88936524077553
 30
0.0
 11
67.840139059471539
 21
547.01868124077498
 31
0.0
  0
LINE
  5
2499
  8
0
 10
65.860962059472286
 20
546.75550624077505
 30
0.0
 11
66.816800059472143
 21
545.88936524077553
 31
0.0
  0
LINE
  5
249A
  8
0
 10
67.830139059472231
 20
545.25368124077556
 30
0.0
 11
67.830139059472231
 21
544.55368124077575
 31
0.0
  0
LINE
  5
249B
  8
0
 10
66.597075059472203
 20
548.14509324077562
 30
0.0
 11
67.840139059471539
 21
547.01868124077498
 31
0.0
  0
ARC
  5
249C
  8
0
 10
61.904139059471852
 20
544.53080824077585
 30
0.0
 40
2.823999999999999
 50
132.8061180000096
 51
180.0
  0
LINE
  5
249D
  8
0
 10
61.764404059472099
 20
541.95924524077554
 30
0.0
 11
62.697217059471541
 21
543.197130240776
 31
0.0
  0
ARC
  5
249E
  8
0
 10
61.904139059471852
 20
544.53080824077585
 30
0.0
 40
1.3
 50
132.8061180000096
 51
180.0
  0
ARC
  5
249F
  8
0
 10
61.830139059472231
 20
544.25368124077556
 30
0.0
 40
0.3
 50
90.0
 51
180.0
  0
LINE
  5
24A0
  8
0
 10
62.496071059472122
 20
546.85100524077598
 30
0.0
 11
61.020763059472067
 21
545.48456224077597
 31
0.0
  0
ARC
  5
24A1
  8
0
 10
61.830139059472231
 20
544.25368124077556
 30
0.0
 40
1.0
 50
90.0
 51
180.0
  0
LINE
  5
24A2
  8
0
 10
63.230139059471867
 20
536.15368124077531
 30
0.0
 11
61.830139059472231
 21
536.15368124077531
 31
0.0
  0
LINE
  5
24A3
  8
0
 10
63.230139059471867
 20
536.85368124077513
 30
0.0
 11
61.830139059472231
 21
536.85368124077513
 31
0.0
  0
ARC
  5
24A4
  8
0
 10
61.830139059472231
 20
537.15368124077531
 30
0.0
 40
0.3
 50
180.0
 51
270.0
  0
ARC
  5
24A5
  8
0
 10
61.830139059472231
 20
537.15368124077531
 30
0.0
 40
1.0
 50
180.0
 51
270.0
  0
LINE
  5
24A6
  8
0
 10
60.830139059472231
 20
544.25368124077556
 30
0.0
 11
60.830139059472231
 21
537.15368124077531
 31
0.0
  0
LINE
  5
24A7
  8
0
 10
61.530139059472042
 20
544.25368124077556
 30
0.0
 11
61.530139059472042
 21
537.15368124077531
 31
0.0
  0
LINE
  5
24A8
  8
0
 10
61.460483059472381
 20
547.96909824077602
 30
0.0
 11
59.985175059472333
 21
546.60265624077545
 31
0.0
  0
ARC
  5
24A9
  8
0
 10
64.130139059471503
 20
545.09868124077502
 30
0.0
 40
3.919999999999999
 50
50.999999999990742
 51
132.95769699998729
  0
ARC
  5
24AA
  8
0
 10
64.130139059471503
 20
545.09868124077502
 30
0.0
 40
2.379999999999999
 50
193.2491469999805
 51
346.76229000002621
  0
ARC
  5
24AB
  8
0
 10
64.130139059471503
 20
545.09868124077502
 30
0.0
 40
2.3809999999999989
 50
233.0000000000048
 51
312.04702800001837
  0
ARC
  5
24AC
  8
0
 10
64.130139059471503
 20
545.09868124077502
 30
0.0
 40
3.931
 50
233.0000000000048
 51
312.04702800001837
  0
LINE
  5
24AD
  8
0
 10
67.830139059472231
 20
545.25368124077556
 30
0.0
 11
61.830139059472231
 21
545.25368124077556
 31
0.0
  0
LINE
  5
24AE
  8
0
 10
67.830139059472231
 20
544.55368124077575
 30
0.0
 11
61.830139059472231
 21
544.55368124077575
 31
0.0
  0
ARC
  5
24AF
  8
0
 10
63.230139059471867
 20
535.85368124077513
 30
0.0
 40
1.0
 50
0.0
 51
90.0
  0
ARC
  5
24B0
  8
0
 10
63.230139059471867
 20
535.85368124077513
 30
0.0
 40
0.3
 50
0.0
 51
90.0
  0
ARC
  5
24B1
  8
0
 10
64.130139059471503
 20
545.09868124077502
 30
0.0
 40
2.379999999999999
 50
3.7340910000142311
 51
176.33409100002419
  0
ARC
  5
24B2
  8
0
 10
64.130139059471503
 20
545.09868124077502
 30
0.0
 40
2.395999999999999
 50
43.74866100002027
 51
133.00000000001421
  0
LINE
  5
24B3
  8
0
 10
63.230139059471867
 20
526.55368124077575
 30
0.0
 11
61.830139059472231
 21
526.55368124077575
 31
0.0
  0
LINE
  5
24B4
  8
0
 10
63.230139059471867
 20
525.85368124077513
 30
0.0
 11
61.830139059472231
 21
525.85368124077513
 31
0.0
  0
ARC
  5
24B5
  8
0
 10
61.830139059472231
 20
525.55368124077586
 30
0.0
 40
0.3
 50
90.0
 51
180.0
  0
ARC
  5
24B6
  8
0
 10
61.830139059472231
 20
525.55368124077586
 30
0.0
 40
1.0
 50
90.0
 51
180.0
  0
ARC
  5
24B7
  8
0
 10
63.230139059471867
 20
526.85368124077513
 30
0.0
 40
1.0
 50
270.0
 51
0.0
  0
ARC
  5
24B8
  8
0
 10
63.230139059471867
 20
526.85368124077513
 30
0.0
 40
0.3
 50
270.0
 51
0.0
  0
LINE
  5
24B9
  8
1
 10
73.630139059471503
 20
531.35368124077513
 30
0.0
 11
54.080139059472231
 21
531.35368124077513
 31
0.0
1001
ACAD
1000
ASC_BOUNDS
1002
{
1070
    19
1002
}
  0
LINE
  5
24BA
  8
0
 10
64.230139059471867
 20
535.85368124077513
 30
0.0
 11
64.230139059471867
 21
526.85368124077513
 31
0.0
  0
LINE
  5
24BB
  8
0
 10
63.530139059472049
 20
535.85368124077513
 30
0.0
 11
63.530139059472049
 21
526.85368124077513
 31
0.0
  0
LINE
  5
4D2D
  8
0
 10
714.72346205947156
 20
549.01868124077509
 30
0.0
 11
1303.3840290594719
 21
549.01868124077509
 31
0.0
  0
LINE
  5
4D2E
  8
0
 10
642.98402905947137
 20
549.01868124077509
 30
0.0
 11
1354.184029059471
 21
549.01868124077509
 31
0.0
  0
LINE
  5
4D2F
  8
0
 10
642.98402905947137
 20
545.88936524077462
 30
0.0
 11
1354.184029059471
 21
545.88936524077462
 31
0.0
  0
LINE
  5
4D30
  8
0
 10
642.98402905947137
 20
547.01868124077498
 30
0.0
 11
1354.184029059471
 21
547.01868124077498
 31
0.0
  0
LINE
  5
4D31
  8
0
 10
642.98402905947137
 20
516.81799724077473
 30
0.0
 11
1354.184029059471
 21
516.81799724077473
 31
0.0
  0
LINE
  5
4D32
  8
0
 10
642.98402905947137
 20
515.68868124077414
 30
0.0
 11
1354.184029059471
 21
515.68868124077414
 31
0.0
  0
LINE
  5
4D33
  8
0
 10
642.98402905947137
 20
513.68868124077414
 30
0.0
 11
1354.184029059471
 21
513.68868124077414
 31
0.0
  0
LINE
  5
4D3A
  8
0
 10
134.98402905947131
 20
518.9304632407742
 30
0.0
 11
134.98402905947131
 21
543.77689924077504
 31
0.0
  0
LINE
  5
4D3B
  8
0
 10
134.98402905947131
 20
518.9304632407742
 30
0.0
 11
134.98402905947131
 21
543.77689924077504
 31
0.0
  0
LINE
  5
4D3C
  8
0
 10
134.98402905947131
 20
543.77689924077504
 30
0.0
 11
134.98402905947131
 21
518.9304632407742
 31
0.0
  0
LINE
  5
4D3D
  8
0
 10
134.98402905947131
 20
518.9304632407742
 30
0.0
 11
134.98402905947131
 21
543.77689924077504
 31
0.0
  0
LINE
  5
4D3E
  8
0
 10
134.98402905947131
 20
518.80724424077425
 30
0.0
 11
134.98402905947131
 21
543.6536812407744
 31
0.0
  0
LINE
  5
4D3F
  8
0
 10
134.98402905947131
 20
518.80724424077425
 30
0.0
 11
134.98402905947131
 21
543.6536812407744
 31
0.0
  0
LINE
  5
4D40
  8
0
 10
134.98402905947131
 20
518.9304632407742
 30
0.0
 11
134.98402905947131
 21
543.77689924077504
 31
0.0
  0
LINE
  5
4D41
  8
0
 10
134.98402905947131
 20
518.9304632407742
 30
0.0
 11
134.98402905947131
 21
543.77689924077504
 31
0.0
  0
LINE
  5
4D42
  8
0
 10
134.98402905947131
 20
518.9304632407742
 30
0.0
 11
134.98402905947131
 21
543.77689924077504
 31
0.0
  0
LINE
  5
4D43
  8
0
 10
134.98402905947131
 20
518.9304632407742
 30
0.0
 11
134.98402905947131
 21
543.77689924077504
 31
0.0
  0
LINE
  5
4D47
  8
1
 10
124.9840290594713
 20
531.35368124077524
 30
0.0
 11
1364.1840290594721
 21
531.3536812407749
 31
0.0
  0
ARC
  5
4D48
  8
0
 10
820.28402905947155
 20
532.50368124077477
 30
0.0
 40
1.5
 50
90.0
 51
180.0
  0
ARC
  5
4D49
  8
0
 10
821.28402905947155
 20
532.50368124077477
 30
0.0
 40
1.5
 50
0.0
 51
90.0
  0
LINE
  5
4D4A
  8
0
 10
820.28402905947155
 20
534.00368124077465
 30
0.0
 11
821.28402905947155
 21
534.00368124077465
 31
0.0
  0
ARC
  5
4D4B
  8
0
 10
820.28402905947155
 20
530.20368124077447
 30
0.0
 40
1.5
 50
180.0
 51
270.0
  0
ARC
  5
4D4C
  8
0
 10
821.28402905947155
 20
530.20368124077447
 30
0.0
 40
1.5
 50
270.0
 51
0.0
  0
LINE
  5
4D4D
  8
0
 10
818.78402905947155
 20
530.20368124077447
 30
0.0
 11
818.78402905947155
 21
532.50368124077477
 31
0.0
  0
LINE
  5
4D4E
  8
0
 10
822.78402905947155
 20
530.20368124077447
 30
0.0
 11
822.78402905947155
 21
532.50368124077477
 31
0.0
  0
LINE
  5
4D4F
  8
0
 10
820.28402905947155
 20
528.70368124077459
 30
0.0
 11
821.28402905947155
 21
528.70368124077459
 31
0.0
  0
ARC
  5
4D53
  8
0
 10
720.33402905947173
 20
531.85368124077513
 30
0.0
 40
1.5
 50
0.0
 51
90.0
  0
ARC
  5
4D55
  8
0
 10
720.33402905947173
 20
530.85368124077502
 30
0.0
 40
1.5
 50
270.0
 51
0.0
  0
LINE
  5
4D56
  8
0
 10
721.83402905947173
 20
531.85368124077513
 30
0.0
 11
721.83402905947173
 21
530.85368124077502
 31
0.0
  0
ARC
  5
4D57
  8
0
 10
718.03402905947155
 20
531.85368124077513
 30
0.0
 40
1.5
 50
90.0
 51
180.0
  0
ARC
  5
4D58
  8
0
 10
718.03402905947155
 20
530.85368124077502
 30
0.0
 40
1.5
 50
180.0
 51
270.0
  0
LINE
  5
4D59
  8
0
 10
718.03402905947155
 20
533.35368124077513
 30
0.0
 11
720.33402905947173
 21
533.35368124077513
 31
0.0
  0
LINE
  5
4D5A
  8
0
 10
718.03402905947155
 20
529.35368124077513
 30
0.0
 11
720.33402905947173
 21
529.35368124077513
 31
0.0
  0
LINE
  5
4D5B
  8
0
 10
716.53402905947155
 20
531.85368124077513
 30
0.0
 11
716.53402905947155
 21
530.85368124077502
 31
0.0
  0
LINE
  5
4D5D
  8
0
 10
841.58402905947173
 20
521.35368124077513
 30
0.0
 11
843.18402905947175
 21
521.87542024077493
 31
0.0
  0
LINE
  5
4D5E
  8
0
 10
843.18402905947175
 20
521.87542024077493
 30
0.0
 11
843.18402905947175
 21
540.83194224077431
 31
0.0
  0
LINE
  5
4D5F
  8
0
 10
839.78402905947144
 20
537.35368124077513
 30
0.0
 11
841.58402905947173
 21
537.35368124077513
 31
0.0
  0
LINE
  5
4D60
  8
0
 10
839.78402905947144
 20
537.35368124077513
 30
0.0
 11
841.58402905947173
 21
536.62868124077465
 31
0.0
  0
LINE
  5
4D61
  8
0
 10
839.78402905947144
 20
537.35368124077513
 30
0.0
 11
841.58402905947173
 21
538.07868124077459
 31
0.0
  0
LINE
  5
4D62
  8
0
 10
843.18402905947175
 20
535.84367024077483
 30
0.0
 11
841.58402905947173
 21
535.84367024077483
 31
0.0
  0
LINE
  5
4D63
  8
0
 10
843.18402905947175
 20
539.85368124077513
 30
0.0
 11
841.58402905947173
 21
539.85368124077513
 31
0.0
  0
LINE
  5
4D64
  8
0
 10
841.58402905947173
 20
541.35368124077513
 30
0.0
 11
843.18402905947175
 21
540.83194224077431
 31
0.0
  0
LINE
  5
4D65
  8
0
 10
839.78402905947144
 20
525.35368124077513
 30
0.0
 11
841.58402905947173
 21
525.35368124077513
 31
0.0
  0
LINE
  5
4D66
  8
0
 10
839.78402905947144
 20
525.35368124077513
 30
0.0
 11
841.58402905947173
 21
524.62868124077465
 31
0.0
  0
LINE
  5
4D67
  8
0
 10
839.78402905947144
 20
525.35368124077513
 30
0.0
 11
841.58402905947173
 21
526.07868124077447
 31
0.0
  0
LINE
  5
4D68
  8
0
 10
843.18402905947175
 20
526.86369224077453
 30
0.0
 11
841.58402905947173
 21
526.86369224077453
 31
0.0
  0
LINE
  5
4D69
  8
0
 10
843.18402905947175
 20
522.85368124077513
 30
0.0
 11
841.58402905947173
 21
522.85368124077513
 31
0.0
  0
LINE
  5
4D6A
  8
0
 10
841.58402905947173
 20
518.9304632407742
 30
0.0
 11
841.58402905947173
 21
543.77689924077504
 31
0.0
  0
CIRCLE
  5
4D6B
  8
0
 10
150.8840290594714
 20
531.35368124077513
 30
0.0
 40
4.75
  0
LINE
  5
4D6C
  8
0
 10
162.3840290594714
 20
530.20368124077447
 30
0.0
 11
162.3840290594714
 21
532.50368124077477
 31
0.0
  0
LINE
  5
4D6D
  8
0
 10
158.3840290594714
 20
530.20368124077447
 30
0.0
 11
158.3840290594714
 21
532.50368124077477
 31
0.0
  0
LINE
  5
4D6E
  8
0
 10
159.8840290594714
 20
528.70368124077459
 30
0.0
 11
160.8840290594714
 21
528.70368124077459
 31
0.0
  0
ARC
  5
4D6F
  8
0
 10
160.8840290594714
 20
530.20368124077447
 30
0.0
 40
1.5
 50
270.0
 51
0.0
  0
ARC
  5
4D70
  8
0
 10
159.8840290594714
 20
530.20368124077447
 30
0.0
 40
1.5
 50
180.0
 51
270.0
  0
LINE
  5
4D71
  8
0
 10
159.8840290594714
 20
534.00368124077465
 30
0.0
 11
160.8840290594714
 21
534.00368124077465
 31
0.0
  0
ARC
  5
4D72
  8
0
 10
160.8840290594714
 20
532.50368124077477
 30
0.0
 40
1.5
 50
0.0
 51
90.0
  0
ARC
  5
4D74
  8
0
 10
159.8840290594714
 20
532.50368124077477
 30
0.0
 40
1.5
 50
90.0
 51
180.0
  0
LINE
  5
4D78
  8
2
 10
134.98402905947131
 20
541.16768124077453
 30
0.0
 11
841.58402905947173
 21
541.16768124077453
 31
0.0
  0
LINE
  5
4D79
  8
0
 10
134.98402905947131
 20
543.77689924077504
 30
0.0
 11
841.58402905947173
 21
543.77689924077504
 31
0.0
  0
LINE
  5
4D7A
  8
2
 10
134.98402905947131
 20
521.53968124077483
 30
0.0
 11
841.58402905947173
 21
521.53968124077483
 31
0.0
  0
LINE
  5
4D7B
  8
0
 10
134.98402905947131
 20
518.9304632407742
 30
0.0
 11
841.58402905947173
 21
518.9304632407742
 31
0.0
  0
LINE
  5
4D7C
  8
0
 10
260.83402905947167
 20
529.35368124077513
 30
0.0
 11
263.13402905947152
 21
529.35368124077513
 31
0.0
  0
LINE
  5
4D7D
  8
0
 10
260.83402905947167
 20
533.35368124077513
 30
0.0
 11
263.13402905947152
 21
533.35368124077513
 31
0.0
  0
LINE
  5
4D7F
  8
0
 10
264.6340290594714
 20
530.85368124077502
 30
0.0
 11
264.6340290594714
 21
531.85368124077513
 31
0.0
  0
ARC
  5
4D80
  8
0
 10
260.83402905947167
 20
530.85368124077502
 30
0.0
 40
1.5
 50
180.0
 51
270.0
  0
ARC
  5
4D81
  8
0
 10
260.83402905947167
 20
531.85368124077513
 30
0.0
 40
1.5
 50
90.0
 51
180.0
  0
LINE
  5
4D82
  8
0
 10
259.33402905947167
 20
530.85368124077502
 30
0.0
 11
259.33402905947167
 21
531.85368124077513
 31
0.0
  0
ARC
  5
4D83
  8
0
 10
263.13402905947152
 20
530.85368124077502
 30
0.0
 40
1.5
 50
270.0
 51
0.0
  0
ARC
  5
4D85
  8
0
 10
263.13402905947152
 20
531.85368124077513
 30
0.0
 40
1.5
 50
0.0
 51
90.0
  0
ARC
  5
4D88
  8
0
 10
491.73402905947131
 20
531.85368124077513
 30
0.0
 40
1.5
 50
0.0
 51
90.0
  0
LINE
  5
4D8A
  8
0
 10
493.23402905947131
 20
531.85368124077513
 30
0.0
 11
493.23402905947131
 21
530.85368124077502
 31
0.0
  0
ARC
  5
4D8B
  8
0
 10
489.43402905947158
 20
531.85368124077513
 30
0.0
 40
1.5
 50
90.0
 51
180.0
  0
ARC
  5
4D8C
  8
0
 10
489.43402905947158
 20
530.85368124077502
 30
0.0
 40
1.5
 50
180.0
 51
270.0
  0
LINE
  5
4D8D
  8
0
 10
487.93402905947158
 20
531.85368124077513
 30
0.0
 11
487.93402905947158
 21
530.85368124077502
 31
0.0
  0
LINE
  5
4D8E
  8
0
 10
489.43402905947158
 20
533.35368124077513
 30
0.0
 11
491.73402905947131
 21
533.35368124077513
 31
0.0
  0
LINE
  5
4D8F
  8
0
 10
489.43402905947158
 20
529.35368124077513
 30
0.0
 11
491.73402905947131
 21
529.35368124077513
 31
0.0
  0
ARC
  5
4D90
  8
0
 10
491.73402905947131
 20
530.85368124077502
 30
0.0
 40
1.5
 50
270.0
 51
0.0
  0
ARC
  5
4D92
  8
0
 10
768.83402905947116
 20
530.85368124077502
 30
0.0
 40
1.5
 50
180.0
 51
270.0
  0
ARC
  5
4D93
  8
0
 10
768.83402905947116
 20
531.85368124077513
 30
0.0
 40
1.5
 50
90.0
 51
180.0
  0
LINE
  5
4D94
  8
0
 10
767.33402905947128
 20
530.85368124077502
 30
0.0
 11
767.33402905947128
 21
531.85368124077513
 31
0.0
  0
ARC
  5
4D95
  8
0
 10
771.13402905947135
 20
530.85368124077502
 30
0.0
 40
1.5
 50
270.0
 51
0.0
  0
ARC
  5
4D96
  8
0
 10
771.13402905947135
 20
531.85368124077513
 30
0.0
 40
1.5
 50
0.0
 51
90.0
  0
LINE
  5
4D97
  8
0
 10
772.63402905947135
 20
530.85368124077502
 30
0.0
 11
772.63402905947135
 21
531.85368124077513
 31
0.0
  0
LINE
  5
4D98
  8
0
 10
771.13402905947135
 20
529.35368124077513
 30
0.0
 11
768.83402905947116
 21
529.35368124077513
 31
0.0
  0
LINE
  5
4D99
  8
0
 10
771.13402905947135
 20
533.35368124077513
 30
0.0
 11
768.83402905947116
 21
533.35368124077513
 31
0.0
  0
ARC
  5
4D9B
  8
0
 10
683.13402905947135
 20
530.85368124077502
 30
0.0
 40
1.5
 50
180.0
 51
270.0
  0
ARC
  5
4D9C
  8
0
 10
683.13402905947135
 20
531.85368124077513
 30
0.0
 40
1.5
 50
90.0
 51
180.0
  0
LINE
  5
4D9D
  8
0
 10
681.63402905947135
 20
530.85368124077502
 30
0.0
 11
681.63402905947135
 21
531.85368124077513
 31
0.0
  0
ARC
  5
4D9E
  8
0
 10
685.43402905947164
 20
530.85368124077502
 30
0.0
 40
1.5
 50
270.0
 51
0.0
  0
ARC
  5
4D9F
  8
0
 10
685.43402905947164
 20
531.85368124077513
 30
0.0
 40
1.5
 50
0.0
 51
90.0
  0
LINE
  5
4DA0
  8
0
 10
686.93402905947164
 20
530.85368124077502
 30
0.0
 11
686.93402905947164
 21
531.85368124077513
 31
0.0
  0
LINE
  5
4DA1
  8
0
 10
685.43402905947164
 20
529.35368124077513
 30
0.0
 11
683.13402905947135
 21
529.35368124077513
 31
0.0
  0
LINE
  5
4DA2
  8
0
 10
685.43402905947164
 20
533.35368124077513
 30
0.0
 11
683.13402905947135
 21
533.35368124077513
 31
0.0
  0
ARC
  5
4DA3
  8
0
 10
671.08402905947116
 20
532.50368124077477
 30
0.0
 40
1.5
 50
90.0
 51
180.0
  0
ARC
  5
4DA4
  8
0
 10
672.08402905947116
 20
532.50368124077477
 30
0.0
 40
1.5
 50
0.0
 51
90.0
  0
LINE
  5
4DA5
  8
0
 10
671.08402905947116
 20
534.00368124077465
 30
0.0
 11
672.08402905947116
 21
534.00368124077465
 31
0.0
  0
ARC
  5
4DA6
  8
0
 10
671.08402905947116
 20
530.20368124077447
 30
0.0
 40
1.5
 50
180.0
 51
270.0
  0
ARC
  5
4DA7
  8
0
 10
672.08402905947116
 20
530.20368124077447
 30
0.0
 40
1.5
 50
270.0
 51
0.0
  0
LINE
  5
4DA8
  8
0
 10
671.08402905947116
 20
528.70368124077459
 30
0.0
 11
672.08402905947116
 21
528.70368124077459
 31
0.0
  0
LINE
  5
4DA9
  8
0
 10
669.58402905947128
 20
530.20368124077447
 30
0.0
 11
669.58402905947128
 21
532.50368124077477
 31
0.0
  0
LINE
  5
4DAA
  8
0
 10
673.58402905947128
 20
530.20368124077447
 30
0.0
 11
673.58402905947128
 21
532.50368124077477
 31
0.0
  0
ARC
  5
4DAB
  8
0
 10
658.38402905947135
 20
532.50368124077477
 30
0.0
 40
1.5
 50
90.0
 51
180.0
  0
ARC
  5
4DAC
  8
0
 10
659.38402905947135
 20
532.50368124077477
 30
0.0
 40
1.5
 50
0.0
 51
90.0
  0
LINE
  5
4DAD
  8
0
 10
658.38402905947135
 20
534.00368124077465
 30
0.0
 11
659.38402905947135
 21
534.00368124077465
 31
0.0
  0
ARC
  5
4DAE
  8
0
 10
658.38402905947135
 20
530.20368124077447
 30
0.0
 40
1.5
 50
180.0
 51
270.0
  0
ARC
  5
4DAF
  8
0
 10
659.38402905947135
 20
530.20368124077447
 30
0.0
 40
1.5
 50
270.0
 51
0.0
  0
LINE
  5
4DB0
  8
0
 10
658.38402905947135
 20
528.70368124077459
 30
0.0
 11
659.38402905947135
 21
528.70368124077459
 31
0.0
  0
LINE
  5
4DB1
  8
0
 10
656.88402905947135
 20
530.20368124077447
 30
0.0
 11
656.88402905947135
 21
532.50368124077477
 31
0.0
  0
LINE
  5
4DB2
  8
0
 10
660.88402905947135
 20
530.20368124077447
 30
0.0
 11
660.88402905947135
 21
532.50368124077477
 31
0.0
  0
LINE
  5
4DC1
  8
0
 10
999.73402905947125
 20
533.35368124077513
 30
0.0
 11
997.43402905947164
 21
533.35368124077513
 31
0.0
  0
LINE
  5
4DC2
  8
0
 10
999.73402905947125
 20
529.35368124077513
 30
0.0
 11
997.43402905947164
 21
529.35368124077513
 31
0.0
  0
LINE
  5
4DC3
  8
0
 10
1001.234029059471
 20
530.85368124077502
 30
0.0
 11
1001.234029059471
 21
531.85368124077513
 31
0.0
  0
ARC
  5
4DC4
  8
0
 10
999.73402905947125
 20
531.85368124077513
 30
0.0
 40
1.5
 50
0.0
 51
90.0
  0
ARC
  5
4DC5
  8
0
 10
999.73402905947125
 20
530.85368124077502
 30
0.0
 40
1.5
 50
270.0
 51
0.0
  0
LINE
  5
4DC6
  8
0
 10
995.93402905947175
 20
530.85368124077502
 30
0.0
 11
995.93402905947175
 21
531.85368124077513
 31
0.0
  0
ARC
  5
4DC7
  8
0
 10
997.43402905947164
 20
531.85368124077513
 30
0.0
 40
1.5
 50
90.0
 51
180.0
  0
ARC
  5
4DC8
  8
0
 10
997.43402905947164
 20
530.85368124077502
 30
0.0
 40
1.5
 50
180.0
 51
270.0
  0
LINE
  5
4DD0
  8
0
 10
1215.634029059471
 20
533.35368124077513
 30
0.0
 11
1213.334029059471
 21
533.35368124077513
 31
0.0
  0
LINE
  5
4DD1
  8
0
 10
1215.634029059471
 20
529.35368124077513
 30
0.0
 11
1213.334029059471
 21
529.35368124077513
 31
0.0
  0
LINE
  5
4DD2
  8
0
 10
1217.134029059471
 20
530.85368124077502
 30
0.0
 11
1217.134029059471
 21
531.85368124077513
 31
0.0
  0
ARC
  5
4DD3
  8
0
 10
1215.634029059471
 20
531.85368124077513
 30
0.0
 40
1.5
 50
0.0
 51
90.0
  0
ARC
  5
4DD4
  8
0
 10
1215.634029059471
 20
530.85368124077502
 30
0.0
 40
1.5
 50
270.0
 51
0.0
  0
LINE
  5
4DD5
  8
0
 10
1211.834029059471
 20
530.85368124077502
 30
0.0
 11
1211.834029059471
 21
531.85368124077513
 31
0.0
  0
ARC
  5
4DD6
  8
0
 10
1213.334029059471
 20
531.85368124077513
 30
0.0
 40
1.5
 50
90.0
 51
180.0
  0
ARC
  5
4DD7
  8
0
 10
1213.334029059471
 20
530.85368124077502
 30
0.0
 40
1.5
 50
180.0
 51
270.0
  0
LINE
  5
4E1B
  8
0
 10
642.98402905947137
 20
518.9304632407742
 30
0.0
 11
642.98402905947137
 21
513.68868124077414
 31
0.0
  0
LINE
  5
4E1C
  8
0
 10
642.98402905947137
 20
518.9304632407742
 30
0.0
 11
642.98402905947137
 21
513.68868124077414
 31
0.0
  0
LINE
  5
4E1D
  8
0
 10
642.98402905947137
 20
518.9304632407742
 30
0.0
 11
642.98402905947137
 21
513.68868124077414
 31
0.0
  0
LINE
  5
4E1E
  8
0
 10
642.98402905947137
 20
518.9304632407742
 30
0.0
 11
642.98402905947137
 21
513.68868124077414
 31
0.0
  0
LINE
  5
4E1F
  8
0
 10
642.98402905947137
 20
518.9304632407742
 30
0.0
 11
642.98402905947137
 21
513.68868124077414
 31
0.0
  0
LINE
  5
4E20
  8
0
 10
642.98402905947137
 20
518.9304632407742
 30
0.0
 11
642.98402905947137
 21
513.68868124077414
 31
0.0
  0
LINE
  5
4E26
  8
0
 10
1099.184029059471
 20
540.30368124077495
 30
0.0
 11
1099.184029059471
 21
536.50368124077477
 31
0.0
  0
LINE
  5
4E27
  8
0
 10
1101.1840290594721
 20
540.30368124077495
 30
0.0
 11
1101.1840290594721
 21
536.50368124077477
 31
0.0
  0
LINE
  5
4E28
  8
0
 10
1099.184029059471
 20
526.20368124077447
 30
0.0
 11
1105.584029059471
 21
526.20368124077447
 31
0.0
  0
LINE
  5
4E29
  8
0
 10
1099.184029059471
 20
522.4036812407744
 30
0.0
 11
1105.584029059471
 21
522.4036812407744
 31
0.0
  0
LINE
  5
4E2A
  8
0
 10
1099.184029059471
 20
536.50368124077477
 30
0.0
 11
1105.584029059471
 21
536.50368124077477
 31
0.0
  0
LINE
  5
4E2B
  8
0
 10
1101.1840290594721
 20
526.20368124077447
 30
0.0
 11
1101.1840290594721
 21
522.4036812407744
 31
0.0
  0
LINE
  5
4E2C
  8
0
 10
1099.184029059471
 20
526.20368124077447
 30
0.0
 11
1099.184029059471
 21
522.4036812407744
 31
0.0
  0
POINT
  5
4E2D
  8
0
 10
1099.184029059471
 20
522.4036812407744
 30
0.0
  0
LINE
  5
4E2E
  8
0
 10
1099.184029059471
 20
540.30368124077495
 30
0.0
 11
1105.584029059471
 21
540.30368124077495
 31
0.0
  0
POINT
  5
4E2F
  8
0
 10
1099.184029059471
 20
540.30368124077495
 30
0.0
  0
LINE
  5
4E35
  8
0
 10
642.98402905947137
 20
549.01868124077509
 30
0.0
 11
642.98402905947137
 21
543.77689924077504
 31
0.0
  0
LINE
  5
4E36
  8
0
 10
642.98402905947137
 20
549.01868124077509
 30
0.0
 11
642.98402905947137
 21
543.77689924077504
 31
0.0
  0
LINE
  5
4E37
  8
0
 10
642.98402905947137
 20
549.01868124077509
 30
0.0
 11
642.98402905947137
 21
543.77689924077504
 31
0.0
  0
LINE
  5
4E38
  8
0
 10
642.98402905947137
 20
549.01868124077509
 30
0.0
 11
642.98402905947137
 21
543.77689924077504
 31
0.0
  0
LINE
  5
4E39
  8
0
 10
642.98402905947137
 20
549.01868124077509
 30
0.0
 11
642.98402905947137
 21
543.77689924077504
 31
0.0
  0
LINE
  5
4E3A
  8
0
 10
642.98402905947137
 20
549.01868124077509
 30
0.0
 11
642.98402905947137
 21
543.77689924077504
 31
0.0
  0
LINE
  5
4E4E
  8
0
 10
1354.184029059471
 20
549.01868124077509
 30
0.0
 11
1354.184029059471
 21
513.68868124077414
 31
0.0
  0
LINE
  5
4E4F
  8
0
 10
1354.184029059471
 20
549.01868124077509
 30
0.0
 11
1354.184029059471
 21
513.68868124077414
 31
0.0
  0
LINE
  5
4E50
  8
0
 10
1354.184029059471
 20
549.01868124077509
 30
0.0
 11
1354.184029059471
 21
513.68868124077414
 31
0.0
  0
LINE
  5
4E51
  8
0
 10
1354.184029059471
 20
549.01868124077509
 30
0.0
 11
1354.184029059471
 21
513.68868124077414
 31
0.0
  0
LINE
  5
4E52
  8
0
 10
1354.184029059471
 20
549.01868124077509
 30
0.0
 11
1354.184029059471
 21
513.68868124077414
 31
0.0
  0
LINE
  5
4E5A
  8
0
 10
1327.584029059472
 20
530.20368124077447
 30
0.0
 11
1327.584029059472
 21
532.50368124077477
 31
0.0
  0
LINE
  5
4E5B
  8
0
 10
1323.584029059472
 20
530.20368124077447
 30
0.0
 11
1323.584029059472
 21
532.50368124077477
 31
0.0
  0
LINE
  5
4E5C
  8
0
 10
1325.084029059472
 20
528.70368124077459
 30
0.0
 11
1326.084029059472
 21
528.70368124077459
 31
0.0
  0
ARC
  5
4E5D
  8
0
 10
1326.084029059472
 20
530.20368124077447
 30
0.0
 40
1.5
 50
270.0
 51
0.0
  0
ARC
  5
4E5E
  8
0
 10
1325.084029059472
 20
530.20368124077447
 30
0.0
 40
1.5
 50
180.0
 51
270.0
  0
LINE
  5
4E5F
  8
0
 10
1325.084029059472
 20
534.00368124077465
 30
0.0
 11
1326.084029059472
 21
534.00368124077465
 31
0.0
  0
ARC
  5
4E60
  8
0
 10
1326.084029059472
 20
532.50368124077477
 30
0.0
 40
1.5
 50
0.0
 51
90.0
  0
ARC
  5
4E61
  8
0
 10
1325.084029059472
 20
532.50368124077477
 30
0.0
 40
1.5
 50
90.0
 51
180.0
  0
LINE
  5
4E62
  8
0
 10
1340.284029059472
 20
530.20368124077447
 30
0.0
 11
1340.284029059472
 21
532.50368124077477
 31
0.0
  0
LINE
  5
4E63
  8
0
 10
1336.284029059472
 20
530.20368124077447
 30
0.0
 11
1336.284029059472
 21
532.50368124077477
 31
0.0
  0
LINE
  5
4E64
  8
0
 10
1337.784029059472
 20
528.70368124077459
 30
0.0
 11
1338.784029059472
 21
528.70368124077459
 31
0.0
  0
ARC
  5
4E65
  8
0
 10
1338.784029059472
 20
530.20368124077447
 30
0.0
 40
1.5
 50
270.0
 51
0.0
  0
ARC
  5
4E66
  8
0
 10
1337.784029059472
 20
530.20368124077447
 30
0.0
 40
1.5
 50
180.0
 51
270.0
  0
LINE
  5
4E67
  8
0
 10
1337.784029059472
 20
534.00368124077465
 30
0.0
 11
1338.784029059472
 21
534.00368124077465
 31
0.0
  0
ARC
  5
4E68
  8
0
 10
1338.784029059472
 20
532.50368124077477
 30
0.0
 40
1.5
 50
0.0
 51
90.0
  0
ARC
  5
4E69
  8
0
 10
1337.784029059472
 20
532.50368124077477
 30
0.0
 40
1.5
 50
90.0
 51
180.0
  0
LINE
  5
4E6A
  8
0
 10
1354.184029059471
 20
549.01868124077509
 30
0.0
 11
1354.184029059471
 21
513.68868124077414
 31
0.0
  0
LINE
  5
4E6B
  8
0
 10
1354.184029059471
 20
549.01868124077509
 30
0.0
 11
1354.184029059471
 21
513.68868124077414
 31
0.0
  0
LINE
  5
4E6C
  8
0
 10
1354.184029059471
 20
549.01868124077509
 30
0.0
 11
1354.184029059471
 21
513.68868124077414
 31
0.0
  0
LINE
  5
4E6D
  8
0
 10
1354.184029059471
 20
549.01868124077509
 30
0.0
 11
1354.184029059471
 21
513.68868124077414
 31
0.0
  0
LINE
  5
4E6E
  8
0
 10
1354.184029059471
 20
549.01868124077509
 30
0.0
 11
1354.184029059471
 21
513.68868124077414
 31
0.0
  0
LINE
  5
5033
  8
1
 10
150.8840290594714
 20
539.10368124077513
 30
0.0
 11
150.8840290594714
 21
523.60368124077513
 31
0.0
  0
LINE
  5
5037
  8
1
 10
160.3840290594714
 20
537.00368124077465
 30
0.0
 11
160.3840290594714
 21
525.70368124077447
 31
0.0
  0
LINE
  5
503A
  8
1
 10
261.9840290594716
 20
536.35368124077513
 30
0.0
 11
261.9840290594716
 21
526.35368124077513
 31
0.0
  0
LINE
  5
503D
  8
1
 10
490.58402905947139
 20
536.35368124077513
 30
0.0
 11
490.58402905947139
 21
526.35368124077513
 31
0.0
  0
LINE
  5
5042
  8
1
 10
658.88402905947135
 20
537.00368124077465
 30
0.0
 11
658.88402905947135
 21
525.70368124077447
 31
0.0
  0
LINE
  5
5043
  8
1
 10
684.28402905947155
 20
536.35368124077513
 30
0.0
 11
684.28402905947155
 21
526.35368124077513
 31
0.0
  0
LINE
  5
5044
  8
1
 10
671.58402905947116
 20
537.00368124077465
 30
0.0
 11
671.58402905947116
 21
525.70368124077447
 31
0.0
  0
LINE
  5
5045
  8
1
 10
719.18402905947164
 20
536.35368124077513
 30
0.0
 11
719.18402905947164
 21
526.35368124077513
 31
0.0
  0
LINE
  5
5046
  8
1
 10
769.98402905947125
 20
536.35368124077513
 30
0.0
 11
769.98402905947125
 21
526.35368124077513
 31
0.0
  0
LINE
  5
5049
  8
1
 10
820.78402905947155
 20
537.00368124077465
 30
0.0
 11
820.78402905947155
 21
525.70368124077447
 31
0.0
  0
LINE
  5
504E
  8
1
 10
1325.584029059472
 20
537.00368124077465
 30
0.0
 11
1325.584029059472
 21
525.70368124077447
 31
0.0
  0
LINE
  5
504F
  8
1
 10
1338.284029059472
 20
537.00368124077465
 30
0.0
 11
1338.284029059472
 21
525.70368124077447
 31
0.0
  0
LINE
  5
5052
  8
1
 10
1214.4840290594709
 20
536.35368124077513
 30
0.0
 11
1214.4840290594709
 21
526.35368124077513
 31
0.0
  0
LINE
  5
5055
  8
1
 10
998.5840290594715
 20
536.35368124077513
 30
0.0
 11
998.5840290594715
 21
526.35368124077513
 31
0.0
  0
TEXT
  5
5117
  8
0
 62
     3
 10
0.0
 20
0.0
 30
0.0
 40
10.0
  1
RS35S-28
  7
STANDARD1
  0
ENDSEC
  0
EOF
