  0
SECTION
  2
HEADER
  9
$ACADVER
  1
AC1009
  9
$INSBASE
 10
0.0
 20
0.0
 30
0.0
  9
$EXTMIN
 10
0.0
 20
-2.960436562073669
 30
0.0
  9
$EXTMAX
 10
192.29943999257421
 20
185.95461072177
 30
3.5
  9
$LIMMIN
 10
0.0
 20
0.0
  9
$LIMMAX
 10
390.0
 20
270.0
  9
$ORTHOMODE
 70
     1
  9
$REGENMODE
 70
     1
  9
$FILLMODE
 70
     1
  9
$QTEXTMODE
 70
     0
  9
$MIRRTEXT
 70
     1
  9
$DRAGMODE
 70
     2
  9
$LTSCALE
 40
5.0
  9
$OSMODE
 70
    55
  9
$ATTMODE
 70
     1
  9
$TEXTSIZE
 40
2.5
  9
$TRACEWID
 40
1.0
  9
$TEXTSTYLE
  7
STANDARD
  9
$CLAYER
  8
4
  9
$CELTYPE
  6
BYLAYER
  9
$CECOLOR
 62
   256
  9
$DIMSCALE
 40
1.0
  9
$DIMASZ
 40
3.0
  9
$DIMEXO
 40
1.0
  9
$DIMDLI
 40
6.0
  9
$DIMRND
 40
0.0
  9
$DIMDLE
 40
0.0
  9
$DIMEXE
 40
1.0
  9
$DIMTP
 40
495.0
  9
$DIMTM
 40
0.0
  9
$DIMTXT
 40
2.5
  9
$DIMCEN
 40
0.0
  9
$DIMTSZ
 40
0.0
  9
$DIMTOL
 70
     0
  9
$DIMLIM
 70
     0
  9
$DIMTIH
 70
     0
  9
$DIMTOH
 70
     0
  9
$DIMSE1
 70
     0
  9
$DIMSE2
 70
     0
  9
$DIMTAD
 70
     1
  9
$DIMZIN
 70
     8
  9
$DIMBLK
  1

  9
$DIMASO
 70
     0
  9
$DIMSHO
 70
     1
  9
$DIMPOST
  1

  9
$DIMAPOST
  1

  9
$DIMALT
 70
     0
  9
$DIMALTD
 70
     2
  9
$DIMALTF
 40
25.399999999999999
  9
$DIMLFAC
 40
1.0
  9
$DIMTOFL
 70
     1
  9
$DIMTVP
 40
0.0
  9
$DIMTIX
 70
     1
  9
$DIMSOXD
 70
     0
  9
$DIMSAH
 70
     0
  9
$DIMBLK1
  1

  9
$DIMBLK2
  1

  9
$DIMSTYLE
  2
ITM
  9
$DIMCLRD
 70
   256
  9
$DIMCLRE
 70
   256
  9
$DIMCLRT
 70
   256
  9
$DIMTFAC
 40
1.0
  9
$DIMGAP
 40
1.0
  9
$LUNITS
 70
     2
  9
$LUPREC
 70
     2
  9
$SKETCHINC
 40
1.0
  9
$FILLETRAD
 40
0.4
  9
$AUNITS
 70
     0
  9
$AUPREC
 70
     0
  9
$MENU
  1
.
  9
$ELEVATION
 40
0.0
  9
$PELEVATION
 40
0.0
  9
$THICKNESS
 40
0.0
  9
$LIMCHECK
 70
     0
  9
$BLIPMODE
 70
     0
  9
$CHAMFERA
 40
1.1999999999999991
  9
$CHAMFERB
 40
1.1999999999999991
  9
$SKPOLY
 70
     0
  9
$TDCREATE
 40
2453354.0921258219
  9
$TDUPDATE
 40
2456598.6059539351
  9
$TDINDWG
 40
513.54919690969996
  9
$TDUSRTIMER
 40
513.54891893520005
  9
$USRTIMER
 70
     1
  9
$ANGBASE
 50
0.0
  9
$ANGDIR
 70
     0
  9
$PDMODE
 70
     0
  9
$PDSIZE
 40
0.0
  9
$PLINEWID
 40
0.0
  9
$COORDS
 70
     1
  9
$SPLFRAME
 70
     0
  9
$SPLINETYPE
 70
     6
  9
$SPLINESEGS
 70
     8
  9
$ATTDIA
 70
     0
  9
$ATTREQ
 70
     1
  9
$HANDLING
 70
     1
  9
$HANDSEED
  5
40E
  9
$SURFTAB1
 70
     6
  9
$SURFTAB2
 70
     6
  9
$SURFTYPE
 70
     6
  9
$SURFU
 70
     6
  9
$SURFV
 70
     6
  9
$UCSNAME
  2

  9
$UCSORG
 10
0.0
 20
0.0
 30
0.0
  9
$UCSXDIR
 10
1.0
 20
0.0
 30
0.0
  9
$UCSYDIR
 10
0.0
 20
1.0
 30
0.0
  9
$PUCSNAME
  2

  9
$PUCSORG
 10
0.0
 20
0.0
 30
0.0
  9
$PUCSXDIR
 10
1.0
 20
0.0
 30
0.0
  9
$PUCSYDIR
 10
0.0
 20
1.0
 30
0.0
  9
$USERI1
 70
     4
  9
$USERI2
 70
     1
  9
$USERI3
 70
     1
  9
$USERI4
 70
     0
  9
$USERI5
 70
     0
  9
$USERR1
 40
1.0
  9
$USERR2
 40
3.0
  9
$USERR3
 40
3.2000000000000002
  9
$USERR4
 40
3.0
  9
$USERR5
 40
10.0
  9
$WORLDVIEW
 70
     1
  9
$SHADEDGE
 70
     3
  9
$SHADEDIF
 70
    70
  9
$TILEMODE
 70
     1
  9
$MAXACTVP
 70
    16
  9
$PLIMCHECK
 70
     0
  9
$PEXTMIN
 10
0.0
 20
0.0
 30
0.0
  9
$PEXTMAX
 10
0.0
 20
0.0
 30
0.0
  9
$PLIMMIN
 10
0.0
 20
0.0
  9
$PLIMMAX
 10
12.0
 20
9.0
  9
$UNITMODE
 70
     0
  9
$VISRETAIN
 70
     0
  9
$PLINEGEN
 70
     0
  9
$PSLTSCALE
 70
     1
  0
ENDSEC
  0
SECTION
  2
TABLES
  0
TABLE
  2
VPORT
 70
     1
  0
VPORT
  2
*ACTIVE
 70
     0
 10
0.0
 20
0.0
 11
1.0
 21
1.0
 12
194.99404952627839
 22
194.785247995265
 13
0.0
 23
0.0
 14
5.0
 24
5.0
 15
10.0
 25
10.0
 16
0.0
 26
0.0
 36
1.0
 17
0.0
 27
0.0
 37
0.0
 40
399.3463374158577
 41
1.7807262569832401
 42
50.0
 43
0.0
 44
0.0
 50
0.0
 51
0.0
 71
    16
 72
   500
 73
     1
 74
     1
 75
     0
 76
     0
 77
     0
 78
     1
  0
ENDTAB
  0
TABLE
  2
LTYPE
 70
     4
  0
LTYPE
  2
CONTINUOUS
 70
     0
  3
Solid line
 72
    65
 73
     0
 40
0.0
  0
LTYPE
  2
CENTER
 70
     0
  3
____ _ ____ _ ____ _ ____ _ ____ _ ____ _ ____
 72
    65
 73
     4
 40
2.0
 49
1.25
 49
-0.25
 49
0.25
 49
-0.25
  0
LTYPE
  2
HIDDEN
 70
     0
  3
_ _ _ _ _ _ _ _ _ _ _ _ _ _ _ _ _ _ _ _ _ _ _
 72
    65
 73
     2
 40
0.375
 49
0.25
 49
-0.125
  0
LTYPE
  2
PHANTOM2
 70
     0
  3
___ _ _ ___ _ _ ___ _ _ ___ _ _
 72
    65
 73
     6
 40
1.25
 49
0.625
 49
-0.125
 49
0.125
 49
-0.125
 49
0.125
 49
-0.125
  0
ENDTAB
  0
TABLE
  2
LAYER
 70
     6
  0
LAYER
  2
0
 70
     0
 62
     7
  6
CONTINUOUS
  0
LAYER
  2
1
 70
     0
 62
     1
  6
CENTER
  0
LAYER
  2
WAKU
 70
     0
 62
     5
  6
CONTINUOUS
  0
LAYER
  2
4
 70
     0
 62
     4
  6
CONTINUOUS
  0
LAYER
  2
3
 70
     0
 62
     3
  6
CONTINUOUS
  0
LAYER
  2
2
 70
     0
 62
     2
  6
HIDDEN
  0
ENDTAB
  0
TABLE
  2
STYLE
 70
     3
  0
STYLE
  2
STANDARD
 70
     0
 40
0.0
 41
1.0
 50
0.0
 71
     0
 42
2.5
  3
ROMANS
  4
EXTFONT
  0
STYLE
  2
K
 70
     0
 40
0.0
 41
0.75
 50
0.0
 71
     0
 42
3.2000000000000002
  3
ROMANS.shx
  4
EXTFONT.shx
  0
STYLE
  2
STANDARD1
 70
     0
 40
0.0
 41
1.0
 50
0.0
 71
     0
 42
3.0
  3
txt
  4

  0
ENDTAB
  0
TABLE
  2
VIEW
 70
     0
  0
ENDTAB
  0
TABLE
  2
UCS
 70
     0
  0
ENDTAB
  0
TABLE
  2
APPID
 70
     3
  0
APPID
  2
ACAD
 70
     0
  0
APPID
  2
ACAD_MLEADERVER
 70
     0
  0
APPID
  2
ACAD_NAV_VCDISPLAY
 70
     0
  0
ENDTAB
  0
TABLE
  2
DIMSTYLE
 70
     2
  0
DIMSTYLE
  2
ITM
 70
     0
  3

  4

  5

  6

  7

 40
0.0
 41
2.5
 42
1.0
 43
6.0
 44
1.0
 45
0.0
 46
0.0
 47
495.0
 48
0.0
140
3.0
141
0.0
142
0.0
143
25.399999999999999
144
1.0
145
0.0
146
1.0
147
1.0
 71
     0
 72
     0
 73
     0
 74
     0
 75
     0
 76
     0
 77
     3
 78
     8
170
     0
171
     2
172
     1
173
     0
174
     0
175
     0
176
     0
177
     0
178
     0
  0
DIMSTYLE
  2
STANDARD
 70
     0
  3

  4

  5

  6

  7

 40
1.0
 41
0.18
 42
0.0625
 43
0.38
 44
0.18
 45
0.0
 46
0.0
 47
0.0
 48
0.0
140
0.18
141
0.09
142
0.0
143
25.399999999999999
144
1.0
145
0.0
146
1.0
147
0.09
 71
     0
 72
     0
 73
     1
 74
     1
 75
     0
 76
     0
 77
     0
 78
     0
170
     0
171
     2
172
     0
173
     0
174
     0
175
     0
176
     0
177
     0
178
     0
  0
ENDTAB
  0
ENDSEC
  0
SECTION
  2
BLOCKS
  0
BLOCK
  8
0
  2
$MODEL_SPACE
 70
     0
 10
0.0
 20
0.0
 30
0.0
  3
$MODEL_SPACE
  1

  0
ENDBLK
  5
12
  8
0
  0
BLOCK
 67
     1
  8
0
  2
$PAPER_SPACE
 70
     0
 10
0.0
 20
0.0
 30
0.0
  3
$PAPER_SPACE
  1

  0
ENDBLK
  5
19
 67
     1
  8
0
  0
BLOCK
  8
0
  2
ARROW1
 70
     0
 10
0.0
 20
0.0
 30
0.0
  3
ARROW1
  1

  0
SOLID
  5
4B
  8
WAKU
  6
CONTINUOUS
 62
     4
 10
-1.0
 20
0.1666666666666714
 30
0.0
 11
-1.0
 21
-0.1666666666666714
 31
0.0
 12
0.0
 22
0.0
 32
0.0
 13
0.0
 23
0.0
 33
0.0
  0
ENDBLK
  5
4D
  8
0
  0
ENDSEC
  0
SECTION
  2
ENTITIES
  0
POINT
  5
74
  8
0
 10
181.49559784071579
 20
109.4504372912405
 30
0.0
210
-0.0000000000000003
220
-1.0
230
0.0
  0
POINT
  5
75
  8
0
 10
181.49559784071579
 20
112.9504372912405
 30
0.0
210
0.0000000000000003
220
1.0
230
0.0
  0
POINT
  5
76
  8
0
 10
181.49559784071579
 20
109.4504372912405
 30
0.0
210
1.0
220
-0.0000000000000003
230
0.0
  0
POINT
  5
77
  8
0
 10
181.49559784071579
 20
109.4504372912405
 30
0.0
210
1.0
220
-0.0000000000000003
230
0.0
  0
POINT
  5
78
  8
0
 10
181.49559784071579
 20
109.4504372912405
 30
0.0
210
-1.0
220
0.0000000000000003
230
0.0
  0
LINE
  5
79
  8
0
 10
176.02070587147421
 20
100.9514372912405
 30
0.0
 11
185.64559784071639
 21
100.9514372912405
 31
0.0
  0
LINE
  5
7A
  8
0
 10
178.56686091159429
 20
100.1494372912405
 30
0.0
 11
176.02070587147421
 21
100.1494372912405
 31
0.0
  0
LINE
  5
7B
  8
0
 10
177.9707088407159
 20
100.9514372912405
 30
0.0
 11
177.9707088407159
 21
100.1494372912405
 31
0.0
  0
LINE
  5
7C
  8
0
 10
178.7207104556135
 20
100.1494372912405
 30
0.0
 11
178.7207104556135
 21
100.9514372912405
 31
0.0
  0
LINE
  5
7D
  8
0
 10
176.7707068407158
 20
100.9514372912405
 30
0.0
 11
176.7707068407158
 21
100.1494372912405
 31
0.0
  0
LINE
  5
7E
  8
0
 10
176.02070587147421
 20
100.9514372912405
 30
0.0
 11
176.02070587147421
 21
100.1494372912405
 31
0.0
  0
LINE
  5
7F
  8
0
 10
176.02070587147421
 20
100.1494372912405
 30
0.0
 11
185.64559784071639
 21
100.1494372912405
 31
0.0
  0
LINE
  5
80
  8
0
 10
176.11400804955241
 20
100.9514372912405
 30
0.0
 11
176.11400804955241
 21
100.1494372912405
 31
0.0
  0
LINE
  5
81
  8
0
 10
177.60773798248479
 20
100.9514372912405
 30
0.0
 11
177.60773798248479
 21
100.1494372912405
 31
0.0
  0
LINE
  5
82
  8
0
 10
184.49559784071579
 20
99.200437291240533
 30
0.0
 11
178.49559784071579
 21
99.200437291240533
 31
0.0
  0
LINE
  5
83
  8
0
 10
176.02070587147421
 20
118.75143729124051
 30
0.0
 11
185.64559784071639
 21
118.75143729124051
 31
0.0
  0
LINE
  5
84
  8
0
 10
178.56686091159429
 20
117.9494372912404
 30
0.0
 11
176.02070587147421
 21
117.9494372912404
 31
0.0
  0
LINE
  5
85
  8
0
 10
177.9707088407159
 20
118.75143729124051
 30
0.0
 11
177.9707088407159
 21
117.9494372912404
 31
0.0
  0
LINE
  5
86
  8
0
 10
178.7207104556135
 20
117.9494372912404
 30
0.0
 11
178.7207104556135
 21
118.75143729124051
 31
0.0
  0
LINE
  5
87
  8
0
 10
176.7707068407158
 20
118.75143729124051
 30
0.0
 11
176.7707068407158
 21
117.9494372912404
 31
0.0
  0
LINE
  5
88
  8
0
 10
176.02070587147421
 20
118.75143729124051
 30
0.0
 11
176.02070587147421
 21
117.9494372912404
 31
0.0
  0
LINE
  5
89
  8
0
 10
176.02070587147421
 20
117.9494372912404
 30
0.0
 11
185.64559784071639
 21
117.9494372912404
 31
0.0
  0
LINE
  5
8A
  8
0
 10
176.11400804955241
 20
118.75143729124051
 30
0.0
 11
176.11400804955241
 21
117.9494372912404
 31
0.0
  0
LINE
  5
8B
  8
0
 10
177.60773798248479
 20
118.75143729124051
 30
0.0
 11
177.60773798248479
 21
117.9494372912404
 31
0.0
  0
LINE
  5
8C
  8
0
 10
183.74559784071579
 20
120.4504372912405
 30
0.0
 11
179.24559784071579
 21
120.4504372912405
 31
0.0
  0
LINE
  5
8D
  8
0
 10
184.49559784071579
 20
119.7004372912405
 30
0.0
 11
178.49559784071579
 21
119.7004372912405
 31
0.0
  0
LINE
  5
8E
  8
0
 10
183.74559784071579
 20
98.450437291240519
 30
0.0
 11
179.24559784071579
 21
98.450437291240519
 31
0.0
  0
LINE
  5
8F
  8
0
 10
185.64559784071639
 20
100.1494372912405
 30
0.0
 11
185.64559784071639
 21
100.9514372912405
 31
0.0
  0
LINE
  5
90
  8
0
 10
184.49559784071579
 20
99.200437291240533
 30
0.0
 11
184.49559784071579
 21
100.1494372912405
 31
0.0
  0
LINE
  5
91
  8
0
 10
178.49559784071579
 20
100.1494372912405
 30
0.0
 11
178.49559784071579
 21
99.200437291240533
 31
0.0
  0
LINE
  5
92
  8
0
 10
185.64559784071639
 20
117.9494372912404
 30
0.0
 11
185.64559784071639
 21
118.75143729124051
 31
0.0
  0
LINE
  5
93
  8
0
 10
184.49559784071579
 20
112.9504372912405
 30
0.0
 11
184.49559784071579
 21
117.9494372912404
 31
0.0
  0
LINE
  5
94
  8
2
 10
184.49559784071579
 20
105.9504372912405
 30
0.0
 11
184.49559784071579
 21
112.9504372912405
 31
0.0
  0
LINE
  5
97
  8
0
 10
184.49559784071579
 20
100.9514372912405
 30
0.0
 11
184.49559784071579
 21
105.9504372912405
 31
0.0
  0
LINE
  5
98
  8
0
 10
178.49559784071579
 20
105.9504372912405
 30
0.0
 11
178.49559784071579
 21
100.9514372912405
 31
0.0
  0
LINE
  5
99
  8
2
 10
178.49559784071579
 20
112.9504372912405
 30
0.0
 11
178.49559784071579
 21
105.9504372912405
 31
0.0
  0
LINE
  5
9A
  8
0
 10
178.49559784071579
 20
117.9494372912404
 30
0.0
 11
178.49559784071579
 21
112.9504372912405
 31
0.0
  0
LINE
  5
9B
  8
0
 10
184.49559784071579
 20
119.7004372912405
 30
0.0
 11
183.74559784071579
 21
120.4504372912405
 31
0.0
  0
LINE
  5
9C
  8
0
 10
179.24559784071579
 20
120.4504372912405
 30
0.0
 11
178.49559784071579
 21
119.7004372912405
 31
0.0
  0
LINE
  5
9D
  8
0
 10
184.49559784071579
 20
118.75143729124051
 30
0.0
 11
184.49559784071579
 21
119.7004372912405
 31
0.0
  0
LINE
  5
9E
  8
0
 10
178.49559784071579
 20
119.7004372912405
 30
0.0
 11
178.49559784071579
 21
118.75143729124051
 31
0.0
  0
LINE
  5
9F
  8
0
 10
178.64559784071591
 20
118.75143729124051
 30
0.0
 11
178.64559784071591
 21
117.9494372912405
 31
0.0
  0
LINE
  5
A0
  8
0
 10
178.64559784071591
 20
100.9514372912405
 30
0.0
 11
178.64559784071591
 21
100.1494372912405
 31
0.0
  0
LINE
  5
A1
  8
0
 10
183.74559784071579
 20
98.450437291240519
 30
0.0
 11
184.49559784071579
 21
99.200437291240533
 31
0.0
  0
LINE
  5
A2
  8
0
 10
178.49559784071579
 20
99.200437291240533
 30
0.0
 11
179.24559784071579
 21
98.450437291240519
 31
0.0
  0
LINE
  5
A3
  8
1
 10
181.49559784071579
 20
95.787541307642655
 30
0.0
 11
181.49559784071579
 21
123.1133332748384
 31
0.0
  0
LINE
  5
A6
  8
1
 10
192.29943999257421
 20
109.4504372912405
 30
0.0
 11
107.9937620354758
 21
109.4504372912405
 31
0.0
  0
LINE
  5
A7
  8
0
 10
184.49559784071579
 20
105.9504372912405
 30
0.0
 11
178.49559784071579
 21
105.9504372912405
 31
0.0
  0
LINE
  5
A8
  8
0
 10
184.49559784071579
 20
112.9504372912405
 30
0.0
 11
178.49559784071579
 21
112.9504372912405
 31
0.0
  0
LINE
  5
A9
  8
0
 10
176.09587332983671
 20
105.9504372912405
 30
0.0
 11
187.5577756672069
 21
105.9504372912405
 31
0.0
  0
POLYLINE
  5
AA
  8
0
 66
     1
 10
0.0
 20
0.0
 30
0.0
  0
VERTEX
  5
290
  8
0
 10
174.94680813958101
 20
105.9504372912405
 30
0.0
  0
VERTEX
  5
291
  8
0
 10
174.94685471038059
 20
105.9504372912405
 30
0.0
  0
VERTEX
  5
292
  8
0
 10
174.9472269190434
 20
105.9504372912405
 30
0.0
  0
VERTEX
  5
293
  8
0
 10
174.94797024240731
 20
105.9504372912405
 30
0.0
  0
VERTEX
  5
294
  8
0
 10
174.9484806244038
 20
105.9504372912405
 30
0.0
  0
VERTEX
  5
295
  8
0
 10
174.94908320339221
 20
105.9504372912405
 30
0.0
  0
VERTEX
  5
296
  8
0
 10
174.9505639680647
 20
105.9504372912405
 30
0.0
  0
VERTEX
  5
297
  8
0
 10
174.9524103428372
 20
105.9504372912405
 30
0.0
  0
VERTEX
  5
298
  8
0
 10
174.9546197752087
 20
105.9504372912405
 30
0.0
  0
VERTEX
  5
299
  8
0
 10
174.95718935788841
 20
105.9504372912405
 30
0.0
  0
VERTEX
  5
29A
  8
0
 10
174.96011583609061
 20
105.9504372912405
 30
0.0
  0
VERTEX
  5
29B
  8
0
 10
174.9617118013301
 20
105.9504372912405
 30
0.0
  0
VERTEX
  5
29C
  8
0
 10
174.9633956177382
 20
105.9504372912405
 30
0.0
  0
VERTEX
  5
29D
  8
0
 10
174.96702478627631
 20
105.9504372912405
 30
0.0
  0
VERTEX
  5
29E
  8
0
 10
174.97099911576589
 20
105.9504372912405
 30
0.0
  0
VERTEX
  5
29F
  8
0
 10
174.97531408791389
 20
105.9504372912405
 30
0.0
  0
VERTEX
  5
2A0
  8
0
 10
174.9799649106788
 20
105.9504372912405
 30
0.0
  0
VERTEX
  5
2A1
  8
0
 10
174.98494653810181
 20
105.9504372912405
 30
0.0
  0
VERTEX
  5
2A2
  8
0
 10
174.98755976235
 20
105.9504372912405
 30
0.0
  0
VERTEX
  5
2A3
  8
0
 10
174.9902536910113
 20
105.9504372912405
 30
0.0
  0
VERTEX
  5
2A4
  8
0
 10
174.99588087827431
 20
105.9504372912405
 30
0.0
  0
VERTEX
  5
2A5
  8
0
 10
175.0018224182808
 20
105.9504372912405
 30
0.0
  0
VERTEX
  5
2A6
  8
0
 10
175.00490924825661
 20
105.9504372912405
 30
0.0
  0
VERTEX
  5
2A7
  8
0
 10
175.02500758836931
 20
105.9504372912405
 30
0.0
  0
VERTEX
  5
2A8
  8
0
 10
175.07277845924281
 20
105.9504372912405
 30
0.0
  0
VERTEX
  5
2A9
  8
0
 10
175.1294696951999
 20
105.9504372912405
 30
0.0
  0
VERTEX
  5
2AA
  8
0
 10
175.1936385447186
 20
105.9504372912405
 30
0.0
  0
VERTEX
  5
2AB
  8
0
 10
175.26387276772709
 20
105.9504372912405
 30
0.0
  0
VERTEX
  5
2AC
  8
0
 10
175.33882947201261
 20
105.9504372912405
 30
0.0
  0
VERTEX
  5
2AD
  8
0
 10
175.37768653938599
 20
105.9504372912405
 30
0.0
  0
VERTEX
  5
2AE
  8
0
 10
175.4172671845896
 20
105.9504372912405
 30
0.0
  0
VERTEX
  5
2AF
  8
0
 10
175.4980509271827
 20
105.9504372912405
 30
0.0
  0
VERTEX
  5
2B0
  8
0
 10
175.5801494448159
 20
105.9504372912405
 30
0.0
  0
VERTEX
  5
2B1
  8
0
 10
175.86527821797321
 20
105.9504372912405
 30
0.0
  0
VERTEX
  5
2B2
  8
0
 10
176.09587332983671
 20
105.9504372912405
 30
0.0
  0
SEQEND
  5
2B3
  8
0
  0
POLYLINE
  5
AB
  8
0
 66
     1
 10
0.0
 20
0.0
 30
0.0
  0
VERTEX
  5
2B4
  8
0
 10
176.09587332983671
 20
105.9504372912405
 30
0.0
  0
VERTEX
  5
2B5
  8
0
 10
175.86527821797321
 20
105.9504372912405
 30
0.0
  0
VERTEX
  5
2B6
  8
0
 10
175.5801494448159
 20
105.9504372912405
 30
0.0
  0
VERTEX
  5
2B7
  8
0
 10
175.4980509271827
 20
105.9504372912405
 30
0.0
  0
VERTEX
  5
2B8
  8
0
 10
175.4172671845896
 20
105.9504372912405
 30
0.0
  0
VERTEX
  5
2B9
  8
0
 10
175.37768653938599
 20
105.9504372912405
 30
0.0
  0
VERTEX
  5
2BA
  8
0
 10
175.33882947201261
 20
105.9504372912405
 30
0.0
  0
VERTEX
  5
2BB
  8
0
 10
175.26387276772709
 20
105.9504372912405
 30
0.0
  0
VERTEX
  5
2BC
  8
0
 10
175.1936385447186
 20
105.9504372912405
 30
0.0
  0
VERTEX
  5
2BD
  8
0
 10
175.1294696951999
 20
105.9504372912405
 30
0.0
  0
VERTEX
  5
2BE
  8
0
 10
175.07277845924281
 20
105.9504372912405
 30
0.0
  0
VERTEX
  5
2BF
  8
0
 10
175.02500758836931
 20
105.9504372912405
 30
0.0
  0
VERTEX
  5
2C0
  8
0
 10
175.00490924825661
 20
105.9504372912405
 30
0.0
  0
VERTEX
  5
2C1
  8
0
 10
175.0018224182808
 20
105.9504372912405
 30
0.0
  0
VERTEX
  5
2C2
  8
0
 10
174.99588087827431
 20
105.9504372912405
 30
0.0
  0
VERTEX
  5
2C3
  8
0
 10
174.9902536910113
 20
105.9504372912405
 30
0.0
  0
VERTEX
  5
2C4
  8
0
 10
174.98755976235
 20
105.9504372912405
 30
0.0
  0
VERTEX
  5
2C5
  8
0
 10
174.98494653810181
 20
105.9504372912405
 30
0.0
  0
VERTEX
  5
2C6
  8
0
 10
174.9799649106788
 20
105.9504372912405
 30
0.0
  0
VERTEX
  5
2C7
  8
0
 10
174.97531408791389
 20
105.9504372912405
 30
0.0
  0
VERTEX
  5
2C8
  8
0
 10
174.97099911576589
 20
105.9504372912405
 30
0.0
  0
VERTEX
  5
2C9
  8
0
 10
174.96702478627631
 20
105.9504372912405
 30
0.0
  0
VERTEX
  5
2CA
  8
0
 10
174.9633956177382
 20
105.9504372912405
 30
0.0
  0
VERTEX
  5
2CB
  8
0
 10
174.9617118013301
 20
105.9504372912405
 30
0.0
  0
VERTEX
  5
2CC
  8
0
 10
174.96011583609061
 20
105.9504372912405
 30
0.0
  0
VERTEX
  5
2CD
  8
0
 10
174.95718935788841
 20
105.9504372912405
 30
0.0
  0
VERTEX
  5
2CE
  8
0
 10
174.95461977520861
 20
105.9504372912405
 30
0.0
  0
VERTEX
  5
2CF
  8
0
 10
174.9524103428372
 20
105.9504372912405
 30
0.0
  0
VERTEX
  5
2D0
  8
0
 10
174.9505639680647
 20
105.9504372912405
 30
0.0
  0
VERTEX
  5
2D1
  8
0
 10
174.94908320339221
 20
105.9504372912405
 30
0.0
  0
VERTEX
  5
2D2
  8
0
 10
174.9484806244038
 20
105.9504372912405
 30
0.0
  0
VERTEX
  5
2D3
  8
0
 10
174.94797024240731
 20
105.9504372912405
 30
0.0
  0
VERTEX
  5
2D4
  8
0
 10
174.9472269190434
 20
105.9504372912405
 30
0.0
  0
VERTEX
  5
2D5
  8
0
 10
174.94685471038059
 20
105.9504372912405
 30
0.0
  0
VERTEX
  5
2D6
  8
0
 10
174.94680813958101
 20
105.9504372912405
 30
0.0
  0
SEQEND
  5
2D7
  8
0
  0
LINE
  5
AC
  8
0
 10
176.0958733298371
 20
112.9504372912405
 30
0.0
 11
176.0958733298371
 21
105.9504372912405
 31
0.0
  0
POLYLINE
  5
AD
  8
0
 66
     1
 10
0.0
 20
0.0
 30
0.0
  0
VERTEX
  5
2D8
  8
0
 10
174.94680813958101
 20
112.9504372912405
 30
0.0
  0
VERTEX
  5
2D9
  8
0
 10
174.94685471038059
 20
112.9504372912405
 30
0.0
  0
VERTEX
  5
2DA
  8
0
 10
174.9472269190434
 20
112.9504372912405
 30
0.0
  0
VERTEX
  5
2DB
  8
0
 10
174.94797024240731
 20
112.9504372912405
 30
0.0
  0
VERTEX
  5
2DC
  8
0
 10
174.9484806244038
 20
112.9504372912405
 30
0.0
  0
VERTEX
  5
2DD
  8
0
 10
174.94908320339221
 20
112.9504372912405
 30
0.0
  0
VERTEX
  5
2DE
  8
0
 10
174.9505639680647
 20
112.9504372912405
 30
0.0
  0
VERTEX
  5
2DF
  8
0
 10
174.9524103428372
 20
112.9504372912405
 30
0.0
  0
VERTEX
  5
2E0
  8
0
 10
174.9546197752087
 20
112.9504372912405
 30
0.0
  0
VERTEX
  5
2E1
  8
0
 10
174.95718935788841
 20
112.9504372912405
 30
0.0
  0
VERTEX
  5
2E2
  8
0
 10
174.96011583609061
 20
112.9504372912405
 30
0.0
  0
VERTEX
  5
2E3
  8
0
 10
174.9617118013301
 20
112.9504372912405
 30
0.0
  0
VERTEX
  5
2E4
  8
0
 10
174.9633956177382
 20
112.9504372912405
 30
0.0
  0
VERTEX
  5
2E5
  8
0
 10
174.96702478627631
 20
112.9504372912405
 30
0.0
  0
VERTEX
  5
2E6
  8
0
 10
174.97099911576589
 20
112.9504372912405
 30
0.0
  0
VERTEX
  5
2E7
  8
0
 10
174.97531408791389
 20
112.9504372912405
 30
0.0
  0
VERTEX
  5
2E8
  8
0
 10
174.9799649106788
 20
112.9504372912405
 30
0.0
  0
VERTEX
  5
2E9
  8
0
 10
174.98494653810181
 20
112.9504372912405
 30
0.0
  0
VERTEX
  5
2EA
  8
0
 10
174.98755976235
 20
112.9504372912405
 30
0.0
  0
VERTEX
  5
2EB
  8
0
 10
174.9902536910113
 20
112.9504372912405
 30
0.0
  0
VERTEX
  5
2EC
  8
0
 10
174.99588087827431
 20
112.9504372912405
 30
0.0
  0
VERTEX
  5
2ED
  8
0
 10
175.0018224182808
 20
112.9504372912405
 30
0.0
  0
VERTEX
  5
2EE
  8
0
 10
175.00490924825661
 20
112.9504372912405
 30
0.0
  0
VERTEX
  5
2EF
  8
0
 10
175.02500758836931
 20
112.9504372912405
 30
0.0
  0
VERTEX
  5
2F0
  8
0
 10
175.07277845924281
 20
112.9504372912405
 30
0.0
  0
VERTEX
  5
2F1
  8
0
 10
175.1294696951999
 20
112.9504372912405
 30
0.0
  0
VERTEX
  5
2F2
  8
0
 10
175.1936385447186
 20
112.9504372912405
 30
0.0
  0
VERTEX
  5
2F3
  8
0
 10
175.26387276772709
 20
112.9504372912405
 30
0.0
  0
VERTEX
  5
2F4
  8
0
 10
175.33882947201261
 20
112.9504372912405
 30
0.0
  0
VERTEX
  5
2F5
  8
0
 10
175.37768653938599
 20
112.9504372912405
 30
0.0
  0
VERTEX
  5
2F6
  8
0
 10
175.4172671845896
 20
112.9504372912405
 30
0.0
  0
VERTEX
  5
2F7
  8
0
 10
175.4980509271827
 20
112.9504372912405
 30
0.0
  0
VERTEX
  5
2F8
  8
0
 10
175.5801494448159
 20
112.9504372912405
 30
0.0
  0
VERTEX
  5
2F9
  8
0
 10
175.86527821797321
 20
112.9504372912405
 30
0.0
  0
VERTEX
  5
2FA
  8
0
 10
176.09587332983671
 20
112.9504372912405
 30
0.0
  0
SEQEND
  5
2FB
  8
0
  0
POLYLINE
  5
AE
  8
0
 66
     1
 10
0.0
 20
0.0
 30
0.0
  0
VERTEX
  5
2FC
  8
0
 10
176.09587332983671
 20
112.9504372912405
 30
0.0
  0
VERTEX
  5
2FD
  8
0
 10
175.86527821797321
 20
112.9504372912405
 30
0.0
  0
VERTEX
  5
2FE
  8
0
 10
175.5801494448159
 20
112.9504372912405
 30
0.0
  0
VERTEX
  5
2FF
  8
0
 10
175.4980509271827
 20
112.9504372912405
 30
0.0
  0
VERTEX
  5
300
  8
0
 10
175.4172671845896
 20
112.9504372912405
 30
0.0
  0
VERTEX
  5
301
  8
0
 10
175.37768653938599
 20
112.9504372912405
 30
0.0
  0
VERTEX
  5
302
  8
0
 10
175.33882947201261
 20
112.9504372912405
 30
0.0
  0
VERTEX
  5
303
  8
0
 10
175.26387276772709
 20
112.9504372912405
 30
0.0
  0
VERTEX
  5
304
  8
0
 10
175.1936385447186
 20
112.9504372912405
 30
0.0
  0
VERTEX
  5
305
  8
0
 10
175.1294696951999
 20
112.9504372912405
 30
0.0
  0
VERTEX
  5
306
  8
0
 10
175.07277845924281
 20
112.9504372912405
 30
0.0
  0
VERTEX
  5
307
  8
0
 10
175.02500758836931
 20
112.9504372912405
 30
0.0
  0
VERTEX
  5
308
  8
0
 10
175.00490924825661
 20
112.9504372912405
 30
0.0
  0
VERTEX
  5
309
  8
0
 10
175.0018224182808
 20
112.9504372912405
 30
0.0
  0
VERTEX
  5
30A
  8
0
 10
174.99588087827431
 20
112.9504372912405
 30
0.0
  0
VERTEX
  5
30B
  8
0
 10
174.9902536910113
 20
112.9504372912405
 30
0.0
  0
VERTEX
  5
30C
  8
0
 10
174.98755976235
 20
112.9504372912405
 30
0.0
  0
VERTEX
  5
30D
  8
0
 10
174.98494653810181
 20
112.9504372912405
 30
0.0
  0
VERTEX
  5
30E
  8
0
 10
174.9799649106788
 20
112.9504372912405
 30
0.0
  0
VERTEX
  5
30F
  8
0
 10
174.97531408791389
 20
112.9504372912405
 30
0.0
  0
VERTEX
  5
310
  8
0
 10
174.97099911576589
 20
112.9504372912405
 30
0.0
  0
VERTEX
  5
311
  8
0
 10
174.96702478627631
 20
112.9504372912405
 30
0.0
  0
VERTEX
  5
312
  8
0
 10
174.9633956177382
 20
112.9504372912405
 30
0.0
  0
VERTEX
  5
313
  8
0
 10
174.9617118013301
 20
112.9504372912405
 30
0.0
  0
VERTEX
  5
314
  8
0
 10
174.96011583609061
 20
112.9504372912405
 30
0.0
  0
VERTEX
  5
315
  8
0
 10
174.95718935788841
 20
112.9504372912405
 30
0.0
  0
VERTEX
  5
316
  8
0
 10
174.95461977520861
 20
112.9504372912405
 30
0.0
  0
VERTEX
  5
317
  8
0
 10
174.9524103428372
 20
112.9504372912405
 30
0.0
  0
VERTEX
  5
318
  8
0
 10
174.9505639680647
 20
112.9504372912405
 30
0.0
  0
VERTEX
  5
319
  8
0
 10
174.94908320339221
 20
112.9504372912405
 30
0.0
  0
VERTEX
  5
31A
  8
0
 10
174.9484806244038
 20
112.9504372912405
 30
0.0
  0
VERTEX
  5
31B
  8
0
 10
174.94797024240731
 20
112.9504372912405
 30
0.0
  0
VERTEX
  5
31C
  8
0
 10
174.9472269190434
 20
112.9504372912405
 30
0.0
  0
VERTEX
  5
31D
  8
0
 10
174.94685471038059
 20
112.9504372912405
 30
0.0
  0
VERTEX
  5
31E
  8
0
 10
174.94680813958101
 20
112.9504372912405
 30
0.0
  0
SEQEND
  5
31F
  8
0
  0
LINE
  5
AF
  8
0
 10
173.01031646647729
 20
112.4504372912405
 30
0.0
 11
173.01031646647729
 21
106.4504372912405
 31
0.0
  0
LINE
  5
B0
  8
0
 10
176.09587332983671
 20
112.9504372912405
 30
0.0
 11
187.5577756672069
 21
112.9504372912405
 31
0.0
  0
LINE
  5
B1
  8
2
 10
184.49559784071579
 20
105.9504372912405
 30
0.0
 11
184.49559784071579
 21
112.9504372912405
 31
0.0
  0
LINE
  5
B2
  8
2
 10
178.49559784071579
 20
112.9504372912405
 30
0.0
 11
178.49559784071579
 21
105.9504372912405
 31
0.0
  0
ARC
  5
B3
  8
0
 10
173.01031646647721
 20
102.45043729124041
 30
0.0
 40
4.0000000000000284
 50
61.04497562814003
 51
90.0
  0
ARC
  5
B4
  8
0
 10
173.01031646647729
 20
116.4504372912406
 30
0.0
 40
4.0000000000000426
 50
270.0
 51
298.95502437185991
  0
ARC
  5
B5
  8
0
 10
181.49559784071579
 20
109.4504372912405
 30
0.0
 40
6.9999999999999973
 50
329.99999999999977
 51
30.000000000000131
  0
LINE
  5
B6
  8
0
 10
173.01031646647729
 20
112.4504372912405
 30
0.0
 11
137.49559784071579
 21
112.4504372912405
 31
0.0
  0
LINE
  5
B7
  8
0
 10
137.49559784071579
 20
106.4504372912405
 30
0.0
 11
173.01031646647729
 21
106.4504372912405
 31
0.0
  0
POINT
  5
B8
  8
0
 10
181.49559784071579
 20
48.946263860711042
 30
0.0
210
0.0
220
-0.0000000000000001
230
-1.0
  0
POINT
  5
B9
  8
0
 10
181.49559784071579
 20
48.946263860711042
 30
3.5
  0
POINT
  5
BA
  8
0
 10
181.49559784071579
 20
48.946263860711042
 30
0.0
210
1.0
220
-0.0000000000000003
230
0.0
  0
POINT
  5
BB
  8
0
 10
181.49559784071579
 20
48.946263860711042
 30
0.0
210
1.0
220
-0.0000000000000003
230
0.0
  0
POINT
  5
BC
  8
0
 10
181.49559784071579
 20
48.946263860711042
 30
0.0
210
-1.0
220
0.0000000000000003
230
0.0
  0
LINE
  5
BD
  8
0
 10
179.0440008520452
 20
49.596263860711041
 30
0.0
 11
175.6974148293865
 21
49.596263860711041
 31
0.0
  0
LINE
  5
BE
  8
0
 10
179.04400385204519
 20
48.296263860711043
 30
0.0
 11
175.69741182938651
 21
48.296263860711043
 31
0.0
  0
LINE
  5
BF
  8
0
 10
178.56686091159429
 20
49.596263860711041
 30
0.0
 11
178.7207104556135
 21
49.596263860711041
 31
0.0
  0
LINE
  5
C0
  8
0
 10
177.97070584071591
 20
49.596263860711041
 30
0.0
 11
178.56686091159429
 21
49.596263860711041
 31
0.0
  0
LINE
  5
C1
  8
0
 10
178.56686091159429
 20
48.296263860711043
 30
0.0
 11
177.9707088407159
 21
48.296263860711043
 31
0.0
  0
ARC
  5
C2
  8
0
 10
177.3707078407158
 20
48.296263860711043
 30
0.0
 40
0.6000009999999998
 50
180.0
 51
0.0
  0
LINE
  5
C3
  8
0
 10
176.7707068407158
 20
48.296263860711043
 30
0.0
 11
176.02070587147421
 21
48.296263860711043
 31
0.0
  0
ARC
  5
C4
  8
0
 10
181.6063823766145
 20
48.946375195323157
 30
0.0
 40
5.623382146668332
 50
186.63872937217141
 51
192.3917947369267
  0
ARC
  5
C5
  8
0
 10
177.5656180547947
 20
48.058599760927223
 30
0.0
 40
1.486242854680659
 50
192.3932102243518
 51
271.62397231249298
  0
ARC
  5
C6
  8
0
 10
177.64984535181139
 20
45.08726715714544
 30
0.0
 40
1.486283289871672
 50
44.291555087769659
 51
91.623443803906426
  0
ARC
  5
C7
  8
0
 10
181.6055973140694
 20
48.946261745236001
 30
0.0
 40
4.0400005266470034
 50
224.29029681688689
 51
135.70969185006339
  0
ARC
  5
C8
  8
0
 10
177.6498867936611
 20
52.805168016238319
 30
0.0
 40
1.486191953684278
 50
268.37485262122721
 51
315.70979719740041
  0
ARC
  5
C9
  8
0
 10
177.5655878051021
 20
49.833972772938381
 30
0.0
 40
1.486198917866937
 50
88.374818478459943
 51
167.60803380070291
  0
ARC
  5
CA
  8
0
 10
181.60843668362151
 20
48.945860994618101
 30
0.0
 40
5.6254463830333501
 50
167.60974421459511
 51
173.36072832122909
  0
LINE
  5
CB
  8
0
 10
176.02071593897429
 20
49.596263860711041
 30
0.0
 11
176.77070984071591
 21
49.596263860711041
 31
0.0
  0
ARC
  5
CC
  8
0
 10
177.3707078407158
 20
49.596263860711041
 30
0.0
 40
0.5999980000000003
 50
0.0
 51
180.0
  0
LINE
  5
CD
  8
0
 10
178.56686091159429
 20
48.296263860711043
 30
0.0
 11
178.7207104556135
 21
48.296263860711043
 31
0.0
  0
CIRCLE
  5
CE
  8
0
 10
181.49559784071579
 20
48.946263860711042
 30
0.0
 40
2.25
  0
CIRCLE
  5
CF
  8
0
 10
181.49559784071579
 20
48.946263860711042
 30
0.0
 40
3.0
  0
ARC
  5
D0
  8
0
 10
181.49559784071579
 20
48.946263860711042
 30
0.0
 40
2.849999999999977
 50
166.8165185137793
 51
193.18348148622059
  0
LINE
  5
D1
  8
1
 10
181.49559784071579
 20
38.864869622425658
 30
0.0
 11
181.4955978407159
 21
59.027658098996419
 31
0.0
  0
LINE
  5
D2
  8
1
 10
191.5769920790012
 20
48.946263860711063
 30
0.0
 11
107.9937620354758
 21
48.94626386071107
 31
0.0
  0
CIRCLE
  5
D3
  8
0
 10
181.49559784071579
 20
48.946263860711042
 30
0.0
 40
3.0
  0
POLYLINE
  5
D4
  8
0
 66
     1
 10
0.0
 20
0.0
 30
0.0
  0
VERTEX
  5
320
  8
0
 10
176.09587332983671
 20
51.701799236388808
 30
0.0
  0
VERTEX
  5
321
  8
0
 10
175.6213971348952
 20
50.819528700220467
 30
0.0
  0
VERTEX
  5
322
  8
0
 10
175.1500993163059
 20
49.872378921443492
 30
0.0
  0
VERTEX
  5
323
  8
0
 10
175.1294696951999
 20
49.820285860986473
 30
0.0
  0
VERTEX
  5
324
  8
0
 10
175.10967063036389
 20
49.768097932985647
 30
0.0
  0
VERTEX
  5
325
  8
0
 10
175.1000992696969
 20
49.741967722190253
 30
0.0
  0
VERTEX
  5
326
  8
0
 10
175.0907556403389
 20
49.715812991618179
 30
0.0
  0
VERTEX
  5
327
  8
0
 10
175.07277845924281
 20
49.663428952950419
 30
0.0
  0
VERTEX
  5
328
  8
0
 10
175.05579276176371
 20
49.610943920347609
 30
0.0
  0
VERTEX
  5
329
  8
0
 10
175.0398517710077
 20
49.55835607260704
 30
0.0
  0
VERTEX
  5
32A
  8
0
 10
175.02500758836931
 20
49.505662587295319
 30
0.0
  0
VERTEX
  5
32B
  8
0
 10
175.01131130037359
 20
49.45286121208477
 30
0.0
  0
VERTEX
  5
32C
  8
0
 10
175.00490924825661
 20
49.426419776586329
 30
0.0
  0
VERTEX
  5
32D
  8
0
 10
174.99881271613819
 20
49.39995121888154
 30
0.0
  0
VERTEX
  5
32E
  8
0
 10
174.98755976235
 20
49.346933458418192
 30
0.0
  0
VERTEX
  5
32F
  8
0
 10
174.97759782762961
 20
49.293810319397487
 30
0.0
  0
VERTEX
  5
330
  8
0
 10
174.96896908165459
 20
49.240585575750003
 30
0.0
  0
VERTEX
  5
331
  8
0
 10
174.9617118013301
 20
49.18726410530013
 30
0.0
  0
VERTEX
  5
332
  8
0
 10
174.95585974314571
 20
49.13385146878619
 30
0.0
  0
VERTEX
  5
333
  8
0
 10
174.95346985028391
 20
49.10711275187861
 30
0.0
  0
VERTEX
  5
334
  8
0
 10
174.95144160533999
 20
49.080353346331833
 30
0.0
  0
VERTEX
  5
335
  8
0
 10
174.9484806244038
 20
49.026774838713322
 30
0.0
  0
VERTEX
  5
336
  8
0
 10
174.94699434684551
 20
48.973119652241678
 30
0.0
  0
VERTEX
  5
337
  8
0
 10
174.94680813958101
 20
48.946263860711042
 30
0.0
  0
VERTEX
  5
338
  8
0
 10
174.94699434684551
 20
48.919408069180378
 30
0.0
  0
VERTEX
  5
339
  8
0
 10
174.9484806244038
 20
48.865752882708762
 30
0.0
  0
VERTEX
  5
33A
  8
0
 10
174.95144160533999
 20
48.812174375090251
 30
0.0
  0
VERTEX
  5
33B
  8
0
 10
174.95346985028391
 20
48.785414969543467
 30
0.0
  0
VERTEX
  5
33C
  8
0
 10
174.95585974314571
 20
48.758676252635887
 30
0.0
  0
VERTEX
  5
33D
  8
0
 10
174.9617118013301
 20
48.705263616121961
 30
0.0
  0
VERTEX
  5
33E
  8
0
 10
174.96896908165459
 20
48.651942145672081
 30
0.0
  0
VERTEX
  5
33F
  8
0
 10
174.97759782762961
 20
48.598717402024562
 30
0.0
  0
VERTEX
  5
340
  8
0
 10
174.98755976235
 20
48.545594263003892
 30
0.0
  0
VERTEX
  5
341
  8
0
 10
174.99881271613819
 20
48.492576502540537
 30
0.0
  0
VERTEX
  5
342
  8
0
 10
175.00490924825661
 20
48.466107944835748
 30
0.0
  0
VERTEX
  5
343
  8
0
 10
175.01131130037359
 20
48.439666509337307
 30
0.0
  0
VERTEX
  5
344
  8
0
 10
175.02500758836931
 20
48.386865134126758
 30
0.0
  0
VERTEX
  5
345
  8
0
 10
175.0398517710077
 20
48.334171648815037
 30
0.0
  0
VERTEX
  5
346
  8
0
 10
175.05579276176371
 20
48.281583801074468
 30
0.0
  0
VERTEX
  5
347
  8
0
 10
175.07277845924281
 20
48.229098768471658
 30
0.0
  0
VERTEX
  5
348
  8
0
 10
175.0907556403389
 20
48.176714729803898
 30
0.0
  0
VERTEX
  5
349
  8
0
 10
175.1000992696969
 20
48.150559999231831
 30
0.0
  0
VERTEX
  5
34A
  8
0
 10
175.10967063036389
 20
48.124429788436402
 30
0.0
  0
VERTEX
  5
34B
  8
0
 10
175.1294696951999
 20
48.072241860435611
 30
0.0
  0
VERTEX
  5
34C
  8
0
 10
175.1500993163059
 20
48.020148799978593
 30
0.0
  0
VERTEX
  5
34D
  8
0
 10
175.62139713489509
 20
47.072999021201611
 30
0.0
  0
VERTEX
  5
34E
  8
0
 10
176.09587332983671
 20
46.190728485033283
 30
0.0
  0
SEQEND
  5
34F
  8
0
  0
LINE
  5
D5
  8
0
 10
176.0958733298371
 20
46.190728485033283
 30
0.0
 11
176.0958733298373
 21
44.491718406165603
 31
0.0
  0
POLYLINE
  5
D6
  8
0
 66
     1
 10
0.0
 20
0.0
 30
0.0
  0
VERTEX
  5
350
  8
0
 10
176.09587332983671
 20
46.190728485033283
 30
0.0
  0
VERTEX
  5
351
  8
0
 10
175.62139713489509
 20
47.072999021201611
 30
0.0
  0
VERTEX
  5
352
  8
0
 10
175.1500993163059
 20
48.020148799978593
 30
0.0
  0
VERTEX
  5
353
  8
0
 10
175.1294696951999
 20
48.072241860435611
 30
0.0
  0
VERTEX
  5
354
  8
0
 10
175.10967063036389
 20
48.12442978843643
 30
0.0
  0
VERTEX
  5
355
  8
0
 10
175.1000992696969
 20
48.150559999231831
 30
0.0
  0
VERTEX
  5
356
  8
0
 10
175.0907556403389
 20
48.176714729803898
 30
0.0
  0
VERTEX
  5
357
  8
0
 10
175.07277845924281
 20
48.229098768471658
 30
0.0
  0
VERTEX
  5
358
  8
0
 10
175.05579276176371
 20
48.281583801074468
 30
0.0
  0
VERTEX
  5
359
  8
0
 10
175.0398517710077
 20
48.334171648815037
 30
0.0
  0
VERTEX
  5
35A
  8
0
 10
175.02500758836931
 20
48.386865134126758
 30
0.0
  0
VERTEX
  5
35B
  8
0
 10
175.01131130037359
 20
48.439666509337307
 30
0.0
  0
VERTEX
  5
35C
  8
0
 10
175.00490924825661
 20
48.466107944835748
 30
0.0
  0
VERTEX
  5
35D
  8
0
 10
174.99881271613819
 20
48.492576502540537
 30
0.0
  0
VERTEX
  5
35E
  8
0
 10
174.98755976235
 20
48.545594263003892
 30
0.0
  0
VERTEX
  5
35F
  8
0
 10
174.97759782762961
 20
48.59871740202459
 30
0.0
  0
VERTEX
  5
360
  8
0
 10
174.96896908165459
 20
48.651942145672081
 30
0.0
  0
VERTEX
  5
361
  8
0
 10
174.9617118013301
 20
48.705263616121961
 30
0.0
  0
VERTEX
  5
362
  8
0
 10
174.95585974314571
 20
48.758676252635887
 30
0.0
  0
VERTEX
  5
363
  8
0
 10
174.95346985028391
 20
48.785414969543467
 30
0.0
  0
VERTEX
  5
364
  8
0
 10
174.95144160533999
 20
48.812174375090251
 30
0.0
  0
VERTEX
  5
365
  8
0
 10
174.9484806244038
 20
48.865752882708762
 30
0.0
  0
VERTEX
  5
366
  8
0
 10
174.94699434684551
 20
48.919408069180399
 30
0.0
  0
VERTEX
  5
367
  8
0
 10
174.94680813958101
 20
48.946263860711042
 30
0.0
  0
VERTEX
  5
368
  8
0
 10
174.94699434684551
 20
48.973119652241706
 30
0.0
  0
VERTEX
  5
369
  8
0
 10
174.9484806244038
 20
49.026774838713322
 30
0.0
  0
VERTEX
  5
36A
  8
0
 10
174.95144160533999
 20
49.080353346331833
 30
0.0
  0
VERTEX
  5
36B
  8
0
 10
174.95346985028391
 20
49.10711275187861
 30
0.0
  0
VERTEX
  5
36C
  8
0
 10
174.95585974314571
 20
49.13385146878619
 30
0.0
  0
VERTEX
  5
36D
  8
0
 10
174.9617118013301
 20
49.18726410530013
 30
0.0
  0
VERTEX
  5
36E
  8
0
 10
174.96896908165459
 20
49.240585575750003
 30
0.0
  0
VERTEX
  5
36F
  8
0
 10
174.97759782762961
 20
49.293810319397522
 30
0.0
  0
VERTEX
  5
370
  8
0
 10
174.98755976235
 20
49.346933458418192
 30
0.0
  0
VERTEX
  5
371
  8
0
 10
174.99881271613819
 20
49.39995121888154
 30
0.0
  0
VERTEX
  5
372
  8
0
 10
175.00490924825661
 20
49.426419776586329
 30
0.0
  0
VERTEX
  5
373
  8
0
 10
175.01131130037359
 20
49.45286121208477
 30
0.0
  0
VERTEX
  5
374
  8
0
 10
175.02500758836931
 20
49.505662587295319
 30
0.0
  0
VERTEX
  5
375
  8
0
 10
175.0398517710077
 20
49.55835607260704
 30
0.0
  0
VERTEX
  5
376
  8
0
 10
175.05579276176371
 20
49.610943920347609
 30
0.0
  0
VERTEX
  5
377
  8
0
 10
175.07277845924281
 20
49.663428952950419
 30
0.0
  0
VERTEX
  5
378
  8
0
 10
175.0907556403389
 20
49.715812991618179
 30
0.0
  0
VERTEX
  5
379
  8
0
 10
175.1000992696969
 20
49.741967722190253
 30
0.0
  0
VERTEX
  5
37A
  8
0
 10
175.10967063036389
 20
49.768097932985683
 30
0.0
  0
VERTEX
  5
37B
  8
0
 10
175.1294696951999
 20
49.820285860986473
 30
0.0
  0
VERTEX
  5
37C
  8
0
 10
175.1500993163059
 20
49.872378921443492
 30
0.0
  0
VERTEX
  5
37D
  8
0
 10
175.6213971348952
 20
50.819528700220467
 30
0.0
  0
VERTEX
  5
37E
  8
0
 10
176.09587332983671
 20
51.701799236388808
 30
0.0
  0
SEQEND
  5
37F
  8
0
  0
LINE
  5
D7
  8
0
 10
176.09587332983639
 20
51.701799236388808
 30
0.0
 11
176.09587332983619
 21
53.400809315256481
 31
0.0
  0
LINE
  5
D8
  8
0
 10
173.01031646647689
 20
51.946263860711042
 30
0.0
 11
173.0103164664776
 21
45.946263860711042
 31
0.0
  0
ARC
  5
D9
  8
0
 10
181.49559784071579
 20
48.946263860711042
 30
0.0
 40
6.0621778264910686
 50
207.03569178941231
 51
152.96430821058769
  0
ARC
  5
DA
  8
0
 10
173.01031646647729
 20
41.946263860711042
 30
0.0
 40
4.0000000000000089
 50
39.521196358642143
 51
90.0
  0
ARC
  5
DB
  8
0
 10
173.01031646647729
 20
55.94626386071107
 30
0.0
 40
4.000000000000016
 50
270.0
 51
320.4788036413579
  0
ARC
  5
DC
  8
0
 10
181.49559784071579
 20
48.946263860711042
 30
0.0
 40
7.0
 50
219.52119635864219
 51
140.47880364135781
  0
LINE
  5
DD
  8
0
 10
173.01031646647729
 20
51.946263860711042
 30
0.0
 11
137.49559784071579
 21
51.94626386071107
 31
0.0
  0
LINE
  5
DE
  8
0
 10
137.49559784071579
 20
45.94626386071107
 30
0.0
 11
173.01031646647721
 21
45.946263860711042
 31
0.0
  0
ARC
  5
DF
  8
0
 10
51.049158019381679
 20
87.067695692915919
 30
0.0
 40
11.0
 50
84.165123546903203
 51
131.83487649934071
  0
ARC
  5
E0
  8
0
 10
24.736667184644659
 20
95.617142222069845
 30
0.0
 40
11.0
 50
12.165123546903009
 51
59.834876499340623
  0
ARC
  5
E1
  8
0
 10
24.73666718464472
 20
123.28373236041151
 30
0.0
 40
11.0
 50
300.1651235469032
 51
347.83487649934068
  0
ARC
  5
E2
  8
0
 10
51.049158019381728
 20
131.83317888956529
 30
0.0
 40
11.0
 50
228.16512354690289
 51
275.83487649934068
  0
ARC
  5
E3
  8
0
 10
67.31117168391927
 20
109.4504372912406
 30
0.0
 40
11.0
 50
156.1651235469032
 51
203.83487649934091
  0
ARC
  5
E4
  8
0
 10
40.377377480269899
 20
98.988815611993772
 30
0.0
 40
5.0
 50
192.165104944288
 51
311.83489312071129
  0
ARC
  5
E5
  8
0
 10
32.7765644183944
 20
109.4504372912405
 30
0.0
 40
5.0
 50
120.1650870538643
 51
239.8348877505459
  0
ARC
  5
E6
  8
0
 10
40.377377480269899
 20
119.91205897048719
 30
0.0
 40
5.0
 50
48.165135593921811
 51
167.83488700672049
  0
ARC
  5
E7
  8
0
 10
52.675751356518852
 20
115.91607506645769
 30
0.0
 40
5.0
 50
336.16510960475642
 51
95.834913102143787
  0
ARC
  5
E8
  8
0
 10
52.675751356518987
 20
102.9847995160231
 30
0.0
 40
5.0
 50
264.16509897617891
 51
23.834861830175051
  0
LINE
  5
E9
  8
1
 10
62.2765644183944
 20
109.4504372912405
 30
0.0
 11
25.2765644183944
 21
109.4504372912405
 31
0.0
  0
CIRCLE
  5
EA
  8
0
 10
43.7765644183944
 20
109.4504372912405
 30
0.0
 40
6.1999999999999877
  0
CIRCLE
  5
EB
  8
0
 10
43.7765644183944
 20
109.4504372912405
 30
0.0
 40
4.9999999999999707
  0
CIRCLE
  5
EC
  8
3
 10
43.7765644183944
 20
109.4504372912405
 30
0.0
 40
3.0
  0
CIRCLE
  5
EE
  8
0
 10
43.7765644183944
 20
109.4504372912405
 30
0.0
 40
2.458499999999999
  0
LINE
  5
EF
  8
1
 10
43.7765644183944
 20
90.950437291240547
 30
0.0
 11
43.7765644183944
 21
127.9504372912405
 31
0.0
  0
LINE
  5
F0
  8
0
 10
135.89559784071579
 20
103.4504372912405
 30
0.0
 11
137.49559784071579
 21
103.4504372912405
 31
0.0
  0
LINE
  5
F1
  8
0
 10
137.49559784071579
 20
115.4504372912405
 30
0.0
 11
137.49559784071579
 21
103.4504372912405
 31
0.0
  0
LINE
  5
F2
  8
0
 10
135.89559784071579
 20
115.4504372912405
 30
0.0
 11
137.49559784071579
 21
115.4504372912405
 31
0.0
  0
LINE
  5
F3
  8
0
 10
135.89559784071579
 20
54.94626386071107
 30
0.0
 11
137.49559784071579
 21
54.94626386071107
 31
0.0
  0
LINE
  5
F4
  8
0
 10
137.49559784071579
 20
54.94626386071107
 30
0.0
 11
137.49559784071579
 21
42.94626386071107
 31
0.0
  0
LINE
  5
F5
  8
0
 10
135.89559784071579
 20
42.94626386071107
 30
0.0
 11
137.49559784071579
 21
42.94626386071107
 31
0.0
  0
LINE
  5
F6
  8
3
 10
137.49559784071579
 20
111.8369372912406
 30
0.0
 11
149.49559784071579
 21
111.8369372912405
 31
0.0
  0
LINE
  5
F7
  8
3
 10
137.49559784071579
 20
107.06393729124051
 30
0.0
 11
149.49559784071579
 21
107.06393729124051
 31
0.0
  0
LINE
  5
F8
  8
0
 10
149.49559784071579
 20
112.4504372912405
 30
0.0
 11
149.49559784071579
 21
106.4504372912405
 31
0.0
  0
LINE
  5
F9
  8
0
 10
148.8820978407158
 20
51.946263860711063
 30
0.0
 11
148.8820978407158
 21
45.946263860711049
 31
0.0
  0
LINE
  5
FA
  8
3
 10
137.49559784071579
 20
46.559763860711023
 30
0.0
 11
148.8820978407158
 21
46.559763860711023
 31
0.0
  0
LINE
  5
FB
  8
3
 10
137.49559784071579
 20
51.33276386071109
 30
0.0
 11
148.8820978407158
 21
51.332763860711083
 31
0.0
  0
LINE
  5
FC
  8
0
 10
135.89559784071579
 20
115.4504372912405
 30
0.0
 11
135.89559784071579
 21
103.4504372912405
 31
0.0
  0
LINE
  5
FD
  8
0
 10
135.89559784071579
 20
54.94626386071107
 30
0.0
 11
135.89559784071579
 21
42.94626386071107
 31
0.0
  0
LINE
  5
FE
  8
0
 10
112.89559784071579
 20
102.7504372912405
 30
0.0
 11
112.89559784071579
 21
116.1504372912399
 31
0.0
  0
LINE
  5
FF
  8
0
 10
115.6408893243094
 20
93.988815611993715
 30
0.0
 11
123.5647259274518
 21
93.988815611993715
 31
0.0
  0
LINE
  5
100
  8
0
 10
115.6408893243095
 20
124.91205897048719
 30
0.0
 11
123.5647259274518
 21
124.91205897048719
 31
0.0
  0
LINE
  5
101
  8
0
 10
125.89559784071579
 20
116.9504372912405
 30
0.0
 11
134.79559784071591
 21
116.9504372912405
 31
0.0
  0
LINE
  5
102
  8
0
 10
134.7955978407158
 20
101.9504372912405
 30
0.0
 11
135.59559784071581
 21
102.7504372912405
 31
0.0
  0
LINE
  5
103
  8
0
 10
135.59559784071581
 20
116.15043729124049
 30
0.0
 11
134.7955978407158
 21
116.9504372912405
 31
0.0
  0
LINE
  5
104
  8
0
 10
135.59559784071581
 20
113.9504372912405
 30
0.0
 11
135.89559784071579
 21
113.9504372912405
 31
0.0
  0
LINE
  5
105
  8
0
 10
134.7955978407158
 20
116.9504372912405
 30
0.0
 11
134.7955978407158
 21
101.9504372912405
 31
0.0
  0
LINE
  5
106
  8
0
 10
135.59559784071581
 20
102.7504372912405
 30
0.0
 11
135.59559784071581
 21
116.15043729124049
 31
0.0
  0
LINE
  5
107
  8
0
 10
125.89559784071579
 20
99.95043729124049
 30
0.0
 11
125.89559784071579
 21
118.95043729124041
 31
0.0
  0
LINE
  5
108
  8
0
 10
125.89559784071579
 20
99.950437291240604
 30
0.0
 11
124.7339697095787
 21
94.918873066330121
 31
0.0
  0
LINE
  5
109
  8
0
 10
125.89559784071579
 20
118.95043729124041
 30
0.0
 11
124.7339700051941
 21
123.9820002356998
 31
0.0
  0
ARC
  5
10A
  8
0
 10
166.47833759896261
 20
109.45043729124031
 30
0.0
 40
54.0
 50
164.32939739594329
 51
172.8727121180055
  0
ARC
  5
10B
  8
0
 10
166.47833759896261
 20
109.45043729124031
 30
0.0
 40
54.0
 50
187.1272878819945
 51
195.6706018733573
  0
ARC
  5
10C
  8
0
 10
115.6408893243094
 20
95.188815611993704
 30
0.0
 40
1.1999999999999991
 50
195.6706026040566
 51
270.0
  0
ARC
  5
10D
  8
0
 10
123.5647259274518
 20
95.188815611993704
 30
0.0
 40
1.1999999999999991
 50
270.0
 51
346.99999999999937
  0
ARC
  5
10E
  8
0
 10
123.5647259274518
 20
123.71205897048711
 30
0.0
 40
1.1999999999999991
 50
13.000000000000631
 51
90.0
  0
ARC
  5
10F
  8
0
 10
115.6408893243095
 20
123.71205897048711
 30
0.0
 40
1.1999999999999991
 50
90.0
 51
164.32939739594329
  0
ARC
  5
110
  8
0
 10
131.3528076258807
 20
109.4504372912405
 30
0.0
 40
17.000000000000011
 50
166.32848165099591
 51
193.6715183490272
  0
ARC
  5
111
  8
0
 10
102.2028076258806
 20
116.5411001657537
 30
0.0
 40
13.0
 50
346.3284451796344
 51
13.671533431301921
  0
ARC
  5
112
  8
0
 10
131.35280762588059
 20
123.6317630402669
 30
0.0
 40
17.0
 50
180.2577190700222
 51
193.67153470536951
  0
ARC
  5
113
  8
0
 10
107.8528076258806
 20
123.6317630402669
 30
0.0
 40
17.0
 50
346.32846529462688
 51
359.45671064417382
  0
ARC
  5
114
  8
0
 10
137.00280762588059
 20
116.5411001657537
 30
0.0
 40
13.0
 50
166.32846656869791
 51
193.6715548203656
  0
LINE
  5
115
  8
0
 10
116.18884865346421
 20
115.91607506645759
 30
0.0
 11
123.0167665982972
 21
115.91607506645759
 31
0.0
  0
LINE
  5
116
  8
0
 10
115.58495936339069
 20
120.91607506645759
 30
0.0
 11
123.62065588837061
 21
120.91607506645759
 31
0.0
  0
LINE
  5
117
  8
0
 10
134.7955978407158
 20
101.9504372912405
 30
0.0
 11
125.89559784071579
 21
101.9504372912405
 31
0.0
  0
LINE
  5
118
  8
0
 10
135.59559784071581
 20
104.9504372912405
 30
0.0
 11
135.89559784071579
 21
104.9504372912405
 31
0.0
  0
ARC
  5
119
  8
0
 10
102.2028076258806
 20
102.3597744167273
 30
0.0
 40
13.0
 50
346.32846656869799
 51
13.67155482036569
  0
ARC
  5
11A
  8
0
 10
137.00280762588059
 20
102.35977441672721
 30
0.0
 40
13.0
 50
166.3284451796344
 51
193.67153343130201
  0
ARC
  5
11B
  8
0
 10
107.8528076258806
 20
95.269111542214077
 30
0.0
 40
17.0
 50
0.543289355822963
 51
13.67153470536965
  0
ARC
  5
11C
  8
0
 10
131.35280762588059
 20
95.269111542214077
 30
0.0
 40
17.0
 50
166.32846529463029
 51
179.74228092997771
  0
LINE
  5
11D
  8
0
 10
115.58495936339069
 20
97.984799516023315
 30
0.0
 11
123.62065588837061
 21
97.984799516023315
 31
0.0
  0
LINE
  5
11E
  8
0
 10
116.18884865346421
 20
102.9847995160233
 30
0.0
 11
123.0167665982972
 21
102.9847995160233
 31
0.0
  0
ARC
  5
11F
  8
0
 10
107.8528076258806
 20
109.4504372912405
 30
0.0
 40
17.00000000000005
 50
346.32846850884692
 51
13.671536735472319
  0
LINE
  5
120
  8
0
 10
116.1232217435752
 20
57.337138044933447
 30
0.0
 11
123.0823935081865
 21
57.337138044933447
 31
0.0
  0
LINE
  5
121
  8
0
 10
115.6062480316229
 20
48.882008629516051
 30
0.0
 11
123.5993672201384
 21
48.882008629516029
 31
0.0
  0
LINE
  5
122
  8
0
 10
115.5097253414074
 20
40.659354460365542
 30
0.0
 11
123.6958899103536
 21
40.65935446036552
 31
0.0
  0
LINE
  5
123
  8
0
 10
116.077782455163
 20
35.433797997708197
 30
0.0
 11
123.1278327965982
 21
35.433797997708183
 31
0.0
  0
ARC
  5
124
  8
0
 10
131.6398706637907
 20
33.969533927154153
 30
0.0
 40
7.6370630379099778
 50
161.31077934510759
 51
186.30963940543319
  0
ARC
  5
125
  8
0
 10
133.18519438630429
 20
58.607734186886958
 30
0.0
 40
9.1823867604236753
 50
155.15277913494711
 51
194.2955598308134
  0
ARC
  5
126
  8
0
 10
134.1495198232569
 20
44.802809160538281
 30
0.0
 40
10.178264809545301
 50
165.69856983789771
 51
197.6813658570245
  0
ARC
  5
127
  8
0
 10
106.5850600806733
 20
51.82962764305249
 30
0.0
 40
18.267747545207381
 50
345.69859095664259
 51
14.295598165025639
  0
ARC
  5
128
  8
0
 10
116.3698360489942
 20
39.134953449821509
 30
0.0
 40
8.4829715768864844
 50
341.31078109945338
 51
17.681401501079471
  0
ARC
  5
129
  8
0
 10
107.5657445879707
 20
33.969533927154153
 30
0.0
 40
7.6370630379099778
 50
353.6903605945667
 51
18.689220654892331
  0
ARC
  5
12A
  8
0
 10
122.8357792027672
 20
39.134953449821509
 30
0.0
 40
8.4829715768864844
 50
162.31859849892049
 51
198.68921890054651
  0
ARC
  5
12B
  8
0
 10
106.020420865457
 20
58.607734186886958
 30
0.0
 40
9.1823867604236753
 50
345.70444016918663
 51
24.847220865052861
  0
ARC
  5
12C
  8
0
 10
132.620555171088
 20
51.82962764305249
 30
0.0
 40
18.267747545207381
 50
165.70440183497431
 51
194.30140904335741
  0
ARC
  5
12D
  8
0
 10
105.05609542850441
 20
44.802809160538303
 30
0.0
 40
10.178264809545301
 50
342.3186341429755
 51
14.30143016210218
  0
ARC
  5
12E
  8
0
 10
115.2282580759945
 20
61.645450798835682
 30
0.0
 40
1.1999999999999991
 50
90.0
 51
166.08306759628491
  0
ARC
  5
12F
  8
0
 10
123.9254424098864
 20
61.645450798835647
 30
0.0
 40
1.1999999999999991
 50
13.000000000000631
 51
90.0
  0
ARC
  5
130
  8
0
 10
123.4404314983983
 20
34.146263860711088
 30
0.0
 40
1.1999999999999991
 50
270.0
 51
346.99999999999937
  0
ARC
  5
131
  8
0
 10
115.79500700595599
 20
34.146263860711088
 30
0.0
 40
1.1999999999999991
 50
196.27829133022439
 51
270.0
  0
LINE
  5
132
  8
0
 10
115.2282580759945
 20
62.845450798835643
 30
0.0
 11
123.9254424098864
 21
62.845450798835643
 31
0.0
  0
LINE
  5
133
  8
0
 10
115.79500700595599
 20
32.946263860711078
 30
0.0
 11
123.4404314983983
 21
32.94626386071107
 31
0.0
  0
LINE
  5
134
  8
0
 10
112.89559784071579
 20
42.246263860711167
 30
0.0
 11
112.89559784071579
 21
55.646263860710519
 31
0.0
  0
LINE
  5
135
  8
0
 10
125.89559784071589
 20
56.44626386071107
 30
0.0
 11
134.79559784071591
 21
56.44626386071107
 31
0.0
  0
LINE
  5
136
  8
0
 10
134.79559784071591
 20
41.44626386071107
 30
0.0
 11
135.59559784071581
 21
42.246263860711068
 31
0.0
  0
LINE
  5
137
  8
0
 10
135.59559784071581
 20
55.64626386071108
 30
0.0
 11
134.79559784071591
 21
56.44626386071107
 31
0.0
  0
LINE
  5
138
  8
0
 10
135.59559784071581
 20
53.44626386071107
 30
0.0
 11
135.89559784071579
 21
53.44626386071107
 31
0.0
  0
LINE
  5
139
  8
0
 10
134.79559784071591
 20
56.44626386071107
 30
0.0
 11
134.79559784071591
 21
41.446263860711092
 31
0.0
  0
LINE
  5
13A
  8
0
 10
135.5955978407159
 20
42.246263860711103
 30
0.0
 11
135.59559784071581
 21
55.64626386071108
 31
0.0
  0
LINE
  5
13B
  8
0
 10
125.89559784071579
 20
39.44626386071107
 30
0.0
 11
125.89559784071589
 21
58.446263860711021
 31
0.0
  0
LINE
  5
13C
  8
0
 10
125.89559784071589
 20
39.44626386071117
 30
0.0
 11
124.6096755761406
 21
33.876322595498443
 31
0.0
  0
LINE
  5
13D
  8
0
 10
125.89559784071589
 20
58.446263860711021
 30
0.0
 11
125.09468648762871
 21
61.915392064048298
 31
0.0
  0
ARC
  5
13E
  8
0
 10
166.47833759896261
 20
48.946263860710928
 30
0.0
 40
54.0
 50
166.08306759628641
 51
172.87271211800359
  0
ARC
  5
13F
  8
0
 10
166.47833759896261
 20
48.946263860710928
 30
0.0
 40
54.0
 50
187.12728788199621
 51
196.27829133022439
  0
LINE
  5
140
  8
0
 10
134.79559784071591
 20
41.44626386071107
 30
0.0
 11
125.89559784071589
 21
41.446263860711092
 31
0.0
  0
LINE
  5
141
  8
0
 10
135.59559784071581
 20
44.44626386071107
 30
0.0
 11
135.89559784071579
 21
44.44626386071107
 31
0.0
  0
LINE
  5
142
  8
0
 10
135.59559784071581
 20
174.45461072177
 30
0.0
 11
135.89559784071579
 21
174.45461072177
 31
0.0
  0
LINE
  5
143
  8
0
 10
134.79559784071591
 20
177.45461072177
 30
0.0
 11
125.89559784071589
 21
177.45461072177
 31
0.0
  0
ARC
  5
144
  8
0
 10
166.47833759896261
 20
169.95461072177011
 30
0.0
 40
54.0
 50
163.7217086697755
 51
172.8727121180037
  0
ARC
  5
145
  8
0
 10
166.47833759896261
 20
169.95461072177011
 30
0.0
 40
54.0
 50
187.1272878819963
 51
193.91693240371359
  0
LINE
  5
146
  8
0
 10
125.89559784071589
 20
160.45461072177
 30
0.0
 11
125.09468648762871
 21
156.9854825184328
 31
0.0
  0
LINE
  5
147
  8
0
 10
125.89559784071589
 20
179.45461072176991
 30
0.0
 11
124.6096755761406
 21
185.0245519869826
 31
0.0
  0
LINE
  5
148
  8
0
 10
125.89559784071579
 20
179.45461072177
 30
0.0
 11
125.89559784071589
 21
160.45461072177
 31
0.0
  0
LINE
  5
149
  8
0
 10
135.5955978407159
 20
176.6546107217699
 30
0.0
 11
135.59559784071581
 21
163.25461072177001
 31
0.0
  0
LINE
  5
14A
  8
0
 10
134.79559784071591
 20
162.45461072177
 30
0.0
 11
134.79559784071591
 21
177.45461072177
 31
0.0
  0
LINE
  5
14B
  8
0
 10
135.59559784071581
 20
165.45461072177
 30
0.0
 11
135.89559784071579
 21
165.45461072177
 31
0.0
  0
LINE
  5
14C
  8
0
 10
135.59559784071581
 20
163.25461072177001
 30
0.0
 11
134.79559784071591
 21
162.45461072177
 31
0.0
  0
LINE
  5
14D
  8
0
 10
134.79559784071591
 20
177.45461072177
 30
0.0
 11
135.59559784071581
 21
176.65461072177001
 31
0.0
  0
LINE
  5
14E
  8
0
 10
125.89559784071589
 20
162.45461072177
 30
0.0
 11
134.79559784071591
 21
162.45461072177
 31
0.0
  0
LINE
  5
14F
  8
0
 10
112.89559784071579
 20
176.6546107217699
 30
0.0
 11
112.89559784071579
 21
163.25461072177049
 31
0.0
  0
LINE
  5
150
  8
0
 10
115.79500700595599
 20
185.95461072177
 30
0.0
 11
123.4404314983983
 21
185.95461072177
 31
0.0
  0
LINE
  5
151
  8
0
 10
115.2282580759945
 20
156.05542378364541
 30
0.0
 11
123.9254424098864
 21
156.05542378364541
 31
0.0
  0
ARC
  5
152
  8
0
 10
115.79500700595599
 20
184.75461072177001
 30
0.0
 40
1.1999999999999991
 50
90.000000000000028
 51
163.7217086697755
  0
ARC
  5
153
  8
0
 10
123.4404314983983
 20
184.75461072177001
 30
0.0
 40
1.1999999999999991
 50
13.000000000000631
 51
90.000000000000028
  0
ARC
  5
154
  8
0
 10
123.9254424098864
 20
157.2554237836454
 30
0.0
 40
1.1999999999999991
 50
270.0
 51
346.99999999999937
  0
ARC
  5
155
  8
0
 10
115.2282580759945
 20
157.25542378364531
 30
0.0
 40
1.1999999999999991
 50
193.91693240371509
 51
270.0
  0
ARC
  5
156
  8
0
 10
105.05609542850441
 20
174.09806542194269
 30
0.0
 40
10.178264809545301
 50
345.69856983789782
 51
17.681365857024549
  0
ARC
  5
157
  8
0
 10
132.620555171088
 20
167.07124693942859
 30
0.0
 40
18.267747545207381
 50
165.69859095664259
 51
194.29559816502561
  0
ARC
  5
158
  8
0
 10
106.020420865457
 20
160.29314039559409
 30
0.0
 40
9.1823867604236753
 50
335.15277913494708
 51
14.29555983081341
  0
ARC
  5
159
  8
0
 10
122.8357792027672
 20
179.76592113265951
 30
0.0
 40
8.4829715768864844
 50
161.31078109945341
 51
197.68140150107951
  0
ARC
  5
15A
  8
0
 10
107.5657445879707
 20
184.93134065532689
 30
0.0
 40
7.6370630379099778
 50
341.31077934510768
 51
6.3096394054332992
  0
ARC
  5
15B
  8
0
 10
116.3698360489942
 20
179.76592113265951
 30
0.0
 40
8.4829715768864844
 50
342.31859849892049
 51
18.689218900546621
  0
ARC
  5
15C
  8
0
 10
106.5850600806733
 20
167.07124693942859
 30
0.0
 40
18.267747545207381
 50
345.70440183497442
 51
14.30140904335742
  0
ARC
  5
15D
  8
0
 10
134.1495198232569
 20
174.09806542194269
 30
0.0
 40
10.178264809545301
 50
162.3186341429755
 51
194.30143016210221
  0
ARC
  5
15E
  8
0
 10
133.18519438630429
 20
160.29314039559409
 30
0.0
 40
9.1823867604236753
 50
165.70444016918651
 51
204.84722086505289
  0
ARC
  5
15F
  8
0
 10
131.6398706637907
 20
184.93134065532689
 30
0.0
 40
7.6370630379099778
 50
173.6903605945667
 51
198.68922065489241
  0
LINE
  5
160
  8
0
 10
116.077782455163
 20
183.46707658477291
 30
0.0
 11
123.1278327965982
 21
183.46707658477291
 31
0.0
  0
LINE
  5
161
  8
0
 10
115.5097253414074
 20
178.2415201221155
 30
0.0
 11
123.6958899103536
 21
178.2415201221155
 31
0.0
  0
LINE
  5
162
  8
0
 10
115.6062480316229
 20
170.018865952965
 30
0.0
 11
123.5993672201384
 21
170.018865952965
 31
0.0
  0
LINE
  5
163
  8
0
 10
116.1232217435752
 20
161.56373653754761
 30
0.0
 11
123.0823935081865
 21
161.56373653754761
 31
0.0
  0
LINE
  5
164
  8
0
 10
135.89559784071579
 20
163.95461072177
 30
0.0
 11
135.89559784071579
 21
175.95461072177
 31
0.0
  0
LINE
  5
165
  8
3
 10
137.49559784071579
 20
167.56811072177001
 30
0.0
 11
148.8820978407158
 21
167.56811072177001
 31
0.0
  0
LINE
  5
166
  8
3
 10
137.49559784071579
 20
172.34111072177001
 30
0.0
 11
148.8820978407158
 21
172.34111072177001
 31
0.0
  0
LINE
  5
167
  8
0
 10
148.8820978407158
 20
166.95461072177
 30
0.0
 11
148.8820978407158
 21
172.95461072177
 31
0.0
  0
LINE
  5
168
  8
0
 10
135.89559784071579
 20
175.95461072177
 30
0.0
 11
137.49559784071579
 21
175.95461072177
 31
0.0
  0
LINE
  5
169
  8
0
 10
137.49559784071579
 20
163.95461072177
 30
0.0
 11
137.49559784071579
 21
175.95461072177
 31
0.0
  0
LINE
  5
16A
  8
0
 10
135.89559784071579
 20
163.95461072177
 30
0.0
 11
137.49559784071579
 21
163.95461072177
 31
0.0
  0
LINE
  5
16B
  8
0
 10
137.49559784071579
 20
172.95461072177
 30
0.0
 11
173.01031646647721
 21
172.95461072177
 31
0.0
  0
LINE
  5
16C
  8
0
 10
173.01031646647729
 20
166.95461072177
 30
0.0
 11
137.49559784071579
 21
166.95461072177
 31
0.0
  0
ARC
  5
16D
  8
0
 10
181.49559784071579
 20
169.95461072177
 30
0.0
 40
7.0
 50
219.52119635864219
 51
140.47880364135781
  0
ARC
  5
16E
  8
0
 10
173.01031646647729
 20
162.95461072177
 30
0.0
 40
4.000000000000016
 50
39.5211963586422
 51
90.000000000000028
  0
ARC
  5
16F
  8
0
 10
173.01031646647729
 20
176.95461072177
 30
0.0
 40
4.0000000000000089
 50
270.0
 51
320.4788036413579
  0
ARC
  5
170
  8
0
 10
181.49559784071579
 20
169.95461072177
 30
0.0
 40
6.0621778264910686
 50
207.03569178941231
 51
152.96430821058769
  0
LINE
  5
171
  8
0
 10
173.01031646647689
 20
166.95461072177
 30
0.0
 11
173.0103164664776
 21
172.95461072177
 31
0.0
  0
LINE
  5
172
  8
0
 10
176.09587332983639
 20
167.1990753460922
 30
0.0
 11
176.09587332983619
 21
165.50006526722461
 31
0.0
  0
POLYLINE
  5
173
  8
0
 66
     1
 10
0.0
 20
0.0
 30
0.0
  0
VERTEX
  5
380
  8
0
 10
176.09587332983671
 20
172.71014609744779
 30
0.0
  0
VERTEX
  5
381
  8
0
 10
175.62139713489509
 20
171.8278755612794
 30
0.0
  0
VERTEX
  5
382
  8
0
 10
175.1500993163059
 20
170.88072578250251
 30
0.0
  0
VERTEX
  5
383
  8
0
 10
175.1294696951999
 20
170.8286327220454
 30
0.0
  0
VERTEX
  5
384
  8
0
 10
175.10967063036389
 20
170.77644479404461
 30
0.0
  0
VERTEX
  5
385
  8
0
 10
175.1000992696969
 20
170.75031458324921
 30
0.0
  0
VERTEX
  5
386
  8
0
 10
175.0907556403389
 20
170.7241598526771
 30
0.0
  0
VERTEX
  5
387
  8
0
 10
175.07277845924281
 20
170.67177581400941
 30
0.0
  0
VERTEX
  5
388
  8
0
 10
175.05579276176371
 20
170.61929078140659
 30
0.0
  0
VERTEX
  5
389
  8
0
 10
175.0398517710077
 20
170.56670293366599
 30
0.0
  0
VERTEX
  5
38A
  8
0
 10
175.02500758836931
 20
170.5140094483543
 30
0.0
  0
VERTEX
  5
38B
  8
0
 10
175.01131130037359
 20
170.46120807314369
 30
0.0
  0
VERTEX
  5
38C
  8
0
 10
175.00490924825661
 20
170.43476663764531
 30
0.0
  0
VERTEX
  5
38D
  8
0
 10
174.99881271613819
 20
170.40829807994049
 30
0.0
  0
VERTEX
  5
38E
  8
0
 10
174.98755976235
 20
170.3552803194772
 30
0.0
  0
VERTEX
  5
38F
  8
0
 10
174.97759782762961
 20
170.30215718045639
 30
0.0
  0
VERTEX
  5
390
  8
0
 10
174.96896908165459
 20
170.24893243680901
 30
0.0
  0
VERTEX
  5
391
  8
0
 10
174.9617118013301
 20
170.19561096635911
 30
0.0
  0
VERTEX
  5
392
  8
0
 10
174.95585974314571
 20
170.1421983298452
 30
0.0
  0
VERTEX
  5
393
  8
0
 10
174.95346985028391
 20
170.1154596129376
 30
0.0
  0
VERTEX
  5
394
  8
0
 10
174.95144160533999
 20
170.08870020739079
 30
0.0
  0
VERTEX
  5
395
  8
0
 10
174.9484806244038
 20
170.0351216997723
 30
0.0
  0
VERTEX
  5
396
  8
0
 10
174.94699434684551
 20
169.9814665133006
 30
0.0
  0
VERTEX
  5
397
  8
0
 10
174.94680813958101
 20
169.95461072177
 30
0.0
  0
VERTEX
  5
398
  8
0
 10
174.94699434684551
 20
169.9277549302393
 30
0.0
  0
VERTEX
  5
399
  8
0
 10
174.9484806244038
 20
169.87409974376769
 30
0.0
  0
VERTEX
  5
39A
  8
0
 10
174.95144160533999
 20
169.8205212361492
 30
0.0
  0
VERTEX
  5
39B
  8
0
 10
174.95346985028391
 20
169.79376183060239
 30
0.0
  0
VERTEX
  5
39C
  8
0
 10
174.95585974314571
 20
169.76702311369479
 30
0.0
  0
VERTEX
  5
39D
  8
0
 10
174.9617118013301
 20
169.71361047718091
 30
0.0
  0
VERTEX
  5
39E
  8
0
 10
174.96896908165459
 20
169.66028900673101
 30
0.0
  0
VERTEX
  5
39F
  8
0
 10
174.97759782762961
 20
169.60706426308349
 30
0.0
  0
VERTEX
  5
3A0
  8
0
 10
174.98755976235
 20
169.5539411240629
 30
0.0
  0
VERTEX
  5
3A1
  8
0
 10
174.99881271613819
 20
169.5009233635995
 30
0.0
  0
VERTEX
  5
3A2
  8
0
 10
175.00490924825661
 20
169.47445480589471
 30
0.0
  0
VERTEX
  5
3A3
  8
0
 10
175.01131130037359
 20
169.4480133703963
 30
0.0
  0
VERTEX
  5
3A4
  8
0
 10
175.02500758836931
 20
169.39521199518569
 30
0.0
  0
VERTEX
  5
3A5
  8
0
 10
175.0398517710077
 20
169.342518509874
 30
0.0
  0
VERTEX
  5
3A6
  8
0
 10
175.05579276176371
 20
169.2899306621334
 30
0.0
  0
VERTEX
  5
3A7
  8
0
 10
175.07277845924281
 20
169.23744562953061
 30
0.0
  0
VERTEX
  5
3A8
  8
0
 10
175.0907556403389
 20
169.18506159086289
 30
0.0
  0
VERTEX
  5
3A9
  8
0
 10
175.1000992696969
 20
169.15890686029081
 30
0.0
  0
VERTEX
  5
3AA
  8
0
 10
175.10967063036389
 20
169.13277664949541
 30
0.0
  0
VERTEX
  5
3AB
  8
0
 10
175.1294696951999
 20
169.08058872149459
 30
0.0
  0
VERTEX
  5
3AC
  8
0
 10
175.1500993163059
 20
169.02849566103751
 30
0.0
  0
VERTEX
  5
3AD
  8
0
 10
175.6213971348952
 20
168.08134588226059
 30
0.0
  0
VERTEX
  5
3AE
  8
0
 10
176.09587332983671
 20
167.1990753460922
 30
0.0
  0
SEQEND
  5
3AF
  8
0
  0
LINE
  5
174
  8
0
 10
176.0958733298371
 20
172.71014609744779
 30
0.0
 11
176.0958733298373
 21
174.40915617631541
 31
0.0
  0
POLYLINE
  5
175
  8
0
 66
     1
 10
0.0
 20
0.0
 30
0.0
  0
VERTEX
  5
3B0
  8
0
 10
176.09587332983671
 20
167.1990753460922
 30
0.0
  0
VERTEX
  5
3B1
  8
0
 10
175.6213971348952
 20
168.08134588226059
 30
0.0
  0
VERTEX
  5
3B2
  8
0
 10
175.1500993163059
 20
169.02849566103751
 30
0.0
  0
VERTEX
  5
3B3
  8
0
 10
175.1294696951999
 20
169.08058872149459
 30
0.0
  0
VERTEX
  5
3B4
  8
0
 10
175.10967063036389
 20
169.13277664949541
 30
0.0
  0
VERTEX
  5
3B5
  8
0
 10
175.1000992696969
 20
169.15890686029081
 30
0.0
  0
VERTEX
  5
3B6
  8
0
 10
175.0907556403389
 20
169.18506159086289
 30
0.0
  0
VERTEX
  5
3B7
  8
0
 10
175.07277845924281
 20
169.23744562953061
 30
0.0
  0
VERTEX
  5
3B8
  8
0
 10
175.05579276176371
 20
169.2899306621334
 30
0.0
  0
VERTEX
  5
3B9
  8
0
 10
175.0398517710077
 20
169.342518509874
 30
0.0
  0
VERTEX
  5
3BA
  8
0
 10
175.02500758836931
 20
169.39521199518569
 30
0.0
  0
VERTEX
  5
3BB
  8
0
 10
175.01131130037359
 20
169.4480133703963
 30
0.0
  0
VERTEX
  5
3BC
  8
0
 10
175.00490924825661
 20
169.47445480589471
 30
0.0
  0
VERTEX
  5
3BD
  8
0
 10
174.99881271613819
 20
169.5009233635995
 30
0.0
  0
VERTEX
  5
3BE
  8
0
 10
174.98755976235
 20
169.5539411240629
 30
0.0
  0
VERTEX
  5
3BF
  8
0
 10
174.97759782762961
 20
169.6070642630836
 30
0.0
  0
VERTEX
  5
3C0
  8
0
 10
174.96896908165459
 20
169.66028900673101
 30
0.0
  0
VERTEX
  5
3C1
  8
0
 10
174.9617118013301
 20
169.71361047718091
 30
0.0
  0
VERTEX
  5
3C2
  8
0
 10
174.95585974314571
 20
169.76702311369479
 30
0.0
  0
VERTEX
  5
3C3
  8
0
 10
174.95346985028391
 20
169.79376183060239
 30
0.0
  0
VERTEX
  5
3C4
  8
0
 10
174.95144160533999
 20
169.8205212361492
 30
0.0
  0
VERTEX
  5
3C5
  8
0
 10
174.9484806244038
 20
169.87409974376769
 30
0.0
  0
VERTEX
  5
3C6
  8
0
 10
174.94699434684551
 20
169.92775493023939
 30
0.0
  0
VERTEX
  5
3C7
  8
0
 10
174.94680813958101
 20
169.95461072177
 30
0.0
  0
VERTEX
  5
3C8
  8
0
 10
174.94699434684551
 20
169.98146651330069
 30
0.0
  0
VERTEX
  5
3C9
  8
0
 10
174.9484806244038
 20
170.0351216997723
 30
0.0
  0
VERTEX
  5
3CA
  8
0
 10
174.95144160533999
 20
170.08870020739079
 30
0.0
  0
VERTEX
  5
3CB
  8
0
 10
174.95346985028391
 20
170.1154596129376
 30
0.0
  0
VERTEX
  5
3CC
  8
0
 10
174.95585974314571
 20
170.1421983298452
 30
0.0
  0
VERTEX
  5
3CD
  8
0
 10
174.9617118013301
 20
170.19561096635911
 30
0.0
  0
VERTEX
  5
3CE
  8
0
 10
174.96896908165459
 20
170.24893243680901
 30
0.0
  0
VERTEX
  5
3CF
  8
0
 10
174.97759782762961
 20
170.3021571804565
 30
0.0
  0
VERTEX
  5
3D0
  8
0
 10
174.98755976235
 20
170.3552803194772
 30
0.0
  0
VERTEX
  5
3D1
  8
0
 10
174.99881271613819
 20
170.40829807994049
 30
0.0
  0
VERTEX
  5
3D2
  8
0
 10
175.00490924825661
 20
170.43476663764531
 30
0.0
  0
VERTEX
  5
3D3
  8
0
 10
175.01131130037359
 20
170.46120807314369
 30
0.0
  0
VERTEX
  5
3D4
  8
0
 10
175.02500758836931
 20
170.5140094483543
 30
0.0
  0
VERTEX
  5
3D5
  8
0
 10
175.0398517710077
 20
170.56670293366599
 30
0.0
  0
VERTEX
  5
3D6
  8
0
 10
175.05579276176371
 20
170.61929078140659
 30
0.0
  0
VERTEX
  5
3D7
  8
0
 10
175.07277845924281
 20
170.67177581400941
 30
0.0
  0
VERTEX
  5
3D8
  8
0
 10
175.0907556403389
 20
170.7241598526771
 30
0.0
  0
VERTEX
  5
3D9
  8
0
 10
175.1000992696969
 20
170.75031458324921
 30
0.0
  0
VERTEX
  5
3DA
  8
0
 10
175.10967063036389
 20
170.77644479404461
 30
0.0
  0
VERTEX
  5
3DB
  8
0
 10
175.1294696951999
 20
170.8286327220454
 30
0.0
  0
VERTEX
  5
3DC
  8
0
 10
175.1500993163059
 20
170.88072578250251
 30
0.0
  0
VERTEX
  5
3DD
  8
0
 10
175.62139713489509
 20
171.8278755612794
 30
0.0
  0
VERTEX
  5
3DE
  8
0
 10
176.09587332983671
 20
172.71014609744779
 30
0.0
  0
SEQEND
  5
3DF
  8
0
  0
CIRCLE
  5
176
  8
0
 10
181.49559784071579
 20
169.95461072177
 30
0.0
 40
3.0
  0
LINE
  5
177
  8
1
 10
191.5769920790012
 20
169.95461072177
 30
0.0
 11
107.9937620354758
 21
169.95461072177
 31
0.0
  0
LINE
  5
178
  8
1
 10
181.49559784071579
 20
180.03600496005541
 30
0.0
 11
181.4955978407159
 21
159.87321648348461
 31
0.0
  0
ARC
  5
179
  8
0
 10
181.49559784071579
 20
169.95461072177
 30
0.0
 40
2.849999999999977
 50
166.8165185137793
 51
193.1834814862207
  0
CIRCLE
  5
17A
  8
0
 10
181.49559784071579
 20
169.95461072177
 30
0.0
 40
3.0
  0
CIRCLE
  5
17B
  8
0
 10
181.49559784071579
 20
169.95461072177
 30
0.0
 40
2.25
  0
LINE
  5
17C
  8
0
 10
178.56686091159429
 20
170.60461072177
 30
0.0
 11
178.7207104556135
 21
170.60461072177
 31
0.0
  0
ARC
  5
17D
  8
0
 10
177.3707078407158
 20
169.30461072176999
 30
0.0
 40
0.5999980000000003
 50
180.0
 51
0.0
  0
LINE
  5
17E
  8
0
 10
176.02071593897429
 20
169.30461072176999
 30
0.0
 11
176.77070984071591
 21
169.30461072176999
 31
0.0
  0
ARC
  5
17F
  8
0
 10
181.60843668362151
 20
169.95501358786291
 30
0.0
 40
5.6254463830333501
 50
186.6392716787708
 51
192.39025578540489
  0
ARC
  5
180
  8
0
 10
177.5655878051021
 20
169.06690180954271
 30
0.0
 40
1.486198917866937
 50
192.391966199297
 51
271.62518152154001
  0
ARC
  5
181
  8
0
 10
177.6498867936611
 20
166.09570656624271
 30
0.0
 40
1.486191953684278
 50
44.290202802599637
 51
91.625147378772795
  0
ARC
  5
182
  8
0
 10
181.6055973140694
 20
169.95461283724501
 30
0.0
 40
4.0400005266470034
 50
224.29030814993661
 51
135.70970318311311
  0
ARC
  5
183
  8
0
 10
177.64984535181139
 20
173.81360742533559
 30
0.0
 40
1.486283289871672
 50
268.37655619609359
 51
315.70844491223039
  0
ARC
  5
184
  8
0
 10
177.5656180547947
 20
170.84227482155379
 30
0.0
 40
1.486242854680659
 50
88.376027687506976
 51
167.6067897756482
  0
ARC
  5
185
  8
0
 10
181.6063823766145
 20
169.95449938715791
 30
0.0
 40
5.623382146668332
 50
167.60820526307319
 51
173.3612706278285
  0
LINE
  5
186
  8
0
 10
176.7707068407158
 20
170.60461072177
 30
0.0
 11
176.02070587147421
 21
170.60461072177
 31
0.0
  0
ARC
  5
187
  8
0
 10
177.3707078407158
 20
170.60461072177
 30
0.0
 40
0.6000009999999998
 50
0.0
 51
180.0
  0
LINE
  5
188
  8
0
 10
178.56686091159429
 20
170.60461072177
 30
0.0
 11
177.9707088407159
 21
170.60461072177
 31
0.0
  0
LINE
  5
189
  8
0
 10
177.97070584071591
 20
169.30461072176999
 30
0.0
 11
178.56686091159429
 21
169.30461072176999
 31
0.0
  0
LINE
  5
18A
  8
0
 10
178.56686091159429
 20
169.30461072176999
 30
0.0
 11
178.7207104556135
 21
169.30461072176999
 31
0.0
  0
LINE
  5
18B
  8
0
 10
179.04400385204519
 20
170.60461072177
 30
0.0
 11
175.69741182938651
 21
170.60461072177
 31
0.0
  0
LINE
  5
18C
  8
0
 10
179.0440008520452
 20
169.30461072176999
 30
0.0
 11
175.6974148293865
 21
169.30461072176999
 31
0.0
  0
POINT
  5
18D
  8
0
 10
181.49559784071579
 20
169.95461072177
 30
0.0
210
-1.0
220
-0.0000000000000003
230
0.0
  0
POINT
  5
18E
  8
0
 10
181.49559784071579
 20
169.95461072177
 30
0.0
210
1.0
220
0.0000000000000003
230
0.0
  0
POINT
  5
18F
  8
0
 10
181.49559784071579
 20
169.95461072177
 30
0.0
210
1.0
220
0.0000000000000003
230
0.0
  0
POINT
  5
190
  8
0
 10
181.49559784071579
 20
169.95461072177
 30
3.5
  0
POINT
  5
191
  8
0
 10
181.49559784071579
 20
169.95461072177
 30
0.0
210
0.0
220
0.0000000000000001
230
-1.0
  0
TEXT
  5
225
  8
0
 62
     3
 10
0.0
 20
0.0
 30
0.0
 40
10.0
  1
RWK06050
  7
STANDARD1
  0
ENDSEC
  0
EOF
