  0
SECTION
  2
HEADER
  9
$ACADVER
  1
AC1009
  9
$INSBASE
 10
0.0
 20
0.0
 30
0.0
  9
$EXTMIN
 10
0.0
 20
-2.960436562073669
 30
0.0
  9
$EXTMAX
 10
650.83088485348355
 20
469.74820143884892
 30
0.0
  9
$LIMMIN
 10
0.0
 20
0.0
  9
$LIMMAX
 10
750.0
 20
540.0
  9
$ORTHOMODE
 70
     1
  9
$REGENMODE
 70
     1
  9
$FILLMODE
 70
     1
  9
$QTEXTMODE
 70
     0
  9
$MIRRTEXT
 70
     0
  9
$DRAGMODE
 70
     2
  9
$LTSCALE
 40
20.0
  9
$OSMODE
 70
    55
  9
$ATTMODE
 70
     1
  9
$TEXTSIZE
 40
4.0016390128725003
  9
$TRACEWID
 40
2.0
  9
$TEXTSTYLE
  7
STANDARD
  9
$CLAYER
  8
0
  9
$CELTYPE
  6
BYLAYER
  9
$CECOLOR
 62
   256
  9
$DIMSCALE
 40
2.0
  9
$DIMASZ
 40
3.0
  9
$DIMEXO
 40
2.0
  9
$DIMDLI
 40
0.3799999999999999
  9
$DIMRND
 40
0.0
  9
$DIMDLE
 40
0.0
  9
$DIMEXE
 40
2.0
  9
$DIMTP
 40
0.0
  9
$DIMTM
 40
0.0
  9
$DIMTXT
 40
3.2000000000000002
  9
$DIMCEN
 40
0.09
  9
$DIMTSZ
 40
0.0
  9
$DIMTOL
 70
     0
  9
$DIMLIM
 70
     0
  9
$DIMTIH
 70
     0
  9
$DIMTOH
 70
     0
  9
$DIMSE1
 70
     0
  9
$DIMSE2
 70
     0
  9
$DIMTAD
 70
     1
  9
$DIMZIN
 70
     0
  9
$DIMBLK
  1

  9
$DIMASO
 70
     1
  9
$DIMSHO
 70
     0
  9
$DIMPOST
  1

  9
$DIMAPOST
  1

  9
$DIMALT
 70
     0
  9
$DIMALTD
 70
     2
  9
$DIMALTF
 40
25.399999999999999
  9
$DIMLFAC
 40
1.0
  9
$DIMTOFL
 70
     0
  9
$DIMTVP
 40
0.0
  9
$DIMTIX
 70
     1
  9
$DIMSOXD
 70
     0
  9
$DIMSAH
 70
     0
  9
$DIMBLK1
  1

  9
$DIMBLK2
  1

  9
$DIMSTYLE
  2
STANDARD
  9
$DIMCLRD
 70
     0
  9
$DIMCLRE
 70
     0
  9
$DIMCLRT
 70
     0
  9
$DIMTFAC
 40
1.0
  9
$DIMGAP
 40
0.09
  9
$LUNITS
 70
     2
  9
$LUPREC
 70
     4
  9
$SKETCHINC
 40
0.1
  9
$FILLETRAD
 40
5.0
  9
$AUNITS
 70
     1
  9
$AUPREC
 70
     4
  9
$MENU
  1
E:\r13\win\SUPPORT\ACAD
  9
$ELEVATION
 40
0.0
  9
$PELEVATION
 40
0.0
  9
$THICKNESS
 40
0.0
  9
$LIMCHECK
 70
     0
  9
$BLIPMODE
 70
     0
  9
$CHAMFERA
 40
0.0
  9
$CHAMFERB
 40
0.0
  9
$SKPOLY
 70
     0
  9
$TDCREATE
 40
2449840.5976620368
  9
$TDUPDATE
 40
2456598.4762070142
  9
$TDINDWG
 40
0.0001634259
  9
$TDUSRTIMER
 40
0.0001634259
  9
$USRTIMER
 70
     1
  9
$ANGBASE
 50
0.0
  9
$ANGDIR
 70
     0
  9
$PDMODE
 70
     0
  9
$PDSIZE
 40
0.0
  9
$PLINEWID
 40
0.0
  9
$COORDS
 70
     1
  9
$SPLFRAME
 70
     0
  9
$SPLINETYPE
 70
     6
  9
$SPLINESEGS
 70
     8
  9
$ATTDIA
 70
     0
  9
$ATTREQ
 70
     1
  9
$HANDLING
 70
     1
  9
$HANDSEED
  5
3BC
  9
$SURFTAB1
 70
     6
  9
$SURFTAB2
 70
     6
  9
$SURFTYPE
 70
     6
  9
$SURFU
 70
     6
  9
$SURFV
 70
     6
  9
$UCSNAME
  2

  9
$UCSORG
 10
0.0
 20
0.0
 30
0.0
  9
$UCSXDIR
 10
1.0
 20
0.0
 30
0.0
  9
$UCSYDIR
 10
0.0
 20
1.0
 30
0.0
  9
$PUCSNAME
  2

  9
$PUCSORG
 10
0.0
 20
0.0
 30
0.0
  9
$PUCSXDIR
 10
1.0
 20
0.0
 30
0.0
  9
$PUCSYDIR
 10
0.0
 20
1.0
 30
0.0
  9
$USERI1
 70
     0
  9
$USERI2
 70
     1
  9
$USERI3
 70
     1
  9
$USERI4
 70
     0
  9
$USERI5
 70
     0
  9
$USERR1
 40
0.0
  9
$USERR2
 40
0.0
  9
$USERR3
 40
0.0
  9
$USERR4
 40
0.0
  9
$USERR5
 40
0.0
  9
$WORLDVIEW
 70
     1
  9
$SHADEDGE
 70
     3
  9
$SHADEDIF
 70
    70
  9
$TILEMODE
 70
     1
  9
$MAXACTVP
 70
    16
  9
$PLIMCHECK
 70
     0
  9
$PEXTMIN
 10
1.0000000000000000E+020
 20
1.0000000000000000E+020
 30
1.0000000000000000E+020
  9
$PEXTMAX
 10
-1.0000000000000000E+020
 20
-1.0000000000000000E+020
 30
-1.0000000000000000E+020
  9
$PLIMMIN
 10
0.0
 20
0.0
  9
$PLIMMAX
 10
12.0
 20
9.0
  9
$UNITMODE
 70
     0
  9
$VISRETAIN
 70
     0
  9
$PLINEGEN
 70
     0
  9
$PSLTSCALE
 70
     0
  0
ENDSEC
  0
SECTION
  2
TABLES
  0
TABLE
  2
VPORT
 70
     1
  0
VPORT
  2
*ACTIVE
 70
     0
 10
0.0
 20
0.0
 11
1.0
 21
1.0
 12
374.98855678130462
 22
390.38782554515711
 13
0.0
 23
0.0
 14
20.0
 24
20.0
 15
20.0
 25
20.0
 16
0.0
 26
0.0
 36
1.0
 17
0.0
 27
0.0
 37
0.0
 40
794.35313298118172
 41
1.7807262569832401
 42
50.0
 43
0.0
 44
0.0
 50
0.0
 51
0.0
 71
     0
 72
  1000
 73
     1
 74
     0
 75
     0
 76
     0
 77
     0
 78
     2
  0
ENDTAB
  0
TABLE
  2
LTYPE
 70
     4
  0
LTYPE
  2
CONTINUOUS
 70
     0
  3
Solid Line
 72
    65
 73
     0
 40
0.0
  0
LTYPE
  2
CENTER
 70
     0
  3
____ _ ____ _ ____ _ ____ _ ____ _ ____ _ ____
 72
    65
 73
     4
 40
2.0
 49
1.25
 49
-0.25
 49
0.25
 49
-0.25
  0
LTYPE
  2
HIDDEN
 70
     0
  3
_ _ _ _ _ _ _ _ _ _ _ _ _ _ _ _ _ _ _ _ _ _ _
 72
    65
 73
     2
 40
0.375
 49
0.25
 49
-0.125
  0
LTYPE
  2
PHANTOM2
 70
     0
  3
___ _ _ ___ _ _ ___ _ _ ___ _ _
 72
    65
 73
     6
 40
1.25
 49
0.625
 49
-0.125
 49
0.125
 49
-0.125
 49
0.125
 49
-0.125
  0
ENDTAB
  0
TABLE
  2
LAYER
 70
     4
  0
LAYER
  2
0
 70
     0
 62
     7
  6
CONTINUOUS
  0
LAYER
  2
1
 70
     0
 62
     1
  6
CENTER
  0
LAYER
  2
2
 70
     0
 62
     2
  6
HIDDEN
  0
LAYER
  2
3
 70
     0
 62
     3
  6
CONTINUOUS
  0
ENDTAB
  0
TABLE
  2
STYLE
 70
     2
  0
STYLE
  2
STANDARD
 70
     0
 40
0.0
 41
1.0
 50
0.0
 71
     0
 42
4.0016390128725003
  3
TXT
  4
BIGFONT
  0
STYLE
  2
STANDARD1
 70
     0
 40
0.0
 41
1.0
 50
0.0
 71
     0
 42
3.0
  3
txt
  4

  0
ENDTAB
  0
TABLE
  2
VIEW
 70
     0
  0
ENDTAB
  0
TABLE
  2
UCS
 70
     0
  0
ENDTAB
  0
TABLE
  2
APPID
 70
     3
  0
APPID
  2
ACAD
 70
     0
  0
APPID
  2
ACAD_MLEADERVER
 70
     0
  0
APPID
  2
ACAD_NAV_VCDISPLAY
 70
     0
  0
ENDTAB
  0
TABLE
  2
DIMSTYLE
 70
     1
  0
DIMSTYLE
  2
STANDARD
 70
     0
  3

  4

  5

  6

  7

 40
1.0
 41
0.18
 42
0.0625
 43
0.38
 44
0.18
 45
0.0
 46
0.0
 47
0.0
 48
0.0
140
0.18
141
0.09
142
0.0
143
25.399999999999999
144
1.0
145
0.0
146
1.0
147
0.09
 71
     0
 72
     0
 73
     1
 74
     1
 75
     0
 76
     0
 77
     0
 78
     0
170
     0
171
     2
172
     0
173
     0
174
     0
175
     0
176
     0
177
     0
178
     0
  0
ENDTAB
  0
ENDSEC
  0
SECTION
  2
BLOCKS
  0
BLOCK
  8
0
  2
$MODEL_SPACE
 70
     0
 10
0.0
 20
0.0
 30
0.0
  3
$MODEL_SPACE
  1

  0
ENDBLK
  5
241
  8
0
  0
BLOCK
 67
     1
  8
0
  2
$PAPER_SPACE
 70
     0
 10
0.0
 20
0.0
 30
0.0
  3
$PAPER_SPACE
  1

  0
ENDBLK
  5
23F
 67
     1
  8
0
  0
ENDSEC
  0
SECTION
  2
ENTITIES
  0
LINE
  5
36
  8
0
 10
347.0
 20
129.2517985611513
 30
0.0
 11
346.99999999999989
 21
111.25179856115091
 31
0.0
  0
LINE
  5
37
  8
0
 10
365.5
 20
127.25179856115111
 30
0.0
 11
365.0
 21
126.75179856115111
 31
0.0
  0
LINE
  5
38
  8
0
 10
365.5
 20
113.25179856115111
 30
0.0
 11
365.0
 21
113.75179856115111
 31
0.0
  0
LINE
  5
39
  8
0
 10
365.5
 20
127.25179856115111
 30
0.0
 11
365.5
 21
113.25179856115111
 31
0.0
  0
LINE
  5
3A
  8
0
 10
365.0
 20
113.7653769058018
 30
0.0
 11
365.0
 21
126.73822021650039
 31
0.0
  0
LINE
  5
3B
  8
0
 10
310.67510683782371
 20
129.2517985611513
 30
0.0
 11
347.0
 21
129.2517985611513
 31
0.0
  0
LINE
  5
3C
  8
0
 10
310.67510683782371
 20
111.25179856115091
 30
0.0
 11
347.0
 21
111.25179856115091
 31
0.0
  0
LINE
  5
3D
  8
0
 10
363.48875203139607
 20
128.33575678162899
 30
0.0
 11
347.0
 21
129.2517985611513
 31
0.0
  0
LINE
  5
3E
  8
0
 10
346.99999999999989
 20
111.25179856115091
 30
0.0
 11
363.48875203139607
 21
112.16784034067319
 31
0.0
  0
ARC
  5
3F
  8
0
 10
337.0
 20
120.25179856115111
 30
0.0
 40
30.0
 50
167.1604115930954
 51
192.83958840690451
  0
ARC
  5
40
  8
0
 10
310.67510683782371
 20
126.2517985611513
 30
0.0
 40
3.0
 50
89.999999999999986
 51
167.1604115930956
  0
ARC
  5
41
  8
0
 10
310.67510683782371
 20
114.25179856115091
 30
0.0
 40
3.0
 50
192.83958840690471
 51
269.99999999999937
  0
ARC
  5
42
  8
0
 10
363.39999999999998
 20
126.73822021650039
 30
0.0
 40
1.6000000000000001
 50
360.0
 51
86.820169880135012
  0
ARC
  5
43
  8
0
 10
363.39999999999998
 20
113.7653769058018
 30
0.0
 40
1.6000000000000001
 50
273.1798301198649
 51
360.0
  0
LINE
  5
44
  8
0
 10
367.0
 20
127.25179856115111
 30
0.0
 11
367.0
 21
125.25179856115111
 31
0.0
  0
LINE
  5
45
  8
0
 10
367.00000000000011
 20
127.2517985611512
 30
0.0
 11
365.5
 21
127.25179856115111
 31
0.0
  0
LINE
  5
46
  8
0
 10
367.00000000000011
 20
113.25179856115111
 30
0.0
 11
365.5
 21
113.25179856115111
 31
0.0
  0
LINE
  5
47
  8
0
 10
367.0
 20
125.25179856115111
 30
0.0
 11
373.0
 21
125.2517985611512
 31
0.0
  0
LINE
  5
48
  8
0
 10
367.00000000000011
 20
115.25179856115111
 30
0.0
 11
373.0
 21
115.25179856115111
 31
0.0
  0
LINE
  5
49
  8
0
 10
367.00000000000011
 20
115.25179856115111
 30
0.0
 11
367.00000000000011
 21
113.2517985611512
 31
0.0
  0
LINE
  5
4A
  8
0
 10
367.00000000000011
 20
414.74820143884892
 30
0.0
 11
367.00000000000011
 21
412.74820143884898
 31
0.0
  0
LINE
  5
4B
  8
0
 10
367.00000000000011
 20
414.74820143884892
 30
0.0
 11
373.0
 21
414.74820143884892
 31
0.0
  0
LINE
  5
4C
  8
0
 10
367.0
 20
424.74820143884898
 30
0.0
 11
373.0
 21
424.74820143884898
 31
0.0
  0
LINE
  5
4D
  8
0
 10
367.00000000000011
 20
412.74820143884898
 30
0.0
 11
365.5
 21
412.74820143884898
 31
0.0
  0
LINE
  5
4E
  8
0
 10
367.00000000000011
 20
426.74820143884898
 30
0.0
 11
365.5
 21
426.74820143884892
 31
0.0
  0
LINE
  5
4F
  8
0
 10
367.0
 20
426.74820143884892
 30
0.0
 11
367.0
 21
424.74820143884898
 31
0.0
  0
ARC
  5
50
  8
0
 10
363.39999999999998
 20
413.26177978349961
 30
0.0
 40
1.6000000000000001
 50
273.1798301198649
 51
360.0
  0
ARC
  5
51
  8
0
 10
363.39999999999998
 20
426.23462309419818
 30
0.0
 40
1.6000000000000001
 50
360.0
 51
86.820169880135012
  0
ARC
  5
52
  8
0
 10
310.67510683782371
 20
413.74820143884881
 30
0.0
 40
3.0
 50
192.83958840690471
 51
269.99999999999937
  0
ARC
  5
53
  8
0
 10
310.67510683782371
 20
425.74820143884909
 30
0.0
 40
3.0
 50
89.999999999999986
 51
167.1604115930956
  0
ARC
  5
54
  8
0
 10
337.0
 20
419.74820143884892
 30
0.0
 40
30.0
 50
167.1604115930954
 51
192.83958840690451
  0
LINE
  5
55
  8
0
 10
346.99999999999989
 20
410.7482014388487
 30
0.0
 11
363.48875203139607
 21
411.66424321837098
 31
0.0
  0
LINE
  5
56
  8
0
 10
363.48875203139607
 20
427.83215965932692
 30
0.0
 11
347.0
 21
428.74820143884909
 31
0.0
  0
LINE
  5
57
  8
0
 10
310.67510683782371
 20
410.7482014388487
 30
0.0
 11
347.0
 21
410.7482014388487
 31
0.0
  0
LINE
  5
58
  8
0
 10
310.67510683782371
 20
428.74820143884909
 30
0.0
 11
347.0
 21
428.74820143884909
 31
0.0
  0
LINE
  5
59
  8
0
 10
365.0
 20
413.26177978349961
 30
0.0
 11
365.0
 21
426.23462309419818
 31
0.0
  0
LINE
  5
5A
  8
0
 10
365.5
 20
426.74820143884892
 30
0.0
 11
365.5
 21
412.74820143884898
 31
0.0
  0
LINE
  5
5B
  8
0
 10
365.5
 20
412.74820143884898
 30
0.0
 11
365.0
 21
413.24820143884892
 31
0.0
  0
LINE
  5
5C
  8
0
 10
365.5
 20
426.74820143884892
 30
0.0
 11
365.0
 21
426.24820143884892
 31
0.0
  0
LINE
  5
5D
  8
0
 10
347.0
 20
428.74820143884909
 30
0.0
 11
346.99999999999989
 21
410.7482014388487
 31
0.0
  0
LINE
  5
5F
  8
1
 10
297.0000000000004
 20
419.74820143884892
 30
0.0
 11
418.5
 21
419.74820143884892
 31
0.0
  0
LINE
  5
60
  8
0
 10
373.0
 20
370.74820143884892
 30
0.0
 11
373.0
 21
468.74820143884892
 31
0.0
  0
LINE
  5
61
  8
0
 10
409.0
 20
405.24820143884881
 30
0.0
 11
409.0
 21
434.24820143884892
 31
0.0
  0
LINE
  5
62
  8
0
 10
385.5
 20
369.74820143884892
 30
0.0
 11
374.0
 21
369.74820143884892
 31
0.0
  0
LINE
  5
63
  8
0
 10
399.0
 20
404.74820143884892
 30
0.0
 11
399.0
 21
434.74820143884898
 31
0.0
  0
ARC
  5
64
  8
0
 10
374.0
 20
370.74820143884892
 30
0.0
 40
1.0
 50
180.00000000000011
 51
270.0
  0
LINE
  5
65
  8
0
 10
387.0
 20
371.24820143884892
 30
0.0
 11
385.5
 21
369.74820143884892
 31
0.0
  0
LINE
  5
66
  8
0
 10
398.7355095289372
 20
403.24820143884892
 30
0.0
 11
398.7355095289372
 21
436.24820143884853
 31
0.0
  0
LINE
  5
67
  8
0
 10
408.49999999999989
 20
434.74820143884881
 30
0.0
 11
409.0
 21
434.24820143884892
 31
0.0
  0
LINE
  5
68
  8
0
 10
399.0
 20
434.74820143884881
 30
0.0
 11
398.7355095289372
 21
436.24820143884892
 31
0.0
  0
LINE
  5
69
  8
0
 10
387.0
 20
468.24820143884892
 30
0.0
 11
385.5
 21
469.74820143884892
 31
0.0
  0
ARC
  5
6A
  8
0
 10
374.0
 20
468.74820143884892
 30
0.0
 40
1.0
 50
90.000000000000014
 51
179.99999999999989
  0
LINE
  5
6B
  8
0
 10
385.5
 20
469.74820143884892
 30
0.0
 11
374.0
 21
469.74820143884892
 31
0.0
  0
LINE
  5
6C
  8
0
 10
408.49999999999989
 20
434.74820143884881
 30
0.0
 11
399.0
 21
434.74820143884881
 31
0.0
  0
LINE
  5
6D
  8
0
 10
387.0
 20
371.24820143884898
 30
0.0
 11
387.0
 21
468.24820143884892
 31
0.0
  0
LINE
  5
6E
  8
0
 10
408.49999999999989
 20
404.74820143884892
 30
0.0
 11
408.49999999999989
 21
434.74820143884881
 31
0.0
  0
LINE
  5
6F
  8
0
 10
392.0
 20
436.24820143884892
 30
0.0
 11
398.7355095289372
 21
436.24820143884892
 31
0.0
  0
LINE
  5
70
  8
0
 10
387.0
 20
434.74820143884989
 30
0.0
 11
392.0
 21
436.24820143884892
 31
0.0
  0
LINE
  5
71
  8
0
 10
398.2479010277454
 20
432.57173410491072
 30
0.0
 11
398.2479010277454
 21
406.92466877278702
 31
0.0
  0
LINE
  5
72
  8
0
 10
393.21169945613241
 20
434.65010934710011
 30
0.0
 11
398.2479010277454
 21
432.5717341049106
 31
0.0
  0
LINE
  5
73
  8
0
 10
387.0
 20
433.94276583168062
 30
0.0
 11
390.81303080298682
 21
434.86353361732569
 31
0.0
  0
LINE
  5
74
  8
0
 10
398.01331603356311
 20
407.05614586269468
 30
0.0
 11
398.01331603356289
 21
432.44025701500311
 31
0.0
  0
LINE
  5
75
  8
0
 10
398.0133160335626
 20
432.440257015003
 30
0.0
 11
398.2479010277454
 21
432.57173410491077
 31
0.0
  0
LINE
  5
76
  8
0
 10
398.0133160335626
 20
432.440257015003
 30
0.0
 11
387.0
 21
431.2290352960361
 31
0.0
  0
ARC
  5
77
  8
0
 10
394.68279507384909
 20
438.21478521099118
 30
0.0
 40
3.856298267910502
 50
225.9176298037421
 51
247.57469366487069
  0
ARC
  5
78
  8
0
 10
390.0969314259869
 20
437.8290033319139
 30
0.0
 40
3.0507063027882388
 50
283.57584465700108
 51
308.59507745256968
  0
LINE
  5
79
  8
0
 10
392.0
 20
435.44465039065813
 30
0.0
 11
392.0
 21
436.24820143884892
 31
0.0
  0
LINE
  5
7A
  8
0
 10
392.0
 20
404.05175248703972
 30
0.0
 11
392.0
 21
403.24820143884892
 31
0.0
  0
ARC
  5
7B
  8
0
 10
390.0969314259869
 20
401.66739954578389
 30
0.0
 40
3.0507063027882388
 50
51.404922547430338
 51
76.424155342998915
  0
ARC
  5
7C
  8
0
 10
394.68279507384909
 20
401.28161766670672
 30
0.0
 40
3.856298267910502
 50
112.42530633512931
 51
134.0823701962579
  0
LINE
  5
7D
  8
0
 10
398.0133160335626
 20
407.05614586269479
 30
0.0
 11
387.0
 21
408.2673675816618
 31
0.0
  0
LINE
  5
7E
  8
0
 10
398.0133160335626
 20
407.05614586269479
 30
0.0
 11
398.2479010277454
 21
406.92466877278707
 31
0.0
  0
LINE
  5
7F
  8
0
 10
387.0
 20
405.55363704601729
 30
0.0
 11
390.81303080298682
 21
404.63286926037199
 31
0.0
  0
LINE
  5
80
  8
0
 10
393.21169945613241
 20
404.84629353059762
 30
0.0
 11
398.2479010277454
 21
406.92466877278707
 31
0.0
  0
LINE
  5
81
  8
0
 10
387.0
 20
404.74820143884801
 30
0.0
 11
392.0
 21
403.24820143884892
 31
0.0
  0
LINE
  5
82
  8
0
 10
392.0
 20
403.24820143884892
 30
0.0
 11
398.7355095289372
 21
403.24820143884892
 31
0.0
  0
LINE
  5
83
  8
0
 10
408.49999999999989
 20
404.74820143884892
 30
0.0
 11
399.0
 21
404.74820143884892
 31
0.0
  0
LINE
  5
84
  8
0
 10
399.0
 20
404.74820143884892
 30
0.0
 11
398.7355095289372
 21
403.24820143884892
 31
0.0
  0
LINE
  5
85
  8
0
 10
408.49999999999989
 20
404.74820143884892
 30
0.0
 11
409.0
 21
405.24820143884881
 31
0.0
  0
LINE
  5
86
  8
0
 10
385.5
 20
369.74820143884892
 30
0.0
 11
385.5
 21
469.74820143884892
 31
0.0
  0
LINE
  5
8F
  8
0
 10
385.5
 20
170.25179856115099
 30
0.0
 11
385.5
 21
70.251798561151048
 31
0.0
  0
LINE
  5
90
  8
0
 10
408.49999999999989
 20
135.25179856115099
 30
0.0
 11
409.0
 21
134.75179856115099
 31
0.0
  0
LINE
  5
91
  8
0
 10
399.0
 20
135.25179856115099
 30
0.0
 11
398.7355095289372
 21
136.75179856115099
 31
0.0
  0
LINE
  5
92
  8
0
 10
408.49999999999989
 20
135.25179856115099
 30
0.0
 11
399.0
 21
135.25179856115099
 31
0.0
  0
LINE
  5
93
  8
0
 10
392.0
 20
136.75179856115099
 30
0.0
 11
398.7355095289372
 21
136.75179856115099
 31
0.0
  0
LINE
  5
94
  8
0
 10
387.0
 20
135.25179856115199
 30
0.0
 11
392.0
 21
136.75179856115099
 31
0.0
  0
LINE
  5
95
  8
0
 10
393.21169945613241
 20
135.15370646940229
 30
0.0
 11
398.2479010277454
 21
133.07533122721281
 31
0.0
  0
LINE
  5
96
  8
0
 10
387.0
 20
134.4463629539826
 30
0.0
 11
390.81303080298682
 21
135.36713073962781
 31
0.0
  0
LINE
  5
97
  8
0
 10
398.0133160335626
 20
132.9438541373051
 30
0.0
 11
398.2479010277454
 21
133.07533122721281
 31
0.0
  0
LINE
  5
98
  8
0
 10
398.0133160335626
 20
132.9438541373051
 30
0.0
 11
387.0
 21
131.7326324183382
 31
0.0
  0
ARC
  5
99
  8
0
 10
394.68279507384909
 20
138.71838233329319
 30
0.0
 40
3.856298267910502
 50
225.9176298037421
 51
247.57469366487069
  0
ARC
  5
9A
  8
0
 10
390.0969314259869
 20
138.33260045421599
 30
0.0
 40
3.0507063027882388
 50
283.57584465700108
 51
308.59507745256968
  0
LINE
  5
9B
  8
0
 10
392.0
 20
135.94824751296019
 30
0.0
 11
392.0
 21
136.75179856115099
 31
0.0
  0
LINE
  5
9C
  8
0
 10
392.0
 20
104.5553496093418
 30
0.0
 11
392.0
 21
103.75179856115101
 31
0.0
  0
ARC
  5
9D
  8
0
 10
390.0969314259869
 20
102.170996668086
 30
0.0
 40
3.0507063027882388
 50
51.404922547430367
 51
76.424155342998944
  0
ARC
  5
9E
  8
0
 10
394.68279507384909
 20
101.7852147890088
 30
0.0
 40
3.856298267910502
 50
112.42530633512931
 51
134.0823701962579
  0
LINE
  5
9F
  8
0
 10
398.0133160335626
 20
107.559742984997
 30
0.0
 11
387.0
 21
108.7709647039639
 31
0.0
  0
LINE
  5
A0
  8
0
 10
398.0133160335626
 20
107.5597429849969
 30
0.0
 11
398.2479010277454
 21
107.4282658950892
 31
0.0
  0
LINE
  5
A1
  8
0
 10
398.01331603356311
 20
132.94385413730521
 30
0.0
 11
398.01331603356289
 21
107.5597429849969
 31
0.0
  0
LINE
  5
A2
  8
0
 10
387.0
 20
106.0572341683194
 30
0.0
 11
390.81303080298682
 21
105.1364663826742
 31
0.0
  0
LINE
  5
A3
  8
0
 10
393.21169945613241
 20
105.3498906528998
 30
0.0
 11
398.2479010277454
 21
107.4282658950893
 31
0.0
  0
LINE
  5
A4
  8
0
 10
398.2479010277454
 20
107.4282658950893
 30
0.0
 11
398.2479010277454
 21
133.0753312272129
 31
0.0
  0
LINE
  5
A5
  8
0
 10
387.0
 20
105.2517985611501
 30
0.0
 11
392.0
 21
103.75179856115101
 31
0.0
  0
LINE
  5
A6
  8
0
 10
392.0
 20
103.75179856115101
 30
0.0
 11
398.7355095289372
 21
103.75179856115101
 31
0.0
  0
LINE
  5
A7
  8
0
 10
408.49999999999989
 20
135.25179856115099
 30
0.0
 11
408.49999999999989
 21
105.25179856115101
 31
0.0
  0
LINE
  5
A8
  8
0
 10
387.0
 20
168.75179856115099
 30
0.0
 11
387.0
 21
71.75179856115102
 31
0.0
  0
LINE
  5
A9
  8
0
 10
408.49999999999989
 20
105.25179856115101
 30
0.0
 11
399.0
 21
105.25179856115101
 31
0.0
  0
LINE
  5
AA
  8
0
 10
385.5
 20
70.251798561151048
 30
0.0
 11
374.0
 21
70.251798561151048
 31
0.0
  0
ARC
  5
AB
  8
0
 10
374.0
 20
71.251798561151048
 30
0.0
 40
1.0
 50
180.00000000000011
 51
270.0
  0
LINE
  5
AC
  8
0
 10
387.0
 20
71.751798561151048
 30
0.0
 11
385.5
 21
70.251798561151048
 31
0.0
  0
LINE
  5
AD
  8
0
 10
399.0
 20
105.25179856115101
 30
0.0
 11
398.7355095289372
 21
103.75179856115101
 31
0.0
  0
LINE
  5
AE
  8
0
 10
408.49999999999989
 20
105.25179856115101
 30
0.0
 11
409.0
 21
105.75179856115101
 31
0.0
  0
LINE
  5
AF
  8
0
 10
398.7355095289372
 20
136.75179856115099
 30
0.0
 11
398.7355095289372
 21
103.7517985611514
 31
0.0
  0
LINE
  5
B0
  8
0
 10
387.0
 20
168.75179856115099
 30
0.0
 11
385.5
 21
170.25179856115099
 31
0.0
  0
ARC
  5
B1
  8
0
 10
374.0
 20
169.25179856115099
 30
0.0
 40
1.0
 50
90.0
 51
179.99999999999989
  0
LINE
  5
B2
  8
0
 10
399.0
 20
135.25179856115099
 30
0.0
 11
399.0
 21
105.25179856115091
 31
0.0
  0
LINE
  5
B3
  8
0
 10
385.5
 20
170.25179856115099
 30
0.0
 11
374.0
 21
170.25179856115099
 31
0.0
  0
LINE
  5
B4
  8
0
 10
409.0
 20
134.75179856115099
 30
0.0
 11
409.0
 21
105.75179856115101
 31
0.0
  0
LINE
  5
B5
  8
0
 10
373.0
 20
169.25179856115099
 30
0.0
 11
373.0
 21
71.251798561151048
 31
0.0
  0
LINE
  5
B6
  8
1
 10
297.5
 20
120.25179856115101
 30
0.0
 11
418.5
 21
120.25179856115101
 31
0.0
  0
LINE
  5
B7
  8
0
 10
347.0
 20
321.50000000000023
 30
0.0
 11
346.99999999999989
 21
303.49999999999977
 31
0.0
  0
LINE
  5
B8
  8
0
 10
372.5
 20
319.5
 30
0.0
 11
372.5
 21
317.39897948556631
 31
0.0
  0
LINE
  5
B9
  8
0
 10
373.0
 20
319.0
 30
0.0
 11
373.0
 21
306.0
 31
0.0
  0
LINE
  5
BA
  8
0
 10
372.5
 20
319.5
 30
0.0
 11
365.5
 21
319.5
 31
0.0
  0
LINE
  5
BB
  8
0
 10
372.5
 20
305.5
 30
0.0
 11
365.5
 21
305.5
 31
0.0
  0
LINE
  5
BC
  8
0
 10
373.0
 20
319.0
 30
0.0
 11
372.5
 21
319.5
 31
0.0
  0
LINE
  5
BD
  8
0
 10
365.5
 20
319.5
 30
0.0
 11
365.0
 21
319.0
 31
0.0
  0
LINE
  5
BE
  8
0
 10
365.5
 20
305.5
 30
0.0
 11
365.0
 21
306.0
 31
0.0
  0
LINE
  5
BF
  8
0
 10
372.5
 20
305.5
 30
0.0
 11
373.0
 21
306.0
 31
0.0
  0
LINE
  5
C0
  8
0
 10
373.0
 20
307.60102051443363
 30
0.0
 11
367.0
 21
307.60102051443363
 31
0.0
  0
LINE
  5
C1
  8
0
 10
373.0
 20
317.39897948556631
 30
0.0
 11
367.0
 21
317.39897948556631
 31
0.0
  0
LINE
  5
C2
  8
0
 10
372.5
 20
307.60102051443369
 30
0.0
 11
372.5
 21
305.5
 31
0.0
  0
LINE
  5
C3
  8
0
 10
365.5
 20
319.5
 30
0.0
 11
365.5
 21
305.5
 31
0.0
  0
LINE
  5
C4
  8
0
 10
365.0
 20
306.01357834465068
 30
0.0
 11
365.0
 21
318.98642165534932
 31
0.0
  0
LINE
  5
C5
  8
0
 10
310.67510683782371
 20
321.50000000000023
 30
0.0
 11
347.0
 21
321.50000000000023
 31
0.0
  0
LINE
  5
C6
  8
0
 10
310.67510683782371
 20
303.49999999999977
 30
0.0
 11
347.0
 21
303.49999999999977
 31
0.0
  0
LINE
  5
C7
  8
0
 10
363.48875203139607
 20
320.583958220478
 30
0.0
 11
347.0
 21
321.50000000000023
 31
0.0
  0
LINE
  5
C8
  8
0
 10
346.99999999999989
 20
303.49999999999977
 30
0.0
 11
363.48875203139607
 21
304.41604177952212
 31
0.0
  0
ARC
  5
C9
  8
0
 10
337.0
 20
312.5
 30
0.0
 40
30.0
 50
167.1604115930954
 51
192.83958840690451
  0
ARC
  5
CA
  8
0
 10
310.67510683782371
 20
318.50000000000023
 30
0.0
 40
3.0
 50
89.999999999999986
 51
167.1604115930956
  0
ARC
  5
CB
  8
0
 10
310.67510683782371
 20
306.49999999999977
 30
0.0
 40
3.0
 50
192.83958840690471
 51
269.99999999999937
  0
ARC
  5
CC
  8
0
 10
363.39999999999998
 20
318.98642165534932
 30
0.0
 40
1.6000000000000001
 50
360.0
 51
86.820169880135012
  0
ARC
  5
CD
  8
0
 10
363.39999999999998
 20
306.01357834465068
 30
0.0
 40
1.6000000000000001
 50
273.1798301198649
 51
360.0
  0
LINE
  5
CE
  8
0
 10
367.0
 20
317.39897948556631
 30
0.0
 11
367.0
 21
307.60102051443363
 31
0.0
  0
LINE
  5
CF
  8
3
 10
373.0
 20
317.39897948556631
 30
0.0
 11
367.0
 21
307.60102051443363
 31
0.0
  0
LINE
  5
D0
  8
3
 10
373.0
 20
307.60102051443363
 30
0.0
 11
367.0
 21
317.39897948556631
 31
0.0
  0
CIRCLE
  5
D1
  8
0
 10
590.83088485348355
 20
270.0
 30
0.0
 40
14.5
  0
CIRCLE
  5
D2
  8
0
 10
590.83088485348355
 20
270.0
 30
0.0
 40
48.499999999999879
  0
LINE
  5
D3
  8
1
 10
590.83088485348355
 20
330.0
 30
0.0
 11
590.83088485348355
 21
210.0
 31
0.0
  0
LINE
  5
D4
  8
1
 10
530.83088485348355
 20
270.0
 30
0.0
 11
650.83088485348355
 21
270.0
 31
0.0
  0
CIRCLE
  5
D5
  8
0
 10
590.83088485348355
 20
270.0
 30
0.0
 40
50.0
  0
CIRCLE
  5
D6
  8
0
 10
590.83088485348355
 20
270.0
 30
0.0
 40
15.0
  0
ARC
  5
D7
  8
0
 10
590.83088485348355
 20
270.0
 30
0.0
 40
17.5
 50
43.50949241802131
 51
136.8176145372764
  0
ARC
  5
D8
  8
0
 10
590.83088485348355
 20
270.0
 30
0.0
 40
32.0
 50
69.361648693304573
 51
110.6383513066954
  0
LINE
  5
D9
  8
0
 10
604.25974413040456
 20
293.12805550400248
 30
0.0
 11
606.10541766663482
 21
277.03001231087859
 31
0.0
  0
ARC
  5
DA
  8
0
 10
590.83088485348355
 20
270.0
 30
0.0
 40
35.0
 50
286.6015495990203
 51
56.195738770072467
  0
ARC
  5
DB
  8
0
 10
609.22720188209985
 20
293.69758468246579
 30
0.0
 40
5.0
 50
52.177988292157799
 51
186.54051936046071
  0
ARC
  5
DC
  8
0
 10
616.04033317002563
 20
278.1690706678051
 30
0.0
 40
10.0
 50
186.54051936046099
 51
197.9548118779058
  0
ARC
  5
DD
  8
0
 10
613.41008296341249
 20
283.87190732064522
 30
0.0
 40
10.0
 50
184.5142150621709
 51
211.56518041260821
  0
CIRCLE
  5
DE
  8
0
 10
590.83088485348355
 20
270.0
 30
0.0
 40
16.499999999999648
  0
ARC
  5
DF
  8
0
 10
590.83088485348355
 20
270.0
 30
0.0
 40
32.0
 50
251.7900431357169
 51
288.2099568642829
  0
ARC
  5
E0
  8
0
 10
590.83088485348355
 20
270.0
 30
0.0
 40
17.5
 50
223.1823854627236
 51
316.4905075819787
  0
ARC
  5
E1
  8
0
 10
613.41008296341249
 20
256.12809267935489
 30
0.0
 40
10.0
 50
148.43481958739179
 51
175.4857849378291
  0
ARC
  5
E2
  8
0
 10
616.04033317002563
 20
261.8309293321949
 30
0.0
 40
10.0
 50
162.0451881220942
 51
173.45948063953901
  0
LINE
  5
E3
  8
0
 10
604.25974413040456
 20
246.8719444959975
 30
0.0
 11
606.10541766663482
 21
262.96998768912152
 31
0.0
  0
ARC
  5
E4
  8
0
 10
609.22720188209985
 20
246.30241531753421
 30
0.0
 40
5.0
 50
173.45948063953929
 51
307.82201170784219
  0
ARC
  5
E5
  8
0
 10
590.83088485348355
 20
270.0
 30
0.0
 40
35.0
 50
71.646867175921244
 51
108.3531328240786
  0
LINE
  5
E6
  8
0
 10
602.53711815702923
 20
294.53476067583949
 30
0.0
 11
603.44110458963019
 21
283.08484303924052
 31
0.0
  0
ARC
  5
E7
  8
0
 10
590.83088485348355
 20
270.0
 30
0.0
 40
39.0
 50
327.79577249602818
 51
332.20422750397182
  0
ARC
  5
E8
  8
0
 10
590.83088485348355
 20
270.0
 30
0.0
 40
37.0
 50
327.67656138894802
 51
332.3234386110521
  0
ARC
  5
E9
  8
0
 10
607.52160734392021
 20
245.07170718345819
 30
0.0
 40
5.0
 50
175.4857849378291
 51
303.80426122992787
  0
POLYLINE
  5
EA
  8
0
 66
     1
 10
0.0
 20
0.0
 30
0.0
 70
     1
  0
VERTEX
  5
EB
  8
0
 10
630.7452684174724
 20
252.9818218468933
 30
0.0
 42
0.0893232439426742
 50
30.000000000000021
  0
VERTEX
  5
EC
  8
0
 10
633.10262894466348
 20
255.449786185584
 30
0.0
 42
0.0972404220826799
 50
30.000000000000021
  0
VERTEX
  5
ED
  8
0
 10
634.29754703649144
 20
258.35314297038661
 30
0.0
 42
0.080802073766718
 50
30.000000000000021
  0
VERTEX
  5
EE
  8
0
 10
634.64163105429816
 20
261.7637729253787
 30
0.0
 42
0.0893232439426677
 50
30.000000000000021
  0
VERTEX
  5
EF
  8
0
 10
633.90684407284755
 20
264.7809828247253
 30
0.0
 42
0.1047843638035326
 50
30.000000000000021
  0
VERTEX
  5
F0
  8
0
 10
632.13944419468908
 20
267.22620813303161
 30
0.0
 42
0.1191409555593041
 50
30.000000000000021
  0
VERTEX
  5
F1
  8
0
 10
629.80202802378335
 20
268.50000000000011
 30
0.0
 50
30.000000000000021
  0
VERTEX
  5
F2
  8
0
 10
627.80046694471116
 20
268.5
 30
0.0
 42
0.3245241248980122
 50
30.000000000000021
  0
VERTEX
  5
F3
  8
0
 10
627.47930944703955
 20
268.37698282827603
 30
0.0
 42
0.0453220690922563
 50
30.000000000000021
  0
VERTEX
  5
F4
  8
0
 10
626.43493597672295
 20
266.40384140742992
 30
0.0
 42
0.0196189583231888
 50
30.000000000000021
  0
VERTEX
  5
F5
  8
0
 10
625.59786878971283
 20
264.15953396865717
 30
0.0
 42
0.0139910511837911
 50
30.000000000000021
  0
VERTEX
  5
F6
  8
0
 10
624.63828877360072
 20
260.94133342141191
 30
0.0
 42
0.0139910511837781
 50
30.000000000000021
  0
VERTEX
  5
F7
  8
0
 10
623.86020917089479
 20
257.67449998496801
 30
0.0
 42
0.0196189583231635
 50
30.000000000000021
  0
VERTEX
  5
F8
  8
0
 10
623.46297690013375
 20
255.3123391355837
 30
0.0
 42
0.0453220690922586
 50
30.000000000000021
  0
VERTEX
  5
F9
  8
0
 10
623.38086014604346
 20
253.08136180471351
 30
0.0
 42
0.3245241248980435
 50
30.000000000000021
  0
VERTEX
  5
FA
  8
0
 10
623.59748211178078
 20
252.81424706006291
 30
0.0
 50
30.000000000000021
  0
VERTEX
  5
FB
  8
0
 10
625.33088485348367
 20
251.8134665205267
 30
0.0
 42
0.119140955559289
 50
30.000000000000021
  0
VERTEX
  5
FC
  8
0
 10
627.99204257018846
 20
251.7478945510027
 30
0.0
 42
0.1047843638035264
 50
30.000000000000021
  0
SEQEND
  5
FD
  8
0
  0
ARC
  5
FE
  8
0
 10
590.83088485348355
 20
270.0
 30
0.0
 40
37.0
 50
357.67656138894802
 51
2.3234386110520329
  0
ARC
  5
FF
  8
0
 10
590.83088485348355
 20
270.0
 30
0.0
 40
39.0
 50
357.79577249602818
 51
2.2042275039718131
  0
POLYLINE
  5
100
  8
0
 66
     1
 10
0.0
 20
0.0
 30
0.0
 70
     1
  0
VERTEX
  5
101
  8
0
 10
633.90684407284732
 20
275.21901717527459
 30
0.0
 42
0.0893232439426742
 50
59.999999999999993
  0
VERTEX
  5
102
  8
0
 10
634.71439600592805
 20
278.53501725181047
 30
0.0
 42
0.0972404220826799
 50
59.999999999999993
  0
VERTEX
  5
103
  8
0
 10
634.29754703649144
 20
281.64685702961322
 30
0.0
 42
0.080802073766718
 50
59.999999999999993
  0
VERTEX
  5
104
  8
0
 10
632.89021755945214
 20
284.772591222448
 30
0.0
 42
0.0893232439426677
 50
59.999999999999993
  0
VERTEX
  5
105
  8
0
 10
630.74526841747263
 20
287.0181781531067
 30
0.0
 42
0.1047843638035326
 50
59.999999999999993
  0
VERTEX
  5
106
  8
0
 10
627.99204257018857
 20
288.25210544899733
 30
0.0
 42
0.1191409555593041
 50
59.999999999999993
  0
VERTEX
  5
107
  8
0
 10
625.33088485348355
 20
288.18653347947333
 30
0.0
 50
59.999999999999993
  0
VERTEX
  5
108
  8
0
 10
623.59748211178089
 20
287.185752939937
 30
0.0
 42
0.3245241248980122
 50
59.999999999999993
  0
VERTEX
  5
109
  8
0
 10
623.38086014604346
 20
286.91863819528658
 30
0.0
 42
0.0453220690922563
 50
59.999999999999993
  0
VERTEX
  5
10A
  8
0
 10
623.46297690013375
 20
284.68766086441639
 30
0.0
 42
0.0196189583231888
 50
59.999999999999993
  0
VERTEX
  5
10B
  8
0
 10
623.8602091708949
 20
282.32550001503171
 30
0.0
 42
0.0139910511837911
 50
59.999999999999993
  0
VERTEX
  5
10C
  8
0
 10
624.63828877360061
 20
279.05866657858809
 30
0.0
 42
0.0139910511837781
 50
59.999999999999993
  0
VERTEX
  5
10D
  8
0
 10
625.59786878971283
 20
275.84046603134232
 30
0.0
 42
0.0196189583231635
 50
59.999999999999993
  0
VERTEX
  5
10E
  8
0
 10
626.43493597672284
 20
273.59615859257002
 30
0.0
 42
0.0453220690922586
 50
59.999999999999993
  0
VERTEX
  5
10F
  8
0
 10
627.47930944703944
 20
271.62301717172397
 30
0.0
 42
0.3245241248980435
 50
59.999999999999993
  0
VERTEX
  5
110
  8
0
 10
627.80046694471105
 20
271.5
 30
0.0
 50
59.999999999999993
  0
VERTEX
  5
111
  8
0
 10
629.80202802378335
 20
271.5
 30
0.0
 42
0.119140955559289
 50
59.999999999999993
  0
VERTEX
  5
112
  8
0
 10
632.13944419468874
 20
272.77379186696839
 30
0.0
 42
0.1047843638035264
 50
59.999999999999993
  0
SEQEND
  5
113
  8
0
  0
ARC
  5
114
  8
0
 10
590.83088485348355
 20
270.0
 30
0.0
 40
37.0
 50
27.676561388947921
 51
32.323438611052012
  0
ARC
  5
115
  8
0
 10
590.83088485348355
 20
270.0
 30
0.0
 40
39.0
 50
27.795772496028139
 51
32.204227503971801
  0
POLYLINE
  5
116
  8
0
 66
     1
 10
0.0
 20
0.0
 30
0.0
 70
     1
  0
VERTEX
  5
117
  8
0
 10
625.52625124219776
 20
296.05778106625689
 30
0.0
 42
0.0893232439426742
 50
90.0
  0
VERTEX
  5
118
  8
0
 10
624.56761169285312
 20
299.3332973380285
 30
0.0
 42
0.0972404220826799
 50
90.0
  0
VERTEX
  5
119
  8
0
 10
622.65069000687822
 20
301.81980515339433
 30
0.0
 42
0.080802073766718
 50
90.0
  0
VERTEX
  5
11A
  8
0
 10
619.86903983185005
 20
303.82310563134718
 30
0.0
 42
0.0893232439426677
 50
90.0
  0
VERTEX
  5
11B
  8
0
 10
616.8886659197409
 20
304.69536638871409
 30
0.0
 42
0.1047843638035326
 50
90.0
  0
VERTEX
  5
11C
  8
0
 10
613.88733874569175
 20
304.38736584973663
 30
0.0
 42
0.1191409555593041
 50
90.0
  0
VERTEX
  5
11D
  8
0
 10
611.6154945443102
 20
303.00000000000011
 30
0.0
 50
90.0
  0
VERTEX
  5
11E
  8
0
 10
610.61471400477421
 20
301.26659725829728
 30
0.0
 42
0.3245241248980122
 50
90.0
  0
VERTEX
  5
11F
  8
0
 10
610.56067125175309
 20
300.92695812083582
 30
0.0
 42
0.0453220690922563
 50
90.0
  0
VERTEX
  5
120
  8
0
 10
611.74727511230674
 20
299.03593345408012
 30
0.0
 42
0.0196189583231888
 50
90.0
  0
VERTEX
  5
121
  8
0
 10
613.27236877468124
 20
297.18885828606858
 30
0.0
 42
0.0139910511837911
 50
90.0
  0
VERTEX
  5
122
  8
0
 10
615.57962219501258
 20
294.74873734152891
 30
0.0
 42
0.0139910511837781
 50
90.0
  0
VERTEX
  5
123
  8
0
 10
618.01974313955247
 20
292.44148392119712
 30
0.0
 42
0.0196189583231635
 50
90.0
  0
VERTEX
  5
124
  8
0
 10
619.86681830756368
 20
290.9163902588229
 30
0.0
 42
0.0453220690922586
 50
90.0
  0
VERTEX
  5
125
  8
0
 10
621.75784297431926
 20
289.7297863982692
 30
0.0
 42
0.3245241248980435
 50
90.0
  0
VERTEX
  5
126
  8
0
 10
622.09748211178089
 20
289.78382915129038
 30
0.0
 50
90.0
  0
VERTEX
  5
127
  8
0
 10
623.83088485348367
 20
290.78460969082653
 30
0.0
 42
0.119140955559289
 50
90.0
  0
VERTEX
  5
128
  8
0
 10
625.21825070322018
 20
293.0564538922078
 30
0.0
 42
0.1047843638035264
 50
90.0
  0
SEQEND
  5
129
  8
0
  0
ARC
  5
12A
  8
0
 10
607.52160734392032
 20
294.9282928165419
 30
0.0
 40
5.0
 50
56.195738770072538
 51
184.51421506217099
  0
LINE
  5
12B
  8
0
 10
602.53711815702911
 20
245.46523932416059
 30
0.0
 11
603.44110458963019
 21
256.91515696075948
 31
0.0
  0
TEXT
  5
12C
  8
0
 10
598.03734680158891
 20
237.51938243657241
 30
0.0
 40
3.5
  1
S
 50
190.5
 72
     4
 11
597.20912824570894
 21
235.5860782352614
 31
0.0
  0
TEXT
  5
12D
  8
0
 10
592.2844018242896
 20
236.77666383107541
 30
0.0
 40
3.5
  1
1
 50
181.49999999999989
 72
     4
 11
591.7470780442593
 21
235.0119936258553
 31
0.0
  0
TEXT
  5
12E
  8
0
 10
589.09442258754927
 20
236.78384694461141
 30
0.0
 40
3.5
  1
0
 50
175.5
 72
     4
 11
588.08481650300916
 21
235.10789331934029
 31
0.0
  0
TEXT
  5
12F
  8
0
 10
585.63190167498828
 20
237.14731823869269
 30
0.0
 40
3.5
  1
0
 50
169.5
 72
     4
 11
584.45264146125851
 21
235.5860782352614
 31
0.0
  0
ARC
  5
130
  8
0
 10
590.83088485348355
 20
270.0
 30
0.0
 40
34.999999999999972
 50
274.5
 51
277.5
  0
ARC
  5
131
  8
0
 10
590.83088485348355
 20
270.0
 30
0.0
 40
39.00000000000405
 50
237.79577249602829
 51
302.20422750397182
  0
ARC
  5
132
  8
0
 10
590.83088485348355
 20
270.0
 30
0.0
 40
39.00000000000405
 50
57.795772496028228
 51
87.274460712951807
  0
LINE
  5
133
  8
0
 10
600.83088485348378
 20
236.45898033750291
 30
0.0
 11
600.83088485348355
 21
234.68711283397749
 31
0.0
  0
LINE
  5
134
  8
0
 10
580.83088485348355
 20
236.45898033750311
 30
0.0
 11
580.83088485348355
 21
234.6871128339771
 31
0.0
  0
LINE
  5
135
  8
0
 10
579.12465154993811
 20
245.46523932416059
 30
0.0
 11
578.22066511733715
 21
256.91515696075948
 31
0.0
  0
ARC
  5
136
  8
0
 10
574.14016236304712
 20
294.9282928165419
 30
0.0
 40
5.0
 50
355.48578493782901
 51
123.8042612299275
  0
POLYLINE
  5
137
  8
0
 66
     1
 10
0.0
 20
0.0
 30
0.0
 70
     1
  0
VERTEX
  5
138
  8
0
 10
556.13551846476958
 20
296.05778106625689
 30
0.0
 42
-0.0893232439426742
  0
VERTEX
  5
139
  8
0
 10
557.09415801411433
 20
299.3332973380285
 30
0.0
 42
-0.0972404220826799
  0
VERTEX
  5
13A
  8
0
 10
559.01107970008923
 20
301.81980515339433
 30
0.0
 42
-0.080802073766718
  0
VERTEX
  5
13B
  8
0
 10
561.79272987511729
 20
303.82310563134718
 30
0.0
 42
-0.0893232439426677
  0
VERTEX
  5
13C
  8
0
 10
564.77310378722655
 20
304.69536638871409
 30
0.0
 42
-0.1047843638035326
  0
VERTEX
  5
13D
  8
0
 10
567.7744309612757
 20
304.38736584973663
 30
0.0
 42
-0.1191409555593041
  0
VERTEX
  5
13E
  8
0
 10
570.04627516265714
 20
303.00000000000011
 30
0.0
  0
VERTEX
  5
13F
  8
0
 10
571.04705570219323
 20
301.26659725829728
 30
0.0
 42
-0.3245241248980122
  0
VERTEX
  5
140
  8
0
 10
571.10109845521436
 20
300.92695812083582
 30
0.0
 42
-0.0453220690922563
  0
VERTEX
  5
141
  8
0
 10
569.9144945946606
 20
299.03593345408012
 30
0.0
 42
-0.0196189583231888
  0
VERTEX
  5
142
  8
0
 10
568.38940093228621
 20
297.18885828606858
 30
0.0
 42
-0.0139910511837911
  0
VERTEX
  5
143
  8
0
 10
566.08214751195464
 20
294.74873734152891
 30
0.0
 42
-0.0139910511837781
  0
VERTEX
  5
144
  8
0
 10
563.64202656741475
 20
292.44148392119712
 30
0.0
 42
-0.0196189583231635
  0
VERTEX
  5
145
  8
0
 10
561.79495139940354
 20
290.9163902588229
 30
0.0
 42
-0.0453220690922586
  0
VERTEX
  5
146
  8
0
 10
559.90392673264785
 20
289.7297863982692
 30
0.0
 42
-0.3245241248980435
  0
VERTEX
  5
147
  8
0
 10
559.56428759518644
 20
289.78382915129038
 30
0.0
  0
VERTEX
  5
148
  8
0
 10
557.83088485348355
 20
290.78460969082653
 30
0.0
 42
-0.119140955559289
  0
VERTEX
  5
149
  8
0
 10
556.44351900374716
 20
293.0564538922078
 30
0.0
 42
-0.1047843638035264
  0
SEQEND
  5
14A
  8
0
  0
ARC
  5
14B
  8
0
 10
590.83088485348355
 20
270.0
 30
0.0
 40
39.0
 50
147.79577249602821
 51
152.20422750397191
  0
ARC
  5
14C
  8
0
 10
590.83088485348355
 20
270.0
 30
0.0
 40
37.0
 50
147.67656138894799
 51
152.3234386110521
  0
POLYLINE
  5
14D
  8
0
 66
     1
 10
0.0
 20
0.0
 30
0.0
 70
     1
  0
VERTEX
  5
14E
  8
0
 10
547.75492563412013
 20
275.21901717527459
 30
0.0
 42
-0.0893232439426742
  0
VERTEX
  5
14F
  8
0
 10
546.94737370103917
 20
278.53501725181047
 30
0.0
 42
-0.0972404220826799
  0
VERTEX
  5
150
  8
0
 10
547.36422267047601
 20
281.64685702961322
 30
0.0
 42
-0.080802073766718
  0
VERTEX
  5
151
  8
0
 10
548.77155214751531
 20
284.772591222448
 30
0.0
 42
-0.0893232439426677
  0
VERTEX
  5
152
  8
0
 10
550.91650128949482
 20
287.0181781531067
 30
0.0
 42
-0.1047843638035326
  0
VERTEX
  5
153
  8
0
 10
553.66972713677865
 20
288.25210544899733
 30
0.0
 42
-0.1191409555593041
  0
VERTEX
  5
154
  8
0
 10
556.33088485348378
 20
288.18653347947333
 30
0.0
  0
VERTEX
  5
155
  8
0
 10
558.06428759518633
 20
287.185752939937
 30
0.0
 42
-0.3245241248980122
  0
VERTEX
  5
156
  8
0
 10
558.28090956092376
 20
286.91863819528658
 30
0.0
 42
-0.0453220690922563
  0
VERTEX
  5
157
  8
0
 10
558.19879280683347
 20
284.68766086441639
 30
0.0
 42
-0.0196189583231888
  0
VERTEX
  5
158
  8
0
 10
557.80156053607232
 20
282.32550001503171
 30
0.0
 42
-0.0139910511837911
  0
VERTEX
  5
159
  8
0
 10
557.02348093336673
 20
279.05866657858809
 30
0.0
 42
-0.0139910511837781
  0
VERTEX
  5
15A
  8
0
 10
556.06390091725461
 20
275.84046603134232
 30
0.0
 42
-0.0196189583231635
  0
VERTEX
  5
15B
  8
0
 10
555.22683373024449
 20
273.59615859257002
 30
0.0
 42
-0.0453220690922586
  0
VERTEX
  5
15C
  8
0
 10
554.18246025992789
 20
271.62301717172397
 30
0.0
 42
-0.3245241248980435
  0
VERTEX
  5
15D
  8
0
 10
553.86130276225617
 20
271.5
 30
0.0
  0
VERTEX
  5
15E
  8
0
 10
551.85974168318387
 20
271.5
 30
0.0
 42
-0.119140955559289
  0
VERTEX
  5
15F
  8
0
 10
549.5223255122786
 20
272.77379186696839
 30
0.0
 42
-0.1047843638035264
  0
SEQEND
  5
160
  8
0
  0
ARC
  5
161
  8
0
 10
590.83088485348355
 20
270.0
 30
0.0
 40
39.0
 50
177.79577249602821
 51
182.20422750397179
  0
ARC
  5
162
  8
0
 10
590.83088485348355
 20
270.0
 30
0.0
 40
37.0
 50
177.67656138894799
 51
182.3234386110521
  0
POLYLINE
  5
163
  8
0
 66
     1
 10
0.0
 20
0.0
 30
0.0
 70
     1
  0
VERTEX
  5
164
  8
0
 10
550.91650128949505
 20
252.9818218468933
 30
0.0
 42
-0.0893232439426742
  0
VERTEX
  5
165
  8
0
 10
548.55914076230385
 20
255.449786185584
 30
0.0
 42
-0.0972404220826799
  0
VERTEX
  5
166
  8
0
 10
547.36422267047578
 20
258.35314297038661
 30
0.0
 42
-0.080802073766718
  0
VERTEX
  5
167
  8
0
 10
547.02013865266917
 20
261.7637729253787
 30
0.0
 42
-0.0893232439426677
  0
VERTEX
  5
168
  8
0
 10
547.75492563411979
 20
264.7809828247253
 30
0.0
 42
-0.1047843638035326
  0
VERTEX
  5
169
  8
0
 10
549.52232551227826
 20
267.22620813303161
 30
0.0
 42
-0.1191409555593041
  0
VERTEX
  5
16A
  8
0
 10
551.85974168318387
 20
268.50000000000011
 30
0.0
  0
VERTEX
  5
16B
  8
0
 10
553.86130276225606
 20
268.5
 30
0.0
 42
-0.3245241248980122
  0
VERTEX
  5
16C
  8
0
 10
554.18246025992778
 20
268.37698282827603
 30
0.0
 42
-0.0453220690922563
  0
VERTEX
  5
16D
  8
0
 10
555.22683373024427
 20
266.40384140742992
 30
0.0
 42
-0.0196189583231888
  0
VERTEX
  5
16E
  8
0
 10
556.0639009172545
 20
264.15953396865717
 30
0.0
 42
-0.0139910511837911
  0
VERTEX
  5
16F
  8
0
 10
557.02348093336673
 20
260.94133342141191
 30
0.0
 42
-0.0139910511837781
  0
VERTEX
  5
170
  8
0
 10
557.80156053607254
 20
257.67449998496801
 30
0.0
 42
-0.0196189583231635
  0
VERTEX
  5
171
  8
0
 10
558.19879280683358
 20
255.3123391355837
 30
0.0
 42
-0.0453220690922586
  0
VERTEX
  5
172
  8
0
 10
558.28090956092387
 20
253.08136180471351
 30
0.0
 42
-0.3245241248980435
  0
VERTEX
  5
173
  8
0
 10
558.06428759518656
 20
252.81424706006291
 30
0.0
  0
VERTEX
  5
174
  8
0
 10
556.33088485348367
 20
251.8134665205267
 30
0.0
 42
-0.119140955559289
  0
VERTEX
  5
175
  8
0
 10
553.66972713677876
 20
251.7478945510027
 30
0.0
 42
-0.1047843638035264
  0
SEQEND
  5
176
  8
0
  0
ARC
  5
177
  8
0
 10
574.14016236304712
 20
245.07170718345819
 30
0.0
 40
5.0
 50
236.19573877007221
 51
4.5142150621709369
  0
ARC
  5
178
  8
0
 10
590.83088485348355
 20
270.0
 30
0.0
 40
37.0
 50
207.67656138894799
 51
212.3234386110521
  0
ARC
  5
179
  8
0
 10
590.83088485348355
 20
270.0
 30
0.0
 40
39.0
 50
207.79577249602821
 51
212.20422750397191
  0
LINE
  5
17A
  8
0
 10
579.12465154993811
 20
294.53476067583949
 30
0.0
 11
578.22066511733715
 21
283.08484303924052
 31
0.0
  0
ARC
  5
17B
  8
0
 10
572.43456782486726
 20
246.30241531753421
 30
0.0
 40
5.0
 50
232.17798829215781
 51
6.540519360460701
  0
LINE
  5
17C
  8
0
 10
577.40202557656289
 20
246.8719444959975
 30
0.0
 11
575.55635204033263
 21
262.96998768912152
 31
0.0
  0
ARC
  5
17D
  8
0
 10
565.62143653694159
 20
261.8309293321949
 30
0.0
 40
10.0
 50
6.5405193604609799
 51
17.954811877905779
  0
ARC
  5
17E
  8
0
 10
568.25168674355496
 20
256.12809267935489
 30
0.0
 40
10.0
 50
4.5142150621709121
 51
31.565180412608239
  0
ARC
  5
17F
  8
0
 10
568.25168674355496
 20
283.87190732064522
 30
0.0
 40
10.0
 50
328.43481958739181
 51
355.48578493782912
  0
ARC
  5
180
  8
0
 10
565.62143653694159
 20
278.1690706678051
 30
0.0
 40
10.0
 50
342.04518812209432
 51
353.45948063953898
  0
ARC
  5
181
  8
0
 10
572.43456782486726
 20
293.69758468246579
 30
0.0
 40
5.0
 50
353.45948063953932
 51
127.82201170784219
  0
ARC
  5
182
  8
0
 10
590.83088485348355
 20
270.0
 30
0.0
 40
35.0
 50
123.8042612299275
 51
253.39845040097981
  0
LINE
  5
183
  8
0
 10
577.40202557656289
 20
293.12805550400248
 30
0.0
 11
575.55635204033263
 21
277.03001231087859
 31
0.0
  0
POLYLINE
  5
184
  8
0
 66
     1
 10
0.0
 20
0.0
 30
0.0
 70
     1
  0
VERTEX
  5
185
  8
0
 10
611.74727511230674
 20
240.96406654591991
 30
0.0
 42
-0.0196189583231889
  0
VERTEX
  5
186
  8
0
 10
613.27236877468124
 20
242.81114171393139
 30
0.0
 42
-0.013991051183791
  0
VERTEX
  5
187
  8
0
 10
615.57962219501258
 20
245.25126265847109
 30
0.0
 42
-0.0139910511837781
  0
VERTEX
  5
188
  8
0
 10
618.01974313955247
 20
247.55851607880291
 30
0.0
 42
-0.0196189583231635
  0
VERTEX
  5
189
  8
0
 10
619.86681830756368
 20
249.0836097411771
 30
0.0
 42
-0.0453220690922586
  0
VERTEX
  5
18A
  8
0
 10
621.75784297431926
 20
250.2702136017308
 30
0.0
 42
-0.324524124898038
  0
VERTEX
  5
18B
  8
0
 10
622.09748211178089
 20
250.2161708487096
 30
0.0
  0
VERTEX
  5
18C
  8
0
 10
623.83088485348367
 20
249.21539030917339
 30
0.0
 42
-0.1191409555592898
  0
VERTEX
  5
18D
  8
0
 10
625.21825070322018
 20
246.9435461077922
 30
0.0
 42
-0.1047843638035259
  0
VERTEX
  5
18E
  8
0
 10
625.52625124219776
 20
243.94221893374311
 30
0.0
 42
-0.0893232439426742
  0
VERTEX
  5
18F
  8
0
 10
624.56761169285312
 20
240.6667026619715
 30
0.0
 42
-0.0972404220826801
  0
VERTEX
  5
190
  8
0
 10
622.65069000687822
 20
238.1801948466057
 30
0.0
 42
-0.0808020737667178
  0
VERTEX
  5
191
  8
0
 10
619.86903983185005
 20
236.1768943686528
 30
0.0
 42
-0.0893232439426679
  0
VERTEX
  5
192
  8
0
 10
616.8886659197409
 20
235.30463361128579
 30
0.0
 42
-0.1047843638035324
  0
VERTEX
  5
193
  8
0
 10
613.88733874569175
 20
235.6126341502634
 30
0.0
 42
-0.1191409555593039
  0
VERTEX
  5
194
  8
0
 10
611.6154945443102
 20
236.99999999999989
 30
0.0
  0
VERTEX
  5
195
  8
0
 10
610.61471400477421
 20
238.73340274170269
 30
0.0
 42
-0.3245241248980221
  0
VERTEX
  5
196
  8
0
 10
610.56067125175309
 20
239.07304187916409
 30
0.0
 42
-0.0453220690922562
  0
SEQEND
  5
197
  8
0
  0
POLYLINE
  5
198
  8
0
 66
     1
 10
0.0
 20
0.0
 30
0.0
 70
     1
  0
VERTEX
  5
199
  8
0
 10
564.77310378722655
 20
235.30463361128579
 30
0.0
 42
0.1047843638035324
  0
VERTEX
  5
19A
  8
0
 10
567.7744309612757
 20
235.6126341502634
 30
0.0
 42
0.1191409555593037
  0
VERTEX
  5
19B
  8
0
 10
570.04627516265714
 20
237.0
 30
0.0
  0
VERTEX
  5
19C
  8
0
 10
571.04705570219323
 20
238.73340274170269
 30
0.0
 42
0.3245241248980221
  0
VERTEX
  5
19D
  8
0
 10
571.10109845521436
 20
239.07304187916409
 30
0.0
 42
0.0453220690922562
  0
VERTEX
  5
19E
  8
0
 10
569.9144945946606
 20
240.96406654591991
 30
0.0
 42
0.0196189583231889
  0
VERTEX
  5
19F
  8
0
 10
568.38940093228621
 20
242.81114171393139
 30
0.0
 42
0.013991051183791
  0
VERTEX
  5
1A0
  8
0
 10
566.08214751195464
 20
245.25126265847121
 30
0.0
 42
0.0139910511837781
  0
VERTEX
  5
1A1
  8
0
 10
563.64202656741475
 20
247.55851607880291
 30
0.0
 42
0.0196189583231635
  0
VERTEX
  5
1A2
  8
0
 10
561.79495139940354
 20
249.0836097411771
 30
0.0
 42
0.0453220690922586
  0
VERTEX
  5
1A3
  8
0
 10
559.90392673264785
 20
250.2702136017308
 30
0.0
 42
0.3245241248980379
  0
VERTEX
  5
1A4
  8
0
 10
559.56428759518644
 20
250.2161708487096
 30
0.0
  0
VERTEX
  5
1A5
  8
0
 10
557.83088485348355
 20
249.21539030917339
 30
0.0
 42
0.1191409555592898
  0
VERTEX
  5
1A6
  8
0
 10
556.44351900374716
 20
246.9435461077922
 30
0.0
 42
0.1047843638035261
  0
VERTEX
  5
1A7
  8
0
 10
556.13551846476958
 20
243.94221893374311
 30
0.0
 42
0.0893232439426742
  0
VERTEX
  5
1A8
  8
0
 10
557.09415801411433
 20
240.6667026619715
 30
0.0
 42
0.0972404220826801
  0
VERTEX
  5
1A9
  8
0
 10
559.01107970008923
 20
238.1801948466057
 30
0.0
 42
0.0808020737667178
  0
VERTEX
  5
1AA
  8
0
 10
561.79272987511729
 20
236.1768943686528
 30
0.0
 42
0.0893232439426679
  0
SEQEND
  5
1AB
  8
0
  0
ARC
  5
1AC
  8
0
 10
583.83088485348355
 20
234.6871128339771
 30
0.0
 40
3.0
 50
180.0
 51
258.78772858235209
  0
ARC
  5
1AD
  8
0
 10
597.83088485348367
 20
234.68711283397749
 30
0.0
 40
3.0
 50
281.21227141764859
 51
359.99999999999949
  0
LINE
  5
1AE
  8
1
 10
576.83088485348355
 20
312.5
 30
0.0
 11
604.83088485348355
 21
312.5
 31
0.0
  0
CIRCLE
  5
1AF
  8
3
 10
590.83088485348355
 20
312.5
 30
0.0
 40
4.0
  0
CIRCLE
  5
1B0
  8
0
 10
590.83088485348355
 20
312.5
 30
0.0
 40
3.3235000000000001
  0
ARC
  5
1B1
  8
0
 10
590.83088485348355
 20
270.0
 30
0.0
 40
39.00000000000405
 50
92.725539287048193
 51
122.20422750397179
  0
LINE
  5
1B2
  8
0
 10
408.49999999999989
 20
285.0
 30
0.0
 11
408.49999999999989
 21
255.00000000000011
 31
0.0
  0
LINE
  5
1B3
  8
0
 10
408.49999999999989
 20
255.00000000000011
 30
0.0
 11
399.0
 21
255.00000000000011
 31
0.0
  0
ARC
  5
1B4
  8
0
 10
395.013316033563
 20
253.7395616102184
 30
0.0
 40
3.0
 50
315.10042460030468
 51
327.321334863468
  0
ARC
  5
1B5
  8
0
 10
400.0635873701948
 20
250.50000000000011
 30
0.0
 40
3.0
 50
117.5616915490329
 51
147.32133486346811
  0
LINE
  5
1B6
  8
0
 10
399.0
 20
255.00000000000011
 30
0.0
 11
398.67547714537551
 21
253.15953943451751
 31
0.0
  0
LINE
  5
1B7
  8
0
 10
398.013316033563
 20
252.69006562600151
 30
0.0
 11
398.013316033563
 21
258.95264909672181
 31
0.0
  0
LINE
  5
1B8
  8
0
 10
387.0
 20
241.44800918255061
 30
0.0
 11
397.13835123962912
 21
251.62196264606601
 31
0.0
  0
LINE
  5
1B9
  8
0
 10
387.0
 20
252.5630585013071
 30
0.0
 11
391.58742217045318
 21
260.38072820351971
 31
0.0
  0
LINE
  5
1BA
  8
0
 10
387.0
 20
243.96119686673791
 30
0.0
 11
397.38115038548318
 21
257.30506680941892
 31
0.0
  0
LINE
  5
1BB
  8
0
 10
392.0
 20
261.89903203077142
 30
0.0
 11
392.0
 21
270.0
 31
0.0
  0
LINE
  5
1BC
  8
0
 10
387.70942162233121
 20
259.41879879234369
 30
0.0
 11
387.0
 21
258.05551966095902
 31
0.0
  0
LINE
  5
1BD
  8
0
 10
398.013316033563
 20
259.61698454386078
 30
0.0
 11
393.21169945613269
 21
263.18182279159652
 31
0.0
  0
LINE
  5
1BE
  8
0
 10
390.81303080298687
 20
263.18105952707901
 30
0.0
 11
388.04818401387598
 21
261.0838239897779
 31
0.0
  0
ARC
  5
1BF
  8
0
 10
385.04818401387598
 20
260.80365055023822
 30
0.0
 40
3.0
 50
332.50848480968767
 51
343.76529153002213
  0
ARC
  5
1C0
  8
0
 10
389.0
 20
261.89903203077142
 30
0.0
 40
3.0
 50
329.59551517802407
 51
0.0
  0
ARC
  5
1C1
  8
0
 10
395.013316033563
 20
259.14717442893152
 30
0.0
 40
3.0
 50
322.11810152392133
 51
356.28223150940022
  0
ARC
  5
1C2
  8
0
 10
395.0
 20
265.590552989191
 30
0.0
 40
3.0
 50
180.00000000000011
 51
233.4088986720335
  0
ARC
  5
1C3
  8
0
 10
389.0
 20
265.57123092415929
 30
0.0
 40
3.0
 50
307.18162268082028
 51
0.0
  0
ARC
  5
1C4
  8
0
 10
386.48836999922497
 20
260.38428874031848
 30
0.0
 40
1.5000000000000331
 50
343.76518642808992
 51
52.818377319179199
  0
ARC
  5
1C5
  8
0
 10
399.50384604281658
 20
258.85538643061722
 30
0.0
 40
1.5
 50
126.5911013279656
 51
176.2822315094005
  0
LINE
  5
1C6
  8
0
 10
385.5
 20
320.0
 30
0.0
 11
385.5
 21
220.0
 31
0.0
  0
ARC
  5
1C7
  8
2
 10
150.0
 20
270.0
 30
0.0
 40
50.0
 50
83.813546502071134
 51
96.186453497928881
  0
ARC
  5
1C8
  8
2
 10
150.0
 20
270.0
 30
0.0
 40
35.000000000000007
 50
82.604231754104205
 51
97.395768245895809
  0
CIRCLE
  5
1C9
  8
0
 10
150.0
 20
312.5
 30
0.0
 40
9.0
  0
LINE
  5
1CA
  8
1
 10
169.0
 20
312.5
 30
0.0
 11
131.0
 21
312.5
 31
0.0
  0
LINE
  5
1CB
  8
1
 10
90.0
 20
270.0
 30
0.0
 11
210.0
 21
270.0
 31
0.0
  0
LINE
  5
1CC
  8
1
 10
150.0
 20
331.5
 30
0.0
 11
150.0
 21
210.0
 31
0.0
  0
LINE
  5
1CD
  8
0
 10
161.55851902233121
 20
294.56995062850518
 30
0.0
 11
162.87650840404049
 21
280.31724436662591
 31
0.0
  0
LINE
  5
1CE
  8
0
 10
163.42885927692069
 20
293.1280555040027
 30
0.0
 11
165.27453281315101
 21
277.03001231087927
 31
0.0
  0
ARC
  5
1CF
  8
0
 10
150.0
 20
270.0
 30
0.0
 40
32.0
 50
69.361648693304573
 51
110.6383513066942
  0
ARC
  5
1D0
  8
0
 10
150.0
 20
270.0
 30
0.0
 40
17.5
 50
43.380876222453423
 51
136.6191237775484
  0
ARC
  5
1D1
  8
0
 10
168.39631702861621
 20
293.69758468246602
 30
0.0
 40
5.0
 50
52.177988292158233
 51
186.5405193604611
  0
ARC
  5
1D2
  8
0
 10
166.53727705669621
 20
295.0303509274255
 30
0.0
 40
5.0
 50
56.547699809585787
 51
185.2832827448332
  0
ARC
  5
1D3
  8
0
 10
175.2094483165418
 20
278.16907066780578
 30
0.0
 40
10.0
 50
186.54051936046099
 51
197.95481187790739
  0
ARC
  5
1D4
  8
0
 10
150.0
 20
270.0
 30
0.0
 40
16.5
 50
38.703295044805579
 51
141.29670495519619
  0
ARC
  5
1D5
  8
0
 10
150.0
 20
270.0
 30
0.0
 40
16.5
 50
218.70329504480409
 51
321.2967049551944
  0
ARC
  5
1D6
  8
0
 10
166.53727705669621
 20
244.96964907257461
 30
0.0
 40
5.0
 50
174.7167172551668
 51
303.45230019041418
  0
ARC
  5
1D7
  8
0
 10
168.39631702861621
 20
246.30241531753401
 30
0.0
 40
5.0
 50
173.4594806395389
 51
307.8220117078418
  0
ARC
  5
1D8
  8
0
 10
150.0
 20
270.0
 30
0.0
 40
17.5
 50
223.38087622245169
 51
316.61912377754658
  0
ARC
  5
1D9
  8
0
 10
150.0
 20
270.0
 30
0.0
 40
32.0
 50
249.3616486933042
 51
290.63835130669543
  0
LINE
  5
1DA
  8
0
 10
163.42885927692069
 20
246.8719444959973
 30
0.0
 11
165.27453281315101
 21
262.96998768912073
 31
0.0
  0
LINE
  5
1DB
  8
0
 10
161.55851902233121
 20
245.43004937149479
 30
0.0
 11
162.87650840404049
 21
259.68275563337409
 31
0.0
  0
ARC
  5
1DC
  8
0
 10
175.2094483165418
 20
261.83092933219422
 30
0.0
 40
10.0
 50
162.0451881220925
 51
173.45948063953901
  0
ARC
  5
1DD
  8
0
 10
150.0
 20
270.0
 30
0.0
 40
16.5
 50
342.04518812209272
 51
17.954811877907311
  0
ARC
  5
1DE
  8
0
 10
150.0
 20
270.0
 30
0.0
 40
50.0
 50
96.186453497928852
 51
83.813546502071134
  0
ARC
  5
1DF
  8
0
 10
150.0
 20
270.0
 30
0.0
 40
35.0
 50
97.395768245895766
 51
82.604231754104248
  0
CIRCLE
  5
1E0
  8
0
 10
150.0
 20
270.0
 30
0.0
 40
15.0
  0
ARC
  5
1E1
  8
0
 10
150.0
 20
270.0
 30
0.0
 40
16.5
 50
162.0451881220927
 51
197.9548118779073
  0
ARC
  5
1E2
  8
0
 10
124.79055168345811
 20
261.83092933219422
 30
0.0
 40
10.0
 50
6.5405193604609551
 51
17.954811877907431
  0
LINE
  5
1E3
  8
0
 10
138.4414809776687
 20
245.43004937149479
 30
0.0
 11
137.12349159595951
 21
259.68275563337409
 31
0.0
  0
LINE
  5
1E4
  8
0
 10
136.5711407230792
 20
246.8719444959973
 30
0.0
 11
134.72546718684899
 21
262.96998768912073
 31
0.0
  0
ARC
  5
1E5
  8
0
 10
131.60368297138371
 20
246.30241531753401
 30
0.0
 40
5.0
 50
232.1779882921582
 51
6.5405193604611069
  0
ARC
  5
1E6
  8
0
 10
133.4627229433037
 20
244.96964907257461
 30
0.0
 40
5.0
 50
236.54769980958571
 51
5.2832827448331869
  0
ARC
  5
1E7
  8
0
 10
124.79055168345811
 20
278.16907066780578
 30
0.0
 40
10.0
 50
342.0451881220925
 51
353.45948063953898
  0
ARC
  5
1E8
  8
0
 10
133.4627229433037
 20
295.0303509274255
 30
0.0
 40
5.0
 50
354.71671725516683
 51
123.45230019041421
  0
ARC
  5
1E9
  8
0
 10
131.60368297138371
 20
293.69758468246602
 30
0.0
 40
5.0
 50
353.45948063953892
 51
127.8220117078417
  0
LINE
  5
1EA
  8
0
 10
136.5711407230792
 20
293.1280555040027
 30
0.0
 11
134.72546718684899
 21
277.03001231087927
 31
0.0
  0
LINE
  5
1EB
  8
0
 10
138.4414809776687
 20
294.56995062850518
 30
0.0
 11
137.12349159595951
 21
280.31724436662591
 31
0.0
  0
LINE
  5
1EC
  8
1
 10
392.0
 20
312.5
 30
0.0
 11
297.5
 21
312.5
 31
0.0
  0
LINE
  5
1ED
  8
0
 10
387.0
 20
318.5
 30
0.0
 11
387.0
 21
221.5
 31
0.0
  0
LINE
  5
1EE
  8
0
 10
385.5
 20
220.0
 30
0.0
 11
374.0
 21
220.0
 31
0.0
  0
ARC
  5
1EF
  8
0
 10
374.0
 20
221.0
 30
0.0
 40
1.0
 50
180.00000000000011
 51
270.0
  0
LINE
  5
1F0
  8
0
 10
387.0
 20
221.5
 30
0.0
 11
385.5
 21
220.0
 31
0.0
  0
LINE
  5
1F1
  8
0
 10
408.49999999999989
 20
255.0
 30
0.0
 11
409.0
 21
255.5
 31
0.0
  0
LINE
  5
1F2
  8
0
 10
408.49999999999989
 20
285.0
 30
0.0
 11
409.0
 21
284.5
 31
0.0
  0
ARC
  5
1F3
  8
0
 10
399.50384604281658
 20
281.1446135693829
 30
0.0
 40
1.5
 50
183.7177684905995
 51
233.40889867203441
  0
ARC
  5
1F4
  8
0
 10
386.48836999922497
 20
279.61571125968158
 30
0.0
 40
1.5000000000000331
 50
307.18162268082079
 51
16.234813571910099
  0
ARC
  5
1F5
  8
0
 10
389.0
 20
274.42876907584082
 30
0.0
 40
3.0
 50
0.0
 51
52.818377319179703
  0
ARC
  5
1F6
  8
0
 10
395.0
 20
274.409447010809
 30
0.0
 40
3.0
 50
126.5911013279665
 51
179.99999999999989
  0
ARC
  5
1F7
  8
0
 10
395.013316033563
 20
280.85282557106859
 30
0.0
 40
3.0
 50
3.7177684905997972
 51
37.881898476078717
  0
ARC
  5
1F8
  8
0
 10
389.0
 20
278.10096796922858
 30
0.0
 40
3.0
 50
0.0
 51
30.40448482197597
  0
ARC
  5
1F9
  8
0
 10
385.04818401387598
 20
279.19634944976178
 30
0.0
 40
3.0
 50
16.234708469977932
 51
27.491515190312288
  0
LINE
  5
1FA
  8
0
 10
390.81303080298687
 20
276.8189404729211
 30
0.0
 11
388.04818401387598
 21
278.91617601022222
 31
0.0
  0
LINE
  5
1FB
  8
0
 10
398.013316033563
 20
280.38301545613922
 30
0.0
 11
393.21169945613269
 21
276.8181772084036
 31
0.0
  0
ARC
  5
1FC
  8
0
 10
400.0635873701948
 20
289.5
 30
0.0
 40
3.0
 50
212.67866513653189
 51
242.4383084509671
  0
ARC
  5
1FD
  8
0
 10
395.013316033563
 20
286.2604383897816
 30
0.0
 40
3.0
 50
32.678665136532018
 51
44.899575399695323
  0
LINE
  5
1FE
  8
0
 10
398.013316033563
 20
287.3099343739986
 30
0.0
 11
398.013316033563
 21
281.0473509032783
 31
0.0
  0
LINE
  5
1FF
  8
0
 10
387.0
 20
298.55199081744939
 30
0.0
 11
397.13835123962912
 21
288.37803735393408
 31
0.0
  0
LINE
  5
200
  8
0
 10
387.70942162233121
 20
280.58120120765642
 30
0.0
 11
387.0
 21
281.94448033904098
 31
0.0
  0
LINE
  5
201
  8
0
 10
387.0
 20
287.43694149869299
 30
0.0
 11
391.58742217045318
 21
279.6192717964804
 31
0.0
  0
LINE
  5
202
  8
0
 10
387.0
 20
296.03880313326209
 30
0.0
 11
397.38115038548318
 21
282.6949331905812
 31
0.0
  0
LINE
  5
203
  8
0
 10
399.0
 20
285.0
 30
0.0
 11
398.67547714537551
 21
286.84046056548249
 31
0.0
  0
LINE
  5
204
  8
0
 10
392.0
 20
278.10096796922858
 30
0.0
 11
392.0
 21
270.0
 31
0.0
  0
LINE
  5
205
  8
0
 10
398.73550952893743
 20
286.5
 30
0.0
 11
398.73550952893743
 21
253.5000000000006
 31
0.0
  0
LINE
  5
206
  8
0
 10
387.0
 20
318.5
 30
0.0
 11
385.5
 21
320.0
 31
0.0
  0
ARC
  5
207
  8
0
 10
374.0
 20
319.0
 30
0.0
 40
1.0
 50
90.0
 51
179.99999999999989
  0
LINE
  5
208
  8
0
 10
399.0
 20
285.0
 30
0.0
 11
399.0
 21
255.0000000000002
 31
0.0
  0
LINE
  5
209
  8
0
 10
385.5
 20
320.0
 30
0.0
 11
374.0
 21
320.0
 31
0.0
  0
LINE
  5
20A
  8
0
 10
409.0
 20
284.5
 30
0.0
 11
409.0
 21
255.5
 31
0.0
  0
LINE
  5
20B
  8
0
 10
408.49999999999989
 20
285.0
 30
0.0
 11
399.0
 21
285.0
 31
0.0
  0
LINE
  5
20C
  8
0
 10
373.0
 20
319.0
 30
0.0
 11
373.0
 21
221.0
 31
0.0
  0
LINE
  5
20D
  8
1
 10
363.0
 20
270.0
 30
0.0
 11
419.0
 21
270.0
 31
0.0
  0
TEXT
  5
327
  8
0
 62
     3
 10
0.0
 20
0.0
 30
0.0
 40
10.0
  1
S100ER
  7
STANDARD1
  0
ENDSEC
  0
EOF
