  0
SECTION
  2
HEADER
  9
$ACADVER
  1
AC1009
  9
$INSBASE
 10
0.0
 20
0.0
 30
0.0
  9
$EXTMIN
 10
0.0
 20
-2.960436562073669
 30
0.0
  9
$EXTMAX
 10
702.62923803471222
 20
520.63848920863461
 30
0.0
  9
$LIMMIN
 10
0.0
 20
0.0
  9
$LIMMAX
 10
750.0
 20
540.0
  9
$ORTHOMODE
 70
     1
  9
$REGENMODE
 70
     1
  9
$FILLMODE
 70
     1
  9
$QTEXTMODE
 70
     0
  9
$MIRRTEXT
 70
     0
  9
$DRAGMODE
 70
     2
  9
$LTSCALE
 40
20.0
  9
$OSMODE
 70
    55
  9
$ATTMODE
 70
     1
  9
$TEXTSIZE
 40
0.5
  9
$TRACEWID
 40
2.0962534417751821
  9
$TEXTSTYLE
  7
STANDARD
  9
$CLAYER
  8
0
  9
$CELTYPE
  6
BYLAYER
  9
$CECOLOR
 62
   256
  9
$DIMSCALE
 40
2.0
  9
$DIMASZ
 40
3.0
  9
$DIMEXO
 40
2.0
  9
$DIMDLI
 40
0.3799999999999999
  9
$DIMRND
 40
0.0
  9
$DIMDLE
 40
0.0
  9
$DIMEXE
 40
2.0
  9
$DIMTP
 40
0.0
  9
$DIMTM
 40
0.0
  9
$DIMTXT
 40
3.2000000000000002
  9
$DIMCEN
 40
0.09
  9
$DIMTSZ
 40
0.0
  9
$DIMTOL
 70
     0
  9
$DIMLIM
 70
     0
  9
$DIMTIH
 70
     0
  9
$DIMTOH
 70
     0
  9
$DIMSE1
 70
     0
  9
$DIMSE2
 70
     0
  9
$DIMTAD
 70
     1
  9
$DIMZIN
 70
     0
  9
$DIMBLK
  1

  9
$DIMASO
 70
     1
  9
$DIMSHO
 70
     0
  9
$DIMPOST
  1

  9
$DIMAPOST
  1

  9
$DIMALT
 70
     0
  9
$DIMALTD
 70
     2
  9
$DIMALTF
 40
25.399999999999999
  9
$DIMLFAC
 40
1.0
  9
$DIMTOFL
 70
     0
  9
$DIMTVP
 40
0.0
  9
$DIMTIX
 70
     1
  9
$DIMSOXD
 70
     0
  9
$DIMSAH
 70
     0
  9
$DIMBLK1
  1

  9
$DIMBLK2
  1

  9
$DIMSTYLE
  2
STANDARD
  9
$DIMCLRD
 70
     0
  9
$DIMCLRE
 70
     0
  9
$DIMCLRT
 70
     0
  9
$DIMTFAC
 40
1.0
  9
$DIMGAP
 40
0.09
  9
$LUNITS
 70
     2
  9
$LUPREC
 70
     4
  9
$SKETCHINC
 40
0.1
  9
$FILLETRAD
 40
0.0
  9
$AUNITS
 70
     1
  9
$AUPREC
 70
     4
  9
$MENU
  1
E:\r13\win\SUPPORT\ACAD
  9
$ELEVATION
 40
0.0
  9
$PELEVATION
 40
0.0
  9
$THICKNESS
 40
0.0
  9
$LIMCHECK
 70
     0
  9
$BLIPMODE
 70
     0
  9
$CHAMFERA
 40
0.0
  9
$CHAMFERB
 40
0.0
  9
$SKPOLY
 70
     0
  9
$TDCREATE
 40
2449840.5977430558
  9
$TDUPDATE
 40
2456598.4763066089
  9
$TDINDWG
 40
0.0001504398
  9
$TDUSRTIMER
 40
0.0001504398
  9
$USRTIMER
 70
     1
  9
$ANGBASE
 50
0.0
  9
$ANGDIR
 70
     0
  9
$PDMODE
 70
     0
  9
$PDSIZE
 40
0.0
  9
$PLINEWID
 40
0.0
  9
$COORDS
 70
     1
  9
$SPLFRAME
 70
     0
  9
$SPLINETYPE
 70
     6
  9
$SPLINESEGS
 70
     8
  9
$ATTDIA
 70
     0
  9
$ATTREQ
 70
     1
  9
$HANDLING
 70
     1
  9
$HANDSEED
  5
473
  9
$SURFTAB1
 70
     6
  9
$SURFTAB2
 70
     6
  9
$SURFTYPE
 70
     6
  9
$SURFU
 70
     6
  9
$SURFV
 70
     6
  9
$UCSNAME
  2

  9
$UCSORG
 10
0.0
 20
0.0
 30
0.0
  9
$UCSXDIR
 10
1.0
 20
0.0
 30
0.0
  9
$UCSYDIR
 10
0.0
 20
1.0
 30
0.0
  9
$PUCSNAME
  2

  9
$PUCSORG
 10
0.0
 20
0.0
 30
0.0
  9
$PUCSXDIR
 10
1.0
 20
0.0
 30
0.0
  9
$PUCSYDIR
 10
0.0
 20
1.0
 30
0.0
  9
$USERI1
 70
     0
  9
$USERI2
 70
     1
  9
$USERI3
 70
     1
  9
$USERI4
 70
     0
  9
$USERI5
 70
     0
  9
$USERR1
 40
0.0
  9
$USERR2
 40
0.0
  9
$USERR3
 40
0.0
  9
$USERR4
 40
0.0
  9
$USERR5
 40
0.0
  9
$WORLDVIEW
 70
     1
  9
$SHADEDGE
 70
     3
  9
$SHADEDIF
 70
    70
  9
$TILEMODE
 70
     1
  9
$MAXACTVP
 70
    16
  9
$PLIMCHECK
 70
     0
  9
$PEXTMIN
 10
1.0000000000000000E+020
 20
1.0000000000000000E+020
 30
1.0000000000000000E+020
  9
$PEXTMAX
 10
-1.0000000000000000E+020
 20
-1.0000000000000000E+020
 30
-1.0000000000000000E+020
  9
$PLIMMIN
 10
0.0
 20
0.0
  9
$PLIMMAX
 10
12.0
 20
9.0
  9
$UNITMODE
 70
     0
  9
$VISRETAIN
 70
     0
  9
$PLINEGEN
 70
     0
  9
$PSLTSCALE
 70
     0
  0
ENDSEC
  0
SECTION
  2
TABLES
  0
TABLE
  2
VPORT
 70
     1
  0
VPORT
  2
*ACTIVE
 70
     0
 10
0.0
 20
0.0
 11
1.0
 21
1.0
 12
374.98855678130462
 22
390.38782554515711
 13
0.0
 23
0.0
 14
20.0
 24
20.0
 15
20.0
 25
20.0
 16
0.0
 26
0.0
 36
1.0
 17
0.0
 27
0.0
 37
0.0
 40
794.35313298118172
 41
1.7807262569832401
 42
50.0
 43
0.0
 44
0.0
 50
0.0
 51
0.0
 71
     0
 72
  1000
 73
     1
 74
     0
 75
     0
 76
     0
 77
     0
 78
     1
  0
ENDTAB
  0
TABLE
  2
LTYPE
 70
     4
  0
LTYPE
  2
CONTINUOUS
 70
     0
  3
Solid Line
 72
    65
 73
     0
 40
0.0
  0
LTYPE
  2
CENTER
 70
     0
  3
____ _ ____ _ ____ _ ____ _ ____ _ ____ _ ____
 72
    65
 73
     4
 40
2.0
 49
1.25
 49
-0.25
 49
0.25
 49
-0.25
  0
LTYPE
  2
HIDDEN
 70
     0
  3
_ _ _ _ _ _ _ _ _ _ _ _ _ _ _ _ _ _ _ _ _ _ _
 72
    65
 73
     2
 40
0.375
 49
0.25
 49
-0.125
  0
LTYPE
  2
PHANTOM2
 70
     0
  3
___ _ _ ___ _ _ ___ _ _ ___ _ _
 72
    65
 73
     6
 40
1.25
 49
0.625
 49
-0.125
 49
0.125
 49
-0.125
 49
0.125
 49
-0.125
  0
ENDTAB
  0
TABLE
  2
LAYER
 70
     4
  0
LAYER
  2
0
 70
     0
 62
     7
  6
CONTINUOUS
  0
LAYER
  2
1
 70
     0
 62
     1
  6
CENTER
  0
LAYER
  2
2
 70
     0
 62
     2
  6
HIDDEN
  0
LAYER
  2
3
 70
     0
 62
     3
  6
CONTINUOUS
  0
ENDTAB
  0
TABLE
  2
STYLE
 70
     2
  0
STYLE
  2
STANDARD
 70
     0
 40
0.0
 41
1.0
 50
0.0
 71
     0
 42
0.5
  3
TXT
  4
BIGFONT
  0
STYLE
  2
STANDARD1
 70
     0
 40
0.0
 41
1.0
 50
0.0
 71
     0
 42
3.0
  3
txt
  4

  0
ENDTAB
  0
TABLE
  2
VIEW
 70
     0
  0
ENDTAB
  0
TABLE
  2
UCS
 70
     0
  0
ENDTAB
  0
TABLE
  2
APPID
 70
     3
  0
APPID
  2
ACAD
 70
     0
  0
APPID
  2
ACAD_MLEADERVER
 70
     0
  0
APPID
  2
ACAD_NAV_VCDISPLAY
 70
     0
  0
ENDTAB
  0
TABLE
  2
DIMSTYLE
 70
     1
  0
DIMSTYLE
  2
STANDARD
 70
     0
  3

  4

  5

  6

  7

 40
1.0
 41
0.18
 42
0.0625
 43
0.38
 44
0.18
 45
0.0
 46
0.0
 47
0.0
 48
0.0
140
0.18
141
0.09
142
0.0
143
25.399999999999999
144
1.0
145
0.0
146
1.0
147
0.09
 71
     0
 72
     0
 73
     1
 74
     1
 75
     0
 76
     0
 77
     0
 78
     0
170
     0
171
     2
172
     0
173
     0
174
     0
175
     0
176
     0
177
     0
178
     0
  0
ENDTAB
  0
ENDSEC
  0
SECTION
  2
BLOCKS
  0
BLOCK
  8
0
  2
$MODEL_SPACE
 70
     0
 10
0.0
 20
0.0
 30
0.0
  3
$MODEL_SPACE
  1

  0
ENDBLK
  5
2F8
  8
0
  0
BLOCK
 67
     1
  8
0
  2
$PAPER_SPACE
 70
     0
 10
0.0
 20
0.0
 30
0.0
  3
$PAPER_SPACE
  1

  0
ENDBLK
  5
2F6
 67
     1
  8
0
  0
ENDSEC
  0
SECTION
  2
ENTITIES
  0
ARC
  5
36
  8
0
 10
304.68711283398119
 20
83.296762589928278
 30
0.0
 40
4.0
 50
191.2122714176497
 51
270.0
  0
ARC
  5
37
  8
0
 10
304.68711283398119
 20
97.296762589928278
 30
0.0
 40
4.0
 50
89.999999999999986
 51
168.7877285823507
  0
ARC
  5
38
  8
0
 10
340.00000000000028
 20
90.296762589928107
 30
0.0
 40
40.000000000000021
 50
168.78772858235021
 51
191.21227141764959
  0
LINE
  5
39
  8
0
 10
351.0
 20
101.29676258992809
 30
0.0
 11
351.00000000000051
 21
79.296762589928093
 31
0.0
  0
LINE
  5
3A
  8
0
 10
351.00000000000051
 20
79.296762589928093
 30
0.0
 11
373.08326108942458
 21
80.216898468654165
 31
0.0
  0
LINE
  5
3B
  8
0
 10
373.08326108942458
 20
100.37662671120199
 30
0.0
 11
351.0
 21
101.29676258992809
 31
0.0
  0
LINE
  5
3C
  8
0
 10
375.50000000000028
 20
81.796762589928107
 30
0.0
 11
375.50000000000028
 21
98.796762589928107
 31
0.0
  0
LINE
  5
3D
  8
0
 10
304.68711283398108
 20
79.296762589928093
 30
0.0
 11
351.00000000000051
 21
79.296762589928093
 31
0.0
  0
LINE
  5
3E
  8
0
 10
304.68711283398108
 20
101.29676258992809
 30
0.0
 11
351.0
 21
101.29676258992809
 31
0.0
  0
LINE
  5
3F
  8
0
 10
375.50000000000028
 20
81.796762589928107
 30
0.0
 11
375.00000000000023
 21
82.296762589928093
 31
0.0
  0
LINE
  5
40
  8
0
 10
375.50000000000028
 20
98.796762589928107
 30
0.0
 11
375.00000000000023
 21
98.296762589928122
 31
0.0
  0
LINE
  5
41
  8
0
 10
375.00000000000023
 20
98.378360565017317
 30
0.0
 11
375.00000000000023
 21
82.215164614838855
 31
0.0
  0
ARC
  5
42
  8
0
 10
373.00000000000023
 20
82.215164614838855
 30
0.0
 40
2.0
 50
272.38594403038888
 51
360.0
  0
ARC
  5
43
  8
0
 10
373.00000000000023
 20
98.378360565017317
 30
0.0
 40
2.0
 50
360.0
 51
87.614055969610931
  0
LINE
  5
44
  8
0
 10
377.50000000000023
 20
98.796762589928107
 30
0.0
 11
377.50000000000023
 21
96.796762589927994
 31
0.0
  0
LINE
  5
45
  8
0
 10
377.50000000000023
 20
98.796762589928107
 30
0.0
 11
375.50000000000028
 21
98.796762589928107
 31
0.0
  0
LINE
  5
46
  8
0
 10
377.50000000000028
 20
81.796762589928107
 30
0.0
 11
375.50000000000028
 21
81.796762589928107
 31
0.0
  0
LINE
  5
47
  8
0
 10
385.00000000000011
 20
96.796762589927937
 30
0.0
 11
377.50000000000023
 21
96.79676258992788
 31
0.0
  0
LINE
  5
48
  8
0
 10
385.00000000000011
 20
83.796762589928051
 30
0.0
 11
377.50000000000023
 21
83.796762589928051
 31
0.0
  0
LINE
  5
49
  8
0
 10
377.50000000000023
 20
83.796762589928051
 30
0.0
 11
377.50000000000028
 21
81.796762589928107
 31
0.0
  0
LINE
  5
4A
  8
0
 10
377.50000000000011
 20
434.13848920863461
 30
0.0
 11
377.50000000000023
 21
432.13848920863472
 31
0.0
  0
LINE
  5
4B
  8
0
 10
385.0
 20
434.13848920863461
 30
0.0
 11
377.50000000000011
 21
434.13848920863461
 31
0.0
  0
LINE
  5
4C
  8
0
 10
385.0
 20
447.1384892086345
 30
0.0
 11
377.50000000000011
 21
447.13848920863438
 31
0.0
  0
LINE
  5
4D
  8
0
 10
377.50000000000023
 20
432.13848920863472
 30
0.0
 11
375.50000000000011
 21
432.13848920863472
 31
0.0
  0
LINE
  5
4E
  8
0
 10
377.50000000000011
 20
449.13848920863472
 30
0.0
 11
375.50000000000011
 21
449.13848920863472
 31
0.0
  0
LINE
  5
4F
  8
0
 10
377.50000000000011
 20
449.13848920863472
 30
0.0
 11
377.50000000000011
 21
447.13848920863461
 31
0.0
  0
ARC
  5
50
  8
0
 10
373.00000000000011
 20
448.72008718372388
 30
0.0
 40
2.0
 50
360.0
 51
87.614055969610931
  0
ARC
  5
51
  8
0
 10
373.00000000000011
 20
432.5568912335454
 30
0.0
 40
2.0
 50
272.38594403038888
 51
360.0
  0
LINE
  5
52
  8
0
 10
375.00000000000011
 20
448.72008718372388
 30
0.0
 11
375.00000000000011
 21
432.5568912335454
 31
0.0
  0
LINE
  5
53
  8
0
 10
375.50000000000011
 20
449.13848920863472
 30
0.0
 11
375.00000000000011
 21
448.63848920863472
 31
0.0
  0
LINE
  5
54
  8
0
 10
375.50000000000011
 20
432.13848920863472
 30
0.0
 11
375.00000000000011
 21
432.63848920863472
 31
0.0
  0
LINE
  5
55
  8
0
 10
304.68711283398102
 20
451.63848920863472
 30
0.0
 11
350.99999999999989
 21
451.63848920863472
 31
0.0
  0
LINE
  5
56
  8
0
 10
304.68711283398102
 20
429.63848920863472
 30
0.0
 11
351.00000000000028
 21
429.63848920863472
 31
0.0
  0
LINE
  5
57
  8
0
 10
375.50000000000011
 20
432.13848920863472
 30
0.0
 11
375.50000000000011
 21
449.13848920863472
 31
0.0
  0
ARC
  5
58
  8
0
 10
340.00000000000023
 20
440.63848920863472
 30
0.0
 40
40.000000000000021
 50
168.78772858235021
 51
191.21227141764959
  0
LINE
  5
59
  8
0
 10
373.08326108942452
 20
450.71835332990861
 30
0.0
 11
350.99999999999989
 21
451.63848920863472
 31
0.0
  0
LINE
  5
5A
  8
0
 10
351.00000000000028
 20
429.63848920863472
 30
0.0
 11
373.08326108942452
 21
430.55862508736078
 31
0.0
  0
ARC
  5
5B
  8
0
 10
304.68711283398102
 20
447.63848920863472
 30
0.0
 40
4.0
 50
89.999999999999986
 51
168.7877285823507
  0
ARC
  5
5C
  8
0
 10
304.68711283398102
 20
433.63848920863472
 30
0.0
 40
4.0
 50
191.2122714176497
 51
270.0
  0
LINE
  5
5D
  8
0
 10
350.99999999999989
 20
451.63848920863472
 30
0.0
 11
351.00000000000028
 21
429.63848920863472
 31
0.0
  0
LINE
  5
5F
  8
0
 10
435.5
 20
420.63848920863359
 30
0.0
 11
435.5
 21
460.63848920863558
 31
0.0
  0
LINE
  5
60
  8
0
 10
411.0
 20
463.13848920863518
 30
0.0
 11
404.0
 21
460.63848920863569
 31
0.0
  0
LINE
  5
61
  8
0
 10
410.99999999999972
 20
463.13848920863518
 30
0.0
 11
410.99999999999972
 21
462.10833411648292
 31
0.0
  0
LINE
  5
62
  8
0
 10
403.0
 20
362.13848920863472
 30
0.0
 11
403.0
 21
519.1384892086345
 31
0.0
  0
LINE
  5
63
  8
0
 10
401.49999999999989
 20
520.63848920863461
 30
0.0
 11
386.0
 21
520.63848920863461
 31
0.0
  0
LINE
  5
64
  8
0
 10
435.5
 20
460.63848920863558
 30
0.0
 11
422.0
 21
460.63848920863558
 31
0.0
  0
LINE
  5
65
  8
0
 10
403.0
 20
519.13848920863461
 30
0.0
 11
401.49999999999989
 21
520.63848920863461
 31
0.0
  0
ARC
  5
66
  8
0
 10
386.0
 20
519.63848920863461
 30
0.0
 40
1.0
 50
90.000000000000014
 51
179.99999999999989
  0
LINE
  5
67
  8
0
 10
422.0
 20
460.63848920863558
 30
0.0
 11
421.55918254822882
 21
463.1384892086358
 31
0.0
  0
LINE
  5
68
  8
0
 10
436.0
 20
460.13848920863558
 30
0.0
 11
435.5
 21
460.63848920863558
 31
0.0
  0
LINE
  5
69
  8
0
 10
421.55918254822882
 20
418.1384892086337
 30
0.0
 11
421.55918254822882
 21
463.13848920863518
 31
0.0
  0
ARC
  5
6A
  8
0
 10
386.0
 20
361.63848920863472
 30
0.0
 40
1.0
 50
180.00000000000011
 51
270.0
  0
LINE
  5
6B
  8
0
 10
403.0
 20
362.13848920863472
 30
0.0
 11
401.49999999999989
 21
360.63848920863472
 31
0.0
  0
LINE
  5
6C
  8
0
 10
422.0
 20
420.63848920863342
 30
0.0
 11
422.0
 21
460.63848920863569
 31
0.0
  0
LINE
  5
6D
  8
0
 10
436.0
 20
421.13848920863359
 30
0.0
 11
436.0
 21
460.13848920863569
 31
0.0
  0
LINE
  5
6E
  8
0
 10
404.0
 20
460.0631407036401
 30
0.0
 11
404.0
 21
460.63848920863569
 31
0.0
  0
LINE
  5
6F
  8
0
 10
401.49999999999989
 20
360.63848920863472
 30
0.0
 11
386.0
 21
360.63848920863472
 31
0.0
  0
LINE
  5
70
  8
1
 10
446.0
 20
440.63848920863461
 30
0.0
 11
290.50000000000011
 21
440.63848920863472
 31
0.0
  0
LINE
  5
71
  8
0
 10
385.0
 20
361.63848920863472
 30
0.0
 11
385.0
 21
519.63848920863461
 31
0.0
  0
LINE
  5
72
  8
0
 10
411.0
 20
463.13848920863518
 30
0.0
 11
421.55918254822882
 21
463.13848920863518
 31
0.0
  0
LINE
  5
73
  8
0
 10
411.30370131760827
 20
461.71480313581628
 30
0.0
 11
419.17036531095482
 21
458.65622652899867
 31
0.0
  0
LINE
  5
74
  8
0
 10
419.17036531095482
 20
458.65622652899867
 30
0.0
 11
403.0
 21
456.20365929099438
 31
0.0
  0
LINE
  5
75
  8
0
 10
403.0
 20
459.81032039139529
 30
0.0
 11
410.53294989437723
 21
461.7148031358164
 31
0.0
  0
LINE
  5
76
  8
0
 10
419.17036531095482
 20
458.65622652899867
 30
0.0
 11
419.17036531095482
 21
422.6207518882706
 31
0.0
  0
LINE
  5
77
  8
2
 10
404.0
 20
460.0631407036401
 30
0.0
 11
404.0
 21
421.21383771362912
 31
0.0
  0
ARC
  5
78
  8
0
 10
410.3617715104815
 20
462.39187841660669
 30
0.0
 40
0.6983788191091445
 50
284.18822883017231
 51
336.045968129632
  0
ARC
  5
79
  8
0
 10
411.47809420729197
 20
462.16334193093979
 30
0.0
 40
0.4812483046179336
 50
186.56338758842679
 51
248.7538068898433
  0
ARC
  5
7A
  8
0
 10
411.47809420729197
 20
419.11363648632943
 30
0.0
 40
0.4812483046179336
 50
111.2461931101567
 51
173.43661241157309
  0
ARC
  5
7B
  8
0
 10
410.3617715104815
 20
418.88510000066248
 30
0.0
 40
0.6983788191091445
 50
23.954031870368091
 51
75.811771169827708
  0
LINE
  5
7C
  8
0
 10
403.0
 20
421.46665802587393
 30
0.0
 11
410.53294989437723
 21
419.56217528145288
 31
0.0
  0
LINE
  5
7D
  8
0
 10
419.17036531095482
 20
422.6207518882706
 30
0.0
 11
403.0
 21
425.07331912627478
 31
0.0
  0
LINE
  5
7E
  8
0
 10
411.30370131760827
 20
419.56217528145288
 30
0.0
 11
419.17036531095482
 21
422.6207518882706
 31
0.0
  0
LINE
  5
7F
  8
0
 10
411.0
 20
418.1384892086341
 30
0.0
 11
421.55918254822882
 21
418.1384892086341
 31
0.0
  0
LINE
  5
80
  8
0
 10
404.0
 20
421.21383771362912
 30
0.0
 11
404.0
 21
420.63848920863359
 31
0.0
  0
LINE
  5
81
  8
0
 10
436.0
 20
421.1384892086337
 30
0.0
 11
435.5
 21
420.6384892086337
 31
0.0
  0
LINE
  5
82
  8
0
 10
422.0
 20
420.6384892086337
 30
0.0
 11
421.55918254822882
 21
418.13848920863347
 31
0.0
  0
LINE
  5
83
  8
0
 10
435.5
 20
420.6384892086337
 30
0.0
 11
422.0
 21
420.6384892086337
 31
0.0
  0
LINE
  5
84
  8
0
 10
410.99999999999972
 20
418.1384892086341
 30
0.0
 11
410.99999999999972
 21
419.1686443007863
 31
0.0
  0
LINE
  5
85
  8
0
 10
411.0
 20
418.13848920863398
 30
0.0
 11
404.0
 21
420.63848920863359
 31
0.0
  0
LINE
  5
86
  8
0
 10
401.49999999999989
 20
360.63848920863472
 30
0.0
 11
401.49999999999989
 21
520.63848920863461
 31
0.0
  0
LINE
  5
87
  8
0
 10
401.49999999999989
 20
170.29676258992811
 30
0.0
 11
401.49999999999989
 21
10.29676258992823
 31
0.0
  0
LINE
  5
88
  8
0
 10
411.0
 20
112.7967625899288
 30
0.0
 11
404.0
 21
110.2967625899292
 31
0.0
  0
LINE
  5
89
  8
0
 10
410.99999999999972
 20
112.7967625899287
 30
0.0
 11
410.99999999999972
 21
111.76660749777641
 31
0.0
  0
LINE
  5
8A
  8
0
 10
435.5
 20
110.2967625899291
 30
0.0
 11
422.0
 21
110.2967625899291
 31
0.0
  0
LINE
  5
8B
  8
0
 10
422.0
 20
110.2967625899291
 30
0.0
 11
421.55918254822882
 21
112.7967625899293
 31
0.0
  0
LINE
  5
8C
  8
0
 10
436.0
 20
109.7967625899291
 30
0.0
 11
435.5
 21
110.2967625899291
 31
0.0
  0
LINE
  5
8D
  8
0
 10
404.0
 20
109.7214140849337
 30
0.0
 11
404.0
 21
110.2967625899292
 31
0.0
  0
LINE
  5
8E
  8
0
 10
411.0
 20
112.7967625899287
 30
0.0
 11
421.55918254822882
 21
112.7967625899287
 31
0.0
  0
LINE
  5
8F
  8
0
 10
411.30370131760827
 20
111.37307651710979
 30
0.0
 11
419.17036531095482
 21
108.3144999102922
 31
0.0
  0
LINE
  5
90
  8
0
 10
419.17036531095482
 20
108.3144999102922
 30
0.0
 11
403.0
 21
105.86193267228801
 31
0.0
  0
LINE
  5
91
  8
0
 10
403.0
 20
109.46859377268881
 30
0.0
 11
410.53294989437723
 21
111.37307651710989
 31
0.0
  0
ARC
  5
92
  8
0
 10
410.3617715104815
 20
112.0501517979003
 30
0.0
 40
0.6983788191091445
 50
284.18822883017231
 51
336.04596812963189
  0
ARC
  5
93
  8
0
 10
411.47809420729197
 20
111.8216153122334
 30
0.0
 40
0.4812483046179336
 50
186.56338758842679
 51
248.75380688984319
  0
ARC
  5
94
  8
0
 10
411.47809420729197
 20
68.771909867622966
 30
0.0
 40
0.4812483046179336
 50
111.2461931101567
 51
173.43661241157309
  0
ARC
  5
95
  8
0
 10
410.3617715104815
 20
68.543373381956044
 30
0.0
 40
0.6983788191091445
 50
23.954031870368059
 51
75.811771169827693
  0
LINE
  5
96
  8
2
 10
404.0
 20
70.872111094922687
 30
0.0
 11
404.0
 21
109.7214140849337
 31
0.0
  0
LINE
  5
97
  8
0
 10
419.17036531095482
 20
72.279025269564087
 30
0.0
 11
419.17036531095482
 21
108.3144999102922
 31
0.0
  0
LINE
  5
98
  8
0
 10
403.0
 20
71.124931407167466
 30
0.0
 11
410.53294989437723
 21
69.220448662746449
 31
0.0
  0
LINE
  5
99
  8
0
 10
419.17036531095482
 20
72.279025269564087
 30
0.0
 11
403.0
 21
74.731592507568379
 31
0.0
  0
LINE
  5
9A
  8
0
 10
411.30370131760827
 20
69.220448662746477
 30
0.0
 11
419.17036531095482
 21
72.279025269564087
 31
0.0
  0
LINE
  5
9B
  8
0
 10
411.0
 20
67.796762589927582
 30
0.0
 11
421.55918254822882
 21
67.796762589927582
 31
0.0
  0
LINE
  5
9C
  8
0
 10
385.0
 20
169.29676258992811
 30
0.0
 11
385.0
 21
11.29676258992823
 31
0.0
  0
LINE
  5
9D
  8
1
 10
446.0
 20
90.296762589928207
 30
0.0
 11
290.50000000000011
 21
90.29676258992815
 31
0.0
  0
LINE
  5
9E
  8
0
 10
401.49999999999989
 20
170.29676258992811
 30
0.0
 11
386.0
 21
170.29676258992811
 31
0.0
  0
LINE
  5
9F
  8
0
 10
404.0
 20
70.87211109492263
 30
0.0
 11
404.0
 21
70.296762589927155
 31
0.0
  0
LINE
  5
A0
  8
0
 10
436.0
 20
109.7967625899292
 30
0.0
 11
436.0
 21
70.796762589927155
 31
0.0
  0
LINE
  5
A1
  8
0
 10
422.0
 20
110.2967625899294
 30
0.0
 11
422.0
 21
70.296762589927155
 31
0.0
  0
LINE
  5
A2
  8
0
 10
403.0
 20
168.79676258992811
 30
0.0
 11
401.49999999999989
 21
170.29676258992811
 31
0.0
  0
ARC
  5
A3
  8
0
 10
386.0
 20
169.29676258992811
 30
0.0
 40
1.0
 50
90.0
 51
179.99999999999989
  0
LINE
  5
A4
  8
0
 10
421.55918254822882
 20
112.7967625899291
 30
0.0
 11
421.55918254822882
 21
67.796762589927582
 31
0.0
  0
LINE
  5
A5
  8
0
 10
436.0
 20
70.796762589927212
 30
0.0
 11
435.5
 21
70.296762589927212
 31
0.0
  0
LINE
  5
A6
  8
0
 10
422.0
 20
70.296762589927212
 30
0.0
 11
421.55918254822882
 21
67.796762589927042
 31
0.0
  0
ARC
  5
A7
  8
0
 10
386.0
 20
11.29676258992823
 30
0.0
 40
1.0
 50
180.00000000000011
 51
270.0
  0
LINE
  5
A8
  8
0
 10
403.0
 20
11.79676258992823
 30
0.0
 11
401.49999999999989
 21
10.29676258992823
 31
0.0
  0
LINE
  5
A9
  8
0
 10
435.5
 20
70.296762589927212
 30
0.0
 11
422.0
 21
70.296762589927212
 31
0.0
  0
LINE
  5
AA
  8
0
 10
401.49999999999989
 20
10.29676258992823
 30
0.0
 11
386.0
 21
10.29676258992823
 31
0.0
  0
LINE
  5
AB
  8
0
 10
403.0
 20
168.79676258992811
 30
0.0
 11
403.0
 21
11.79676258992829
 31
0.0
  0
LINE
  5
AC
  8
0
 10
410.99999999999972
 20
67.796762589927582
 30
0.0
 11
410.99999999999972
 21
68.826917682079923
 31
0.0
  0
LINE
  5
AD
  8
0
 10
411.0
 20
67.796762589927525
 30
0.0
 11
404.0
 21
70.296762589927155
 31
0.0
  0
LINE
  5
AE
  8
0
 10
435.5
 20
110.2967625899292
 30
0.0
 11
435.5
 21
70.296762589927212
 31
0.0
  0
LINE
  5
B7
  8
0
 10
350.99999999999977
 20
351.0
 30
0.0
 11
351.00000000000023
 21
329.0
 31
0.0
  0
ARC
  5
B8
  8
0
 10
304.6871128339809
 20
333.0
 30
0.0
 40
4.0
 50
191.2122714176497
 51
270.0
  0
ARC
  5
B9
  8
0
 10
304.6871128339809
 20
347.0
 30
0.0
 40
4.0
 50
89.999999999999986
 51
168.7877285823507
  0
LINE
  5
BA
  8
0
 10
351.00000000000023
 20
329.0
 30
0.0
 11
373.08326108942441
 21
329.92013587872611
 31
0.0
  0
LINE
  5
BB
  8
0
 10
373.08326108942441
 20
350.07986412127389
 30
0.0
 11
350.99999999999977
 21
351.0
 31
0.0
  0
ARC
  5
BC
  8
0
 10
340.00000000000011
 20
340.0
 30
0.0
 40
40.000000000000021
 50
168.78772858235021
 51
191.21227141764959
  0
LINE
  5
BD
  8
0
 10
375.5
 20
331.5
 30
0.0
 11
375.5
 21
348.5
 31
0.0
  0
LINE
  5
BE
  8
0
 10
384.5
 20
331.5
 30
0.0
 11
384.5
 21
334.52277442494841
 31
0.0
  0
LINE
  5
BF
  8
0
 10
385.0
 20
334.52277442494841
 30
0.0
 11
377.5
 21
334.52277442494841
 31
0.0
  0
LINE
  5
C0
  8
0
 10
385.0
 20
345.47722557505159
 30
0.0
 11
377.5
 21
345.47722557505159
 31
0.0
  0
LINE
  5
C1
  8
0
 10
304.6871128339809
 20
329.0
 30
0.0
 11
351.00000000000023
 21
329.0
 31
0.0
  0
LINE
  5
C2
  8
0
 10
304.6871128339809
 20
351.0
 30
0.0
 11
350.99999999999977
 21
351.0
 31
0.0
  0
LINE
  5
C3
  8
0
 10
384.5
 20
331.5
 30
0.0
 11
385.0
 21
332.0
 31
0.0
  0
LINE
  5
C4
  8
0
 10
375.5
 20
331.5
 30
0.0
 11
375.0
 21
332.0
 31
0.0
  0
LINE
  5
C5
  8
0
 10
375.5
 20
348.5
 30
0.0
 11
375.0
 21
348.0
 31
0.0
  0
LINE
  5
C6
  8
0
 10
385.0
 20
348.0
 30
0.0
 11
384.5
 21
348.5
 31
0.0
  0
LINE
  5
C7
  8
0
 10
384.5
 20
331.5
 30
0.0
 11
375.5
 21
331.5
 31
0.0
  0
LINE
  5
C8
  8
0
 10
384.5
 20
348.5
 30
0.0
 11
375.5
 21
348.5
 31
0.0
  0
LINE
  5
C9
  8
0
 10
385.0
 20
348.0
 30
0.0
 11
385.0
 21
332.0
 31
0.0
  0
LINE
  5
CA
  8
0
 10
384.5
 20
348.5
 30
0.0
 11
384.5
 21
345.47722557505159
 31
0.0
  0
LINE
  5
CB
  8
0
 10
375.0
 20
348.08159797508921
 30
0.0
 11
375.0
 21
331.91840202491068
 31
0.0
  0
ARC
  5
CC
  8
0
 10
373.0
 20
331.91840202491068
 30
0.0
 40
2.0
 50
272.38594403038888
 51
360.0
  0
ARC
  5
CD
  8
0
 10
373.0
 20
348.08159797508921
 30
0.0
 40
2.0
 50
360.0
 51
87.614055969610931
  0
LINE
  5
CE
  8
0
 10
377.5
 20
345.47722557505159
 30
0.0
 11
377.5
 21
334.52277442494841
 31
0.0
  0
LINE
  5
CF
  8
3
 10
377.5
 20
345.47722557505159
 30
0.0
 11
385.0
 21
334.52277442494841
 31
0.0
  0
LINE
  5
D0
  8
3
 10
377.5
 20
334.52277442494841
 30
0.0
 11
385.0
 21
345.47722557505159
 31
0.0
  0
CIRCLE
  5
D1
  8
0
 10
612.62923803471233
 20
270.0
 30
0.0
 40
78.5
  0
CIRCLE
  5
D2
  8
0
 10
612.62923803471233
 20
270.0
 30
0.0
 40
19.50000000000102
  0
CIRCLE
  5
D3
  8
0
 10
612.62923803471222
 20
270.0
 30
0.0
 40
80.0
  0
CIRCLE
  5
D4
  8
0
 10
612.62923803471222
 20
270.0
 30
0.0
 40
20.0
  0
CIRCLE
  5
D5
  8
0
 10
612.62923803471222
 20
270.0
 30
0.0
 40
22.5
  0
ARC
  5
D6
  8
0
 10
612.62923803471222
 20
270.0
 30
0.0
 40
26.5
 50
48.821072151813219
 51
131.17892784818889
  0
ARC
  5
D7
  8
0
 10
612.62923803471222
 20
270.0
 30
0.0
 40
56.000000000000028
 50
75.058097120488185
 51
104.9419028795123
  0
LINE
  5
D8
  8
0
 10
627.3496481358352
 20
219.08828414711471
 30
0.0
 11
630.4217667652141
 21
253.96683154723851
 31
0.0
  0
LINE
  5
D9
  8
0
 10
628.97035905275982
 20
219.86184627776791
 30
0.0
 11
633.70555196189355
 21
261.41091501705569
 31
0.0
  0
ARC
  5
DA
  8
0
 10
612.62923803471222
 20
270.0
 30
0.0
 40
63.0
 50
304.63568584933438
 51
307.36431415066568
  0
LINE
  5
DB
  8
0
 10
628.97035905275982
 20
320.13815372223178
 30
0.0
 11
633.70555196189309
 21
278.58908498295011
 31
0.0
  0
LINE
  5
DC
  8
0
 10
627.3496481358352
 20
320.91171585288521
 30
0.0
 11
630.4217667652141
 21
286.03316845276038
 31
0.0
  0
ARC
  5
DD
  8
0
 10
633.93820118928159
 20
219.29567977699361
 30
0.0
 40
5.0
 50
173.49826502133931
 51
292.79503458510573
  0
ARC
  5
DE
  8
0
 10
612.62923803471222
 20
270.0
 30
0.0
 40
60.0
 50
284.47751218592992
 51
69.010165565346114
  0
ARC
  5
DF
  8
0
 10
633.9382011892817
 20
320.70432022300611
 30
0.0
 40
5.0
 50
67.20496541489409
 51
186.50173497866061
  0
ARC
  5
E0
  8
0
 10
640.38320018474576
 20
286.91057612781032
 30
0.0
 40
10.0
 50
185.0336483547155
 51
211.3540825127989
  0
ARC
  5
E1
  8
0
 10
643.64123623493651
 20
279.72141798449883
 30
0.0
 40
10.0
 50
186.50173497866101
 51
197.4047891866164
  0
ARC
  5
E2
  8
0
 10
643.64123623493731
 20
260.27858201550708
 30
0.0
 40
10.0
 50
162.59521081339369
 51
173.49826502133931
  0
ARC
  5
E3
  8
0
 10
640.38320018474565
 20
253.0894238721886
 30
0.0
 40
10.0
 50
148.64591748719931
 51
174.9663516452845
  0
ARC
  5
E4
  8
0
 10
612.62923803471222
 20
270.0
 30
0.0
 40
56.000000000000028
 50
255.0580971204877
 51
284.94190287951182
  0
ARC
  5
E5
  8
0
 10
612.62923803471222
 20
270.0
 30
0.0
 40
26.5
 50
228.82107215181111
 51
311.17892784818679
  0
ARC
  5
E6
  8
0
 10
612.62923803471222
 20
270.0
 30
0.0
 40
60.0
 50
74.893569307275754
 51
105.1064306927241
  0
ARC
  5
E7
  8
0
 10
612.62923803471222
 20
270.0
 30
0.0
 40
67.0
 50
304.71715148639049
 51
307.28284851360968
  0
ARC
  5
E8
  8
0
 10
632.33036484560103
 20
218.64958030958979
 30
0.0
 40
5.0
 50
174.96635164528419
 51
290.9898344346538
  0
POLYLINE
  5
E9
  8
0
 66
     1
 10
0.0
 20
0.0
 30
0.0
 70
     1
  0
VERTEX
  5
EA
  8
0
 10
648.42603856397943
 20
218.17797851574781
 30
0.0
 42
0.2092540841238558
  0
VERTEX
  5
EB
  8
0
 10
647.59573555305701
 20
218.6643806760747
 30
0.0
 42
0.0763557249806048
  0
VERTEX
  5
EC
  8
0
 10
645.46736574960471
 20
218.58975370118841
 30
0.0
 42
0.0409112075683799
  0
VERTEX
  5
ED
  8
0
 10
642.6721942970064
 20
217.8184504197464
 30
0.0
 42
0.0384902333433664
  0
VERTEX
  5
EE
  8
0
 10
639.86866801908479
 20
216.53960854869811
 30
0.0
 42
0.0300642918268017
  0
VERTEX
  5
EF
  8
0
 10
636.89945597217456
 20
214.794510397896
 30
0.0
 42
0.0409112075683848
  0
VERTEX
  5
F0
  8
0
 10
634.91923379174204
 20
213.2152120240313
 30
0.0
 42
0.0763557249804645
  0
VERTEX
  5
F1
  8
0
 10
633.60783491892971
 20
211.53718931798869
 30
0.0
 42
0.2092540841239438
  0
VERTEX
  5
F2
  8
0
 10
633.51330266797561
 20
210.57956005515069
 30
0.0
  0
VERTEX
  5
F3
  8
0
 10
634.75477206374512
 20
206.75871013388419
 30
0.0
 42
0.1143807926381262
  0
VERTEX
  5
F4
  8
0
 10
636.63385571162814
 20
204.52329848175239
 30
0.0
 42
0.1037154851168902
  0
VERTEX
  5
F5
  8
0
 10
639.54464214190352
 20
203.16246757585481
 30
0.0
 42
0.0915052834331004
 70
     2
 50
346.78587041464158
  0
VERTEX
  5
F6
  8
0
 10
643.14413503042647
 20
202.98909821494979
 30
0.0
 42
0.1012450447570689
 50
346.78587041464158
  0
VERTEX
  5
F7
  8
0
 10
646.22453501543839
 20
204.06551721006059
 30
0.0
 42
0.0844157437661641
  0
VERTEX
  5
F8
  8
0
 10
649.07959202935706
 20
206.18977287510299
 30
0.0
 42
0.0915052834331024
  0
VERTEX
  5
F9
  8
0
 10
650.88146003423287
 20
208.93886480827999
 30
0.0
 42
0.1037154851168992
 70
     2
 50
67.214129585354229
  0
VERTEX
  5
FA
  8
0
 10
651.49144204118033
 20
212.0936168347194
 30
0.0
 42
0.1143807926381178
 50
67.214129585354229
  0
VERTEX
  5
FB
  8
0
 10
650.78745368123145
 20
214.92776944163469
 30
0.0
  0
SEQEND
  5
FC
  8
0
  0
POLYLINE
  5
FD
  8
0
 66
     1
 10
0.0
 20
0.0
 30
0.0
 70
     1
  0
VERTEX
  5
FE
  8
0
 10
662.68790376208722
 20
231.7761484876082
 30
0.0
 42
0.2092540841238558
 50
18.0
  0
VERTEX
  5
FF
  8
0
 10
661.74793213940825
 20
231.9821666908714
 30
0.0
 42
0.0763557249806048
 50
18.0
  0
VERTEX
  5
100
  8
0
 10
659.74679317222774
 20
231.2534897805331
 30
0.0
 42
0.0409112075683799
 50
18.0
  0
VERTEX
  5
101
  8
0
 10
657.32677296985446
 20
229.6561812876333
 30
0.0
 42
0.0384902333433664
 50
18.0
  0
VERTEX
  5
102
  8
0
 10
655.05564490590473
 20
227.5735931288072
 30
0.0
 42
0.0300642918268017
 50
18.0
  0
VERTEX
  5
103
  8
0
 10
652.77102142587887
 20
224.9963691785143
 30
0.0
 42
0.0409112075683848
 50
18.0
  0
VERTEX
  5
104
  8
0
 10
651.37574825417937
 20
222.88244486248399
 30
0.0
 42
0.0763557249804645
 50
18.0
  0
VERTEX
  5
105
  8
0
 10
650.64707134384321
 20
220.8813058953078
 30
0.0
 42
0.2092540841239438
 50
18.0
  0
VERTEX
  5
106
  8
0
 10
650.85308954710104
 20
219.9413342726294
 30
0.0
 50
18.0
  0
VERTEX
  5
107
  8
0
 10
653.21450466435613
 20
216.69112519851231
 30
0.0
 42
0.1143807926381262
 50
18.0
  0
VERTEX
  5
108
  8
0
 10
655.69239960227151
 20
215.14579116119819
 30
0.0
 42
0.1037154851168902
 50
18.0
  0
VERTEX
  5
109
  8
0
 10
658.88124188072118
 20
214.75104653451939
 30
0.0
 42
0.0915052834331004
 70
     2
 50
4.7858704146415842
  0
VERTEX
  5
10A
  8
0
 10
662.35813712653271
 20
215.69846694779019
 30
0.0
 42
0.1012450447570689
 50
4.7858704146415842
  0
VERTEX
  5
10B
  8
0
 10
664.9551398425167
 20
217.6740981921954
 30
0.0
 42
0.0844157437661641
 50
18.0
  0
VERTEX
  5
10C
  8
0
 10
667.01402931910275
 20
220.57664652192099
 30
0.0
 42
0.0915052834331024
 50
18.0
  0
VERTEX
  5
10D
  8
0
 10
667.878191500193
 20
223.7479961539905
 30
0.0
 42
0.1037154851168992
 70
     2
 50
85.214129585354229
  0
VERTEX
  5
10E
  8
0
 10
667.48344687351425
 20
226.93683843244071
 30
0.0
 42
0.1143807926381178
 50
85.214129585354229
  0
VERTEX
  5
10F
  8
0
 10
665.93811283620005
 20
229.41473337035609
 30
0.0
 50
18.0
  0
SEQEND
  5
110
  8
0
  0
ARC
  5
111
  8
0
 10
612.62923803471222
 20
270.0
 30
0.0
 40
67.0
 50
322.71715148639049
 51
325.28284851360968
  0
ARC
  5
112
  8
0
 10
612.62923803471222
 20
270.0
 30
0.0
 40
63.0
 50
322.63568584933438
 51
325.36431415066568
  0
POLYLINE
  5
113
  8
0
 66
     1
 10
0.0
 20
0.0
 30
0.0
 70
     1
  0
VERTEX
  5
114
  8
0
 10
672.04967797956658
 20
249.11593536673499
 30
0.0
 42
0.2092540841238558
 50
36.0
  0
VERTEX
  5
115
  8
0
 10
671.09204871672625
 20
249.0214031157858
 30
0.0
 42
0.0763557249806048
 50
36.0
  0
VERTEX
  5
116
  8
0
 10
669.41402601068035
 20
247.71000424297009
 30
0.0
 42
0.0409112075683799
 50
36.0
  0
VERTEX
  5
117
  8
0
 10
667.60604549721302
 20
245.4430462230001
 30
0.0
 42
0.0384902333433664
 50
36.0
  0
VERTEX
  5
118
  8
0
 10
666.08962948601402
 20
242.76057001562711
 30
0.0
 42
0.0300642918268017
 50
36.0
  0
VERTEX
  5
119
  8
0
 10
664.71322943700511
 20
239.60349690267299
 30
0.0
 42
0.0409112075683848
 50
36.0
  0
VERTEX
  5
11A
  8
0
 10
664.03948433352423
 20
237.16187228510711
 30
0.0
 42
0.0763557249804645
 50
36.0
  0
VERTEX
  5
11B
  8
0
 10
663.96485735863848
 20
235.0335024816595
 30
0.0
 42
0.2092540841239438
 50
36.0
  0
VERTEX
  5
11C
  8
0
 10
664.45125951896011
 20
234.203199470736
 30
0.0
 50
36.0
  0
VERTEX
  5
11D
  8
0
 10
667.70146859307738
 20
231.84178435348099
 30
0.0
 42
0.1143807926381262
 50
36.0
  0
VERTEX
  5
11E
  8
0
 10
670.53562119999265
 20
231.13779599353219
 30
0.0
 42
0.1037154851168902
 50
36.0
  0
VERTEX
  5
11F
  8
0
 10
673.6903732264318
 20
231.7477780004792
 30
0.0
 42
0.0915052834331004
 70
     2
 50
22.78587041464159
  0
VERTEX
  5
120
  8
0
 10
676.70432809791805
 20
233.72324807680849
 30
0.0
 42
0.1012450447570689
 50
22.78587041464159
  0
VERTEX
  5
121
  8
0
 10
678.56372082465145
 20
236.40470301927331
 30
0.0
 42
0.0844157437661641
 50
36.0
  0
VERTEX
  5
122
  8
0
 10
679.62490431681044
 20
239.8014223599254
 30
0.0
 42
0.0915052834331024
 50
36.0
  0
VERTEX
  5
123
  8
0
 10
679.46677045885781
 20
243.08459589280841
 30
0.0
 42
0.1037154851168992
 70
     2
 50
103.2141295853542
  0
VERTEX
  5
124
  8
0
 10
678.10593955296008
 20
245.9953823230839
 30
0.0
 42
0.1143807926381178
 50
103.2141295853542
  0
VERTEX
  5
125
  8
0
 10
675.87052790082817
 20
247.87446597096701
 30
0.0
 50
36.0
  0
SEQEND
  5
126
  8
0
  0
ARC
  5
127
  8
0
 10
612.62923803471222
 20
269.99999999999989
 30
0.0
 40
67.0
 50
340.71715148639049
 51
343.28284851360968
  0
ARC
  5
128
  8
0
 10
612.62923803471222
 20
269.99999999999989
 30
0.0
 40
63.0
 50
340.63568584933449
 51
343.36431415066568
  0
POLYLINE
  5
129
  8
0
 66
     1
 10
0.0
 20
0.0
 30
0.0
 70
     1
  0
VERTEX
  5
12A
  8
0
 10
675.59496552869439
 20
268.50000000000011
 30
0.0
 42
0.2092540841238558
 50
54.0
  0
VERTEX
  5
12B
  8
0
 10
674.71341805013515
 20
268.11417077020661
 30
0.0
 42
0.0763557249806048
 50
54.0
  0
VERTEX
  5
12C
  8
0
 10
673.52276815916321
 20
266.34841879363768
 30
0.0
 42
0.0409112075683799
 50
54.0
  0
VERTEX
  5
12D
  8
0
 10
672.50380506420049
 20
263.63371689241762
 30
0.0
 42
0.0384902333433664
 50
54.0
  0
VERTEX
  5
12E
  8
0
 10
671.89053847042032
 20
260.61393209758597
 30
0.0
 42
0.0300642918268017
 50
54.0
  0
VERTEX
  5
12F
  8
0
 10
671.55709347916832
 20
257.18604613488839
 30
0.0
 42
0.0409112075683848
 50
54.0
  0
VERTEX
  5
130
  8
0
 10
671.67082730889285
 20
254.65572444515331
 30
0.0
 42
0.0763557249804645
 50
54.0
  0
VERTEX
  5
131
  8
0
 10
672.25755527771639
 20
252.6084634710202
 30
0.0
 42
0.2092540841239438
 50
54.0
  0
VERTEX
  5
132
  8
0
 10
672.97672896268625
 20
251.96910491562181
 30
0.0
 50
54.0
  0
VERTEX
  5
133
  8
0
 10
676.79757888395284
 20
250.7276355198525
 30
0.0
 42
0.1143807926381262
 50
54.0
  0
VERTEX
  5
134
  8
0
 10
679.71056255600092
 20
250.9339041229162
 30
0.0
 42
0.1037154851168902
 50
54.0
  0
VERTEX
  5
135
  8
0
 10
682.52241522163138
 20
252.48890347465439
 30
0.0
 42
0.0915052834331004
 70
     2
 50
40.785870414641579
  0
VERTEX
  5
136
  8
0
 10
684.77840281651311
 20
255.29905043906189
 30
0.0
 42
0.1012450447570689
 50
40.785870414641579
  0
VERTEX
  5
137
  8
0
 10
685.71817523875245
 20
258.42384958702269
 30
0.0
 42
0.0844157437661641
 50
54.0
  0
VERTEX
  5
138
  8
0
 10
685.67777671257147
 20
261.98224538320289
 30
0.0
 42
0.0915052834331024
 50
54.0
  0
VERTEX
  5
139
  8
0
 10
684.51282605937581
 20
265.05586291628561
 30
0.0
 42
0.1037154851168992
 70
     2
 50
121.2141295853542
  0
VERTEX
  5
13A
  8
0
 10
682.31911648479513
 20
267.40366544194973
 30
0.0
 42
0.1143807926381178
 50
121.2141295853542
  0
VERTEX
  5
13B
  8
0
 10
679.61244488538489
 20
268.5
 30
0.0
 50
54.0
  0
SEQEND
  5
13C
  8
0
  0
ARC
  5
13D
  8
0
 10
612.62923803471222
 20
270.0
 30
0.0
 40
67.0
 50
358.71715148639049
 51
1.282848513609681
  0
ARC
  5
13E
  8
0
 10
612.62923803471222
 20
269.99999999999989
 30
0.0
 40
63.0
 50
358.63568584933438
 51
1.3643141506656871
  0
POLYLINE
  5
13F
  8
0
 66
     1
 10
0.0
 20
0.0
 30
0.0
 70
     1
  0
VERTEX
  5
140
  8
0
 10
672.97672896269125
 20
288.03089508437978
 30
0.0
 42
0.2092540841238558
 50
72.0
  0
VERTEX
  5
141
  8
0
 10
672.25755527771685
 20
287.3915365289842
 30
0.0
 42
0.0763557249806048
 50
72.0
  0
VERTEX
  5
142
  8
0
 10
671.67082730889251
 20
285.34427555484638
 30
0.0
 42
0.0409112075683799
 50
72.0
  0
VERTEX
  5
143
  8
0
 10
671.54062483970324
 20
282.44756370890781
 30
0.0
 42
0.0384902333433664
 50
72.0
  0
VERTEX
  5
144
  8
0
 10
671.89053847042032
 20
279.38606790241357
 30
0.0
 42
0.0300642918268017
 50
72.0
  0
VERTEX
  5
145
  8
0
 10
672.6326884559171
 20
276.0229144514874
 30
0.0
 42
0.0409112075683848
 50
72.0
  0
VERTEX
  5
146
  8
0
 10
673.52276815916355
 20
273.6515812063621
 30
0.0
 42
0.0763557249804645
 50
72.0
  0
VERTEX
  5
147
  8
0
 10
674.71341805013344
 20
271.88582922979759
 30
0.0
 42
0.2092540841239438
 50
72.0
  0
VERTEX
  5
148
  8
0
 10
675.59496552868916
 20
271.49999999999989
 30
0.0
 50
72.0
  0
VERTEX
  5
149
  8
0
 10
679.61244488538478
 20
271.5
 30
0.0
 42
0.1143807926381262
 50
72.0
  0
VERTEX
  5
14A
  8
0
 10
682.31911648479468
 20
272.59633455805027
 30
0.0
 42
0.1037154851168902
 50
72.0
  0
VERTEX
  5
14B
  8
0
 10
684.51282605937558
 20
274.94413708371411
 30
0.0
 42
0.0915052834331004
 70
     2
 50
58.785870414641579
  0
VERTEX
  5
14C
  8
0
 10
685.79001459347535
 20
278.31388417187839
 30
0.0
 42
0.1012450447570689
 50
58.785870414641579
  0
VERTEX
  5
14D
  8
0
 10
685.71817523875245
 20
281.57615041297692
 30
0.0
 42
0.0844157437661641
 50
72.0
  0
VERTEX
  5
14E
  8
0
 10
684.58014918344725
 20
284.9479020913538
 30
0.0
 42
0.0915052834331024
 50
72.0
  0
VERTEX
  5
14F
  8
0
 10
682.52241522163195
 20
287.51109652534541
 30
0.0
 42
0.1037154851168992
 70
     2
 50
139.21412958535419
  0
VERTEX
  5
150
  8
0
 10
679.71056255600115
 20
289.06609587708402
 30
0.0
 42
0.1143807926381178
 50
139.21412958535419
  0
VERTEX
  5
151
  8
0
 10
676.79757888395295
 20
289.27236448014759
 30
0.0
 50
72.0
  0
SEQEND
  5
152
  8
0
  0
ARC
  5
153
  8
0
 10
612.62923803471222
 20
270.0
 30
0.0
 40
67.0
 50
16.717151486390492
 51
19.282848513609679
  0
ARC
  5
154
  8
0
 10
612.62923803471222
 20
269.99999999999989
 30
0.0
 40
63.0
 50
16.63568584933444
 51
19.364314150665692
  0
POLYLINE
  5
155
  8
0
 66
     1
 10
0.0
 20
0.0
 30
0.0
 70
     1
  0
VERTEX
  5
156
  8
0
 10
664.45125951896443
 20
305.7968005292671
 30
0.0
 42
0.2092540841238558
 50
90.0
  0
VERTEX
  5
157
  8
0
 10
663.96485735863746
 20
304.96649751834468
 30
0.0
 42
0.0763557249806048
 50
90.0
  0
VERTEX
  5
158
  8
0
 10
664.03948433352377
 20
302.83812771489238
 30
0.0
 42
0.0409112075683799
 50
90.0
  0
VERTEX
  5
159
  8
0
 10
664.81078761496588
 20
300.04295626229413
 30
0.0
 42
0.0384902333433664
 50
90.0
  0
VERTEX
  5
15A
  8
0
 10
666.08962948601413
 20
297.23942998437241
 30
0.0
 42
0.0300642918268017
 50
90.0
  0
VERTEX
  5
15B
  8
0
 10
667.83472763681607
 20
294.27021793746218
 30
0.0
 42
0.0409112075683848
 50
90.0
  0
VERTEX
  5
15C
  8
0
 10
669.4140260106808
 20
292.28999575702983
 30
0.0
 42
0.0763557249804645
 50
90.0
  0
VERTEX
  5
15D
  8
0
 10
671.09204871672341
 20
290.9785968842175
 30
0.0
 42
0.2092540841239438
 50
90.0
  0
VERTEX
  5
15E
  8
0
 10
672.04967797956135
 20
290.88406463326339
 30
0.0
 50
90.0
  0
VERTEX
  5
15F
  8
0
 10
675.87052790082794
 20
292.12553402903291
 30
0.0
 42
0.1143807926381262
 50
90.0
  0
VERTEX
  5
160
  8
0
 10
678.10593955295985
 20
294.00461767691593
 30
0.0
 42
0.1037154851168902
 50
90.0
  0
VERTEX
  5
161
  8
0
 10
679.46677045885735
 20
296.91540410719119
 30
0.0
 42
0.0915052834331004
 70
     2
 50
76.785870414641579
  0
VERTEX
  5
162
  8
0
 10
679.64013981976245
 20
300.51489699571408
 30
0.0
 42
0.1012450447570689
 50
76.785870414641579
  0
VERTEX
  5
163
  8
0
 10
678.56372082465168
 20
303.59529698072629
 30
0.0
 42
0.0844157437661641
 50
90.0
  0
VERTEX
  5
164
  8
0
 10
676.43946515960909
 20
306.4503539946449
 30
0.0
 42
0.0915052834331024
 50
90.0
  0
VERTEX
  5
165
  8
0
 10
673.69037322643214
 20
308.25222199952083
 30
0.0
 42
0.1037154851168992
 70
     2
 50
157.21412958535419
  0
VERTEX
  5
166
  8
0
 10
670.53562119999276
 20
308.862204006468
 30
0.0
 42
0.1143807926381178
 50
157.21412958535419
  0
VERTEX
  5
167
  8
0
 10
667.70146859307749
 20
308.15821564651912
 30
0.0
 50
90.0
  0
SEQEND
  5
168
  8
0
  0
ARC
  5
169
  8
0
 10
612.62923803471222
 20
270.0
 30
0.0
 40
67.0
 50
34.717151486390492
 51
37.282848513609693
  0
ARC
  5
16A
  8
0
 10
612.62923803471222
 20
269.99999999999989
 30
0.0
 40
63.0
 50
34.635685849334443
 51
37.364314150665692
  0
POLYLINE
  5
16B
  8
0
 66
     1
 10
0.0
 20
0.0
 30
0.0
 70
     1
  0
VERTEX
  5
16C
  8
0
 10
650.85308954710388
 20
320.05866572737489
 30
0.0
 42
0.2092540841238558
 50
108.0
  0
VERTEX
  5
16D
  8
0
 10
650.64707134384093
 20
319.11869410469592
 30
0.0
 42
0.0763557249806048
 50
108.0
  0
VERTEX
  5
16E
  8
0
 10
651.37574825417914
 20
317.11755513751541
 30
0.0
 42
0.0409112075683799
 50
108.0
  0
VERTEX
  5
16F
  8
0
 10
652.973056747079
 20
314.69753493514241
 30
0.0
 42
0.0384902333433664
 50
108.0
  0
VERTEX
  5
170
  8
0
 10
655.05564490590496
 20
312.42640687119251
 30
0.0
 42
0.0300642918268017
 50
108.0
  0
VERTEX
  5
171
  8
0
 10
657.632868856198
 20
310.1417833911666
 30
0.0
 42
0.0409112075683848
 50
108.0
  0
VERTEX
  5
172
  8
0
 10
659.74679317222831
 20
308.74651021946698
 30
0.0
 42
0.0763557249804645
 50
108.0
  0
VERTEX
  5
173
  8
0
 10
661.74793213940438
 20
308.01783330913088
 30
0.0
 42
0.2092540841239438
 50
108.0
  0
VERTEX
  5
174
  8
0
 10
662.68790376208278
 20
308.22385151238871
 30
0.0
 50
108.0
  0
VERTEX
  5
175
  8
0
 10
665.93811283619993
 20
310.5852666296438
 30
0.0
 42
0.1143807926381262
 50
108.0
  0
VERTEX
  5
176
  8
0
 10
667.48344687351414
 20
313.06316156755918
 30
0.0
 42
0.1037154851168902
 50
108.0
  0
VERTEX
  5
177
  8
0
 10
667.87819150019266
 20
316.2520038460089
 30
0.0
 42
0.0915052834331004
 70
     2
 50
94.785870414641565
  0
VERTEX
  5
178
  8
0
 10
666.93077108692205
 20
319.72889909182038
 30
0.0
 42
0.1012450447570689
 50
94.785870414641565
  0
VERTEX
  5
179
  8
0
 10
664.95513984251693
 20
322.32590180780443
 30
0.0
 42
0.0844157437661641
 50
108.0
  0
VERTEX
  5
17A
  8
0
 10
662.05259151279108
 20
324.38479128439047
 30
0.0
 42
0.0915052834331024
 50
108.0
  0
VERTEX
  5
17B
  8
0
 10
658.88124188072175
 20
325.24895346548072
 30
0.0
 42
0.1037154851168992
 70
     2
 50
175.21412958535419
  0
VERTEX
  5
17C
  8
0
 10
655.69239960227151
 20
324.85420883880198
 30
0.0
 42
0.1143807926381178
 50
175.21412958535419
  0
VERTEX
  5
17D
  8
0
 10
653.21450466435613
 20
323.30887480148789
 30
0.0
 50
108.0
  0
SEQEND
  5
17E
  8
0
  0
ARC
  5
17F
  8
0
 10
612.62923803471222
 20
270.0
 30
0.0
 40
67.0
 50
52.717151486390492
 51
55.282848513609679
  0
ARC
  5
180
  8
0
 10
612.62923803471222
 20
269.99999999999989
 30
0.0
 40
63.0
 50
52.635685849334443
 51
55.364314150665692
  0
POLYLINE
  5
181
  8
0
 66
     1
 10
0.0
 20
0.0
 30
0.0
 70
     1
  0
VERTEX
  5
182
  8
0
 10
633.5133026679772
 20
329.42043994485442
 30
0.0
 42
0.2092540841238558
 50
126.0
  0
VERTEX
  5
183
  8
0
 10
633.60783491892641
 20
328.46281068201398
 30
0.0
 42
0.0763557249806048
 50
126.0
  0
VERTEX
  5
184
  8
0
 10
634.91923379174204
 20
326.78478797596807
 30
0.0
 42
0.0409112075683799
 50
126.0
  0
VERTEX
  5
185
  8
0
 10
637.18619181171198
 20
324.97680746250069
 30
0.0
 42
0.0384902333433664
 50
126.0
  0
VERTEX
  5
186
  8
0
 10
639.86866801908513
 20
323.46039145130169
 30
0.0
 42
0.0300642918268017
 50
126.0
  0
VERTEX
  5
187
  8
0
 10
643.02574113203923
 20
322.08399140229278
 30
0.0
 42
0.0409112075683848
 50
126.0
  0
VERTEX
  5
188
  8
0
 10
645.46736574960505
 20
321.4102462988119
 30
0.0
 42
0.0763557249804645
 50
126.0
  0
VERTEX
  5
189
  8
0
 10
647.59573555305258
 20
321.33561932392638
 30
0.0
 42
0.2092540841239438
 50
126.0
  0
VERTEX
  5
18A
  8
0
 10
648.42603856397625
 20
321.8220214842479
 30
0.0
 50
126.0
  0
VERTEX
  5
18B
  8
0
 10
650.78745368123123
 20
325.07223055836499
 30
0.0
 42
0.1143807926381262
 50
126.0
  0
VERTEX
  5
18C
  8
0
 10
651.49144204118011
 20
327.90638316528037
 30
0.0
 42
0.1037154851168902
 50
126.0
  0
VERTEX
  5
18D
  8
0
 10
650.8814600342331
 20
331.06113519171947
 30
0.0
 42
0.0915052834331004
 70
     2
 50
112.78587041464159
  0
VERTEX
  5
18E
  8
0
 10
648.90598995790378
 20
334.07509006320572
 30
0.0
 42
0.1012450447570689
 50
112.78587041464159
  0
VERTEX
  5
18F
  8
0
 10
646.22453501543896
 20
335.93448278993912
 30
0.0
 42
0.0844157437661641
 50
126.0
  0
VERTEX
  5
190
  8
0
 10
642.82781567478685
 20
336.99566628209811
 30
0.0
 42
0.0915052834331024
 50
126.0
  0
VERTEX
  5
191
  8
0
 10
639.54464214190386
 20
336.83753242414548
 30
0.0
 42
0.1037154851168992
 70
     2
 50
193.21412958535419
  0
VERTEX
  5
192
  8
0
 10
636.63385571162814
 20
335.47670151824792
 30
0.0
 42
0.1143807926381178
 50
193.21412958535419
  0
VERTEX
  5
193
  8
0
 10
634.75477206374512
 20
333.24128986611589
 30
0.0
 50
126.0
  0
SEQEND
  5
194
  8
0
  0
ARC
  5
195
  8
0
 10
632.33036484560114
 20
321.35041969041009
 30
0.0
 40
5.0
 50
69.010165565346071
 51
185.03364835471541
  0
ARC
  5
196
  8
0
 10
612.62923803471222
 20
270.0
 30
0.0
 40
67.0
 50
250.71715148639049
 51
289.28284851360962
  0
LINE
  5
197
  8
0
 10
627.62923803471222
 20
211.90524980688861
 30
0.0
 11
627.62923803471222
 21
207.13506541799291
 31
0.0
  0
ARC
  5
198
  8
0
 10
624.62923803471222
 20
207.13506541799291
 30
0.0
 40
3.0
 50
280.80692287486022
 51
0.0
  0
ARC
  5
199
  8
0
 10
612.62923803471222
 20
270.0
 30
0.0
 40
60.999999999999943
 50
274.82582397224741
 51
277.17417602775259
  0
TEXT
  5
19A
  8
0
 10
624.67378087460247
 20
213.24456864952921
 30
0.0
 40
6.0000000000024043
  1
S
 50
190.50000000000011
 41
0.7499999999996647
 72
     5
 11
621.72401615191075
 21
212.69786207305279
 31
0.0
  0
TEXT
  5
19B
  8
0
 10
615.64698702403211
 20
212.05914057387989
 30
0.0
 40
6.0000000000024043
  1
1
 50
181.49999999999989
 41
1.4999999999994069
 72
     5
 11
612.64801504910542
 21
211.9806097289563
 31
0.0
  0
TEXT
  5
19C
  8
0
 10
609.57398648309675
 20
212.06110599988719
 30
0.0
 40
6.0000000000024043
  1
6
 50
175.50000000000011
 41
0.7499999999996847
 72
     5
 11
606.58323448189753
 21
212.2964832870708
 31
0.0
  0
TEXT
  5
19D
  8
0
 10
603.53445991751346
 20
212.69786207305279
 30
0.0
 40
6.0000000000024043
  1
0
 50
169.5000000000002
 72
     5
 11
600.58469519482173
 21
213.24456864952921
 31
0.0
  0
ARC
  5
19E
  8
0
 10
612.62923803471222
 20
269.99999999999869
 30
0.0
 40
67.0
 50
70.717151486389483
 51
86.652982715729024
  0
LINE
  5
19F
  8
0
 10
597.62923803471222
 20
211.90524980688861
 30
0.0
 11
597.62923803471222
 21
207.13506541799291
 31
0.0
  0
ARC
  5
1A0
  8
0
 10
592.92811122382295
 20
321.35041969040998
 30
0.0
 40
5.0
 50
354.96635164528482
 51
110.9898344346541
  0
POLYLINE
  5
1A1
  8
0
 66
     1
 10
0.0
 20
0.0
 30
0.0
 70
     1
  0
VERTEX
  5
1A2
  8
0
 10
591.74517340144689
 20
329.42043994485419
 30
0.0
 42
-0.2092540841238558
  0
VERTEX
  5
1A3
  8
0
 10
591.65064115049756
 20
328.46281068201398
 30
0.0
 42
-0.0763557249806048
  0
VERTEX
  5
1A4
  8
0
 10
590.33924227768205
 20
326.78478797596802
 30
0.0
 42
-0.0409112075683799
  0
VERTEX
  5
1A5
  8
0
 10
588.072284257712
 20
324.97680746250069
 30
0.0
 42
-0.0384902333433664
  0
VERTEX
  5
1A6
  8
0
 10
585.38980805033896
 20
323.46039145130169
 30
0.0
 42
-0.0300642918268017
  0
VERTEX
  5
1A7
  8
0
 10
582.23273493738475
 20
322.08399140229272
 30
0.0
 42
-0.0409112075683848
  0
VERTEX
  5
1A8
  8
0
 10
579.79111031981893
 20
321.4102462988119
 30
0.0
 42
-0.0763557249804645
  0
VERTEX
  5
1A9
  8
0
 10
577.6627405163714
 20
321.33561932392632
 30
0.0
 42
-0.2092540841239438
  0
VERTEX
  5
1AA
  8
0
 10
576.83243750544784
 20
321.82202148424778
 30
0.0
  0
VERTEX
  5
1AB
  8
0
 10
574.47102238819275
 20
325.07223055836499
 30
0.0
 42
-0.1143807926381262
  0
VERTEX
  5
1AC
  8
0
 10
573.76703402824398
 20
327.90638316528032
 30
0.0
 42
-0.1037154851168902
  0
VERTEX
  5
1AD
  8
0
 10
574.37701603519099
 20
331.06113519171942
 30
0.0
 42
-0.0915052834331004
 70
     2
 50
67.214129585358592
  0
VERTEX
  5
1AE
  8
0
 10
576.35248611152042
 20
334.07509006320561
 30
0.0
 42
-0.1012450447570689
  0
VERTEX
  5
1AF
  8
0
 10
579.03394105398513
 20
335.93448278993901
 30
0.0
 42
-0.0844157437661641
  0
VERTEX
  5
1B0
  8
0
 10
582.43066039463724
 20
336.995666282098
 30
0.0
 42
-0.0915052834331024
  0
VERTEX
  5
1B1
  8
0
 10
585.71383392752023
 20
336.83753242414542
 30
0.0
 42
-0.1037154851168992
 70
     2
 50
346.7858704146459
  0
VERTEX
  5
1B2
  8
0
 10
588.62462035779572
 20
335.47670151824781
 30
0.0
 42
-0.1143807926381178
  0
VERTEX
  5
1B3
  8
0
 10
590.50370400567886
 20
333.24128986611589
 30
0.0
  0
SEQEND
  5
1B4
  8
0
  0
ARC
  5
1B5
  8
0
 10
612.62923803471199
 20
269.99999999999989
 30
0.0
 40
63.0
 50
124.63568584933449
 51
127.36431415066571
  0
ARC
  5
1B6
  8
0
 10
612.62923803471199
 20
270.0
 30
0.0
 40
67.0
 50
124.71715148639051
 51
127.28284851360969
  0
POLYLINE
  5
1B7
  8
0
 66
     1
 10
0.0
 20
0.0
 30
0.0
 70
     1
  0
VERTEX
  5
1B8
  8
0
 10
574.40538652231999
 20
320.05866572737477
 30
0.0
 42
-0.2092540841238558
  0
VERTEX
  5
1B9
  8
0
 10
574.61140472558316
 20
319.11869410469581
 30
0.0
 42
-0.0763557249806048
  0
VERTEX
  5
1BA
  8
0
 10
573.88272781524495
 20
317.1175551375153
 30
0.0
 42
-0.0409112075683799
  0
VERTEX
  5
1BB
  8
0
 10
572.28541932234521
 20
314.69753493514219
 30
0.0
 42
-0.0384902333433664
  0
VERTEX
  5
1BC
  8
0
 10
570.20283116351914
 20
312.4264068711924
 30
0.0
 42
-0.0300642918268017
  0
VERTEX
  5
1BD
  8
0
 10
567.6256072132262
 20
310.14178339116643
 30
0.0
 42
-0.0409112075683848
  0
VERTEX
  5
1BE
  8
0
 10
565.5116828971959
 20
308.74651021946693
 30
0.0
 42
-0.0763557249804645
  0
VERTEX
  5
1BF
  8
0
 10
563.51054393001982
 20
308.01783330913082
 30
0.0
 42
-0.2092540841239438
  0
VERTEX
  5
1C0
  8
0
 10
562.57057230734131
 20
308.22385151238859
 30
0.0
  0
VERTEX
  5
1C1
  8
0
 10
559.32036323322416
 20
310.58526662964368
 30
0.0
 42
-0.1143807926381262
  0
VERTEX
  5
1C2
  8
0
 10
557.77502919590995
 20
313.06316156755912
 30
0.0
 42
-0.1037154851168902
  0
VERTEX
  5
1C3
  8
0
 10
557.38028456923132
 20
316.25200384600868
 30
0.0
 42
-0.0915052834331004
 70
     2
 50
85.214129585358606
  0
VERTEX
  5
1C4
  8
0
 10
558.32770498250204
 20
319.72889909182032
 30
0.0
 42
-0.1012450447570689
  0
VERTEX
  5
1C5
  8
0
 10
560.30333622690716
 20
322.32590180780431
 30
0.0
 42
-0.0844157437661641
  0
VERTEX
  5
1C6
  8
0
 10
563.20588455663278
 20
324.38479128439042
 30
0.0
 42
-0.0915052834331024
  0
VERTEX
  5
1C7
  8
0
 10
566.37723418870235
 20
325.2489534654805
 30
0.0
 42
-0.1037154851168992
 70
     2
 50
4.7858704146459488
  0
VERTEX
  5
1C8
  8
0
 10
569.56607646715258
 20
324.85420883880192
 30
0.0
 42
-0.1143807926381178
  0
VERTEX
  5
1C9
  8
0
 10
572.04397140506785
 20
323.30887480148778
 30
0.0
  0
SEQEND
  5
1CA
  8
0
  0
ARC
  5
1CB
  8
0
 10
612.62923803471199
 20
269.99999999999989
 30
0.0
 40
63.0
 50
142.63568584933449
 51
145.36431415066571
  0
ARC
  5
1CC
  8
0
 10
612.62923803471199
 20
270.0
 30
0.0
 40
67.0
 50
142.71715148639049
 51
145.28284851360971
  0
POLYLINE
  5
1CD
  8
0
 66
     1
 10
0.0
 20
0.0
 30
0.0
 70
     1
  0
VERTEX
  5
1CE
  8
0
 10
560.80721655045966
 20
305.79680052926699
 30
0.0
 42
-0.2092540841238558
  0
VERTEX
  5
1CF
  8
0
 10
561.29361871078663
 20
304.96649751834462
 30
0.0
 42
-0.0763557249806048
  0
VERTEX
  5
1D0
  8
0
 10
561.2189917359002
 20
302.83812771489232
 30
0.0
 42
-0.0409112075683799
  0
VERTEX
  5
1D1
  8
0
 10
560.44768845445833
 20
300.0429562622939
 30
0.0
 42
-0.0384902333433664
  0
VERTEX
  5
1D2
  8
0
 10
559.16884658340996
 20
297.23942998437241
 30
0.0
 42
-0.0300642918268017
  0
VERTEX
  5
1D3
  8
0
 10
557.42374843260802
 20
294.27021793746201
 30
0.0
 42
-0.0409112075683848
  0
VERTEX
  5
1D4
  8
0
 10
555.84445005874329
 20
292.2899957570296
 30
0.0
 42
-0.0763557249804645
  0
VERTEX
  5
1D5
  8
0
 10
554.16642735270079
 20
290.97859688421732
 30
0.0
 42
-0.2092540841239438
  0
VERTEX
  5
1D6
  8
0
 10
553.20879808986274
 20
290.88406463326322
 30
0.0
  0
VERTEX
  5
1D7
  8
0
 10
549.38794816859615
 20
292.12553402903268
 30
0.0
 42
-0.1143807926381262
  0
VERTEX
  5
1D8
  8
0
 10
547.15253651646435
 20
294.00461767691581
 30
0.0
 42
-0.1037154851168902
  0
VERTEX
  5
1D9
  8
0
 10
545.79170561056685
 20
296.91540410719091
 30
0.0
 42
-0.0915052834331004
 70
     2
 50
103.21412958535861
  0
VERTEX
  5
1DA
  8
0
 10
545.61833624966175
 20
300.51489699571403
 30
0.0
 42
-0.1012450447570689
  0
VERTEX
  5
1DB
  8
0
 10
546.69475524477252
 20
303.59529698072612
 30
0.0
 42
-0.0844157437661641
  0
VERTEX
  5
1DC
  8
0
 10
548.81901090981501
 20
306.45035399464467
 30
0.0
 42
-0.0915052834331024
  0
VERTEX
  5
1DD
  8
0
 10
551.56810284299195
 20
308.2522219995206
 30
0.0
 42
-0.1037154851168992
 70
     2
 50
22.785870414645949
  0
VERTEX
  5
1DE
  8
0
 10
554.72285486943133
 20
308.86220400646778
 30
0.0
 42
-0.1143807926381178
  0
VERTEX
  5
1DF
  8
0
 10
557.55700747634671
 20
308.15821564651901
 30
0.0
  0
SEQEND
  5
1E0
  8
0
  0
ARC
  5
1E1
  8
0
 10
612.62923803471199
 20
269.99999999999989
 30
0.0
 40
63.0
 50
160.63568584933449
 51
163.36431415066571
  0
ARC
  5
1E2
  8
0
 10
612.62923803471199
 20
270.0
 30
0.0
 40
67.0
 50
160.71715148639049
 51
163.28284851360971
  0
POLYLINE
  5
1E3
  8
0
 66
     1
 10
0.0
 20
0.0
 30
0.0
 70
     1
  0
VERTEX
  5
1E4
  8
0
 10
552.28174710673295
 20
288.03089508437961
 30
0.0
 42
-0.2092540841238558
  0
VERTEX
  5
1E5
  8
0
 10
553.00092079170736
 20
287.39153652898398
 30
0.0
 42
-0.0763557249806048
  0
VERTEX
  5
1E6
  8
0
 10
553.58764876053169
 20
285.34427555484632
 30
0.0
 42
-0.0409112075683799
  0
VERTEX
  5
1E7
  8
0
 10
553.71785122972096
 20
282.44756370890758
 30
0.0
 42
-0.0384902333433664
  0
VERTEX
  5
1E8
  8
0
 10
553.36793759900399
 20
279.38606790241352
 30
0.0
 42
-0.0300642918268017
  0
VERTEX
  5
1E9
  8
0
 10
552.62578761350721
 20
276.02291445148722
 30
0.0
 42
-0.0409112075683848
  0
VERTEX
  5
1EA
  8
0
 10
551.73570791026054
 20
273.65158120636193
 30
0.0
 42
-0.0763557249804645
  0
VERTEX
  5
1EB
  8
0
 10
550.54505801929065
 20
271.88582922979742
 30
0.0
 42
-0.2092540841239438
  0
VERTEX
  5
1EC
  8
0
 10
549.66351054073505
 20
271.49999999999972
 30
0.0
  0
VERTEX
  5
1ED
  8
0
 10
545.64603118403954
 20
271.49999999999977
 30
0.0
 42
-0.1143807926381262
  0
VERTEX
  5
1EE
  8
0
 10
542.93935958462953
 20
272.59633455805022
 30
0.0
 42
-0.1037154851168902
  0
VERTEX
  5
1EF
  8
0
 10
540.74565001004873
 20
274.94413708371383
 30
0.0
 42
-0.0915052834331004
 70
     2
 50
121.21412958535861
  0
VERTEX
  5
1F0
  8
0
 10
539.46846147594874
 20
278.3138841718781
 30
0.0
 42
-0.1012450447570689
  0
VERTEX
  5
1F1
  8
0
 10
539.54030083067175
 20
281.57615041297669
 30
0.0
 42
-0.0844157437661641
  0
VERTEX
  5
1F2
  8
0
 10
540.67832688597684
 20
284.94790209135351
 30
0.0
 42
-0.0915052834331024
  0
VERTEX
  5
1F3
  8
0
 10
542.73606084779215
 20
287.51109652534529
 30
0.0
 42
-0.1037154851168992
 70
     2
 50
40.785870414645949
  0
VERTEX
  5
1F4
  8
0
 10
545.54791351342317
 20
289.06609587708368
 30
0.0
 42
-0.1143807926381178
  0
VERTEX
  5
1F5
  8
0
 10
548.46089718547125
 20
289.27236448014742
 30
0.0
  0
SEQEND
  5
1F6
  8
0
  0
ARC
  5
1F7
  8
0
 10
612.62923803471199
 20
269.99999999999989
 30
0.0
 40
63.0
 50
178.63568584933449
 51
181.36431415066571
  0
ARC
  5
1F8
  8
0
 10
612.62923803471199
 20
270.0
 30
0.0
 40
67.0
 50
178.71715148639049
 51
181.28284851360971
  0
POLYLINE
  5
1F9
  8
0
 66
     1
 10
0.0
 20
0.0
 30
0.0
 70
     1
  0
VERTEX
  5
1FA
  8
0
 10
549.6635105407297
 20
268.5
 30
0.0
 42
-0.2092540841238558
  0
VERTEX
  5
1FB
  8
0
 10
550.54505801928906
 20
268.11417077020627
 30
0.0
 42
-0.0763557249806048
  0
VERTEX
  5
1FC
  8
0
 10
551.73570791026123
 20
266.34841879363762
 30
0.0
 42
-0.0409112075683799
  0
VERTEX
  5
1FD
  8
0
 10
552.75467100522349
 20
263.6337168924174
 30
0.0
 42
-0.0384902333433664
  0
VERTEX
  5
1FE
  8
0
 10
553.36793759900411
 20
260.6139320975858
 30
0.0
 42
-0.0300642918268017
  0
VERTEX
  5
1FF
  8
0
 10
553.70138259025578
 20
257.18604613488827
 30
0.0
 42
-0.0409112075683848
  0
VERTEX
  5
200
  8
0
 10
553.58764876053124
 20
254.65572444515311
 30
0.0
 42
-0.0763557249804645
  0
VERTEX
  5
201
  8
0
 10
553.0009207917077
 20
252.60846347102
 30
0.0
 42
-0.2092540841239438
  0
VERTEX
  5
202
  8
0
 10
552.28174710673784
 20
251.9691049156217
 30
0.0
  0
VERTEX
  5
203
  8
0
 10
548.46089718547125
 20
250.7276355198523
 30
0.0
 42
-0.1143807926381262
  0
VERTEX
  5
204
  8
0
 10
545.54791351342328
 20
250.933904122916
 30
0.0
 42
-0.1037154851168902
  0
VERTEX
  5
205
  8
0
 10
542.7360608477926
 20
252.48890347465419
 30
0.0
 42
-0.0915052834331004
 70
     2
 50
139.21412958535859
  0
VERTEX
  5
206
  8
0
 10
540.48007325291098
 20
255.29905043906169
 30
0.0
 42
-0.1012450447570689
  0
VERTEX
  5
207
  8
0
 10
539.54030083067175
 20
258.42384958702252
 30
0.0
 42
-0.0844157437661641
  0
VERTEX
  5
208
  8
0
 10
539.58069935685285
 20
261.98224538320272
 30
0.0
 42
-0.0915052834331024
  0
VERTEX
  5
209
  8
0
 10
540.74565001004839
 20
265.05586291628538
 30
0.0
 42
-0.1037154851168992
 70
     2
 50
58.785870414645942
  0
VERTEX
  5
20A
  8
0
 10
542.9393595846293
 20
267.40366544194961
 30
0.0
 42
-0.1143807926381178
  0
VERTEX
  5
20B
  8
0
 10
545.64603118403943
 20
268.49999999999989
 30
0.0
  0
SEQEND
  5
20C
  8
0
  0
ARC
  5
20D
  8
0
 10
612.62923803471222
 20
269.99999999999989
 30
0.0
 40
63.0
 50
196.63568584933449
 51
199.36431415066571
  0
ARC
  5
20E
  8
0
 10
612.62923803471199
 20
270.0
 30
0.0
 40
67.0
 50
196.71715148639049
 51
199.28284851360971
  0
POLYLINE
  5
20F
  8
0
 66
     1
 10
0.0
 20
0.0
 30
0.0
 70
     1
  0
VERTEX
  5
210
  8
0
 10
553.20879808985774
 20
249.11593536673479
 30
0.0
 42
-0.2092540841238558
  0
VERTEX
  5
211
  8
0
 10
554.16642735269795
 20
249.02140311578569
 30
0.0
 42
-0.0763557249806048
  0
VERTEX
  5
212
  8
0
 10
555.84445005874397
 20
247.71000424297
 30
0.0
 42
-0.0409112075683799
  0
VERTEX
  5
213
  8
0
 10
557.65243057221141
 20
245.44304622300001
 30
0.0
 42
-0.0384902333433664
  0
VERTEX
  5
214
  8
0
 10
559.16884658341041
 20
242.760570015627
 30
0.0
 42
-0.0300642918268017
  0
VERTEX
  5
215
  8
0
 10
560.54524663241932
 20
239.60349690267279
 30
0.0
 42
-0.0409112075683848
  0
VERTEX
  5
216
  8
0
 10
561.21899173590009
 20
237.16187228510691
 30
0.0
 42
-0.0763557249804645
  0
VERTEX
  5
217
  8
0
 10
561.29361871078572
 20
235.0335024816593
 30
0.0
 42
-0.2092540841239438
  0
VERTEX
  5
218
  8
0
 10
560.80721655046409
 20
234.2031994707358
 30
0.0
  0
VERTEX
  5
219
  8
0
 10
557.55700747634705
 20
231.84178435348079
 30
0.0
 42
-0.1143807926381262
  0
VERTEX
  5
21A
  8
0
 10
554.72285486943167
 20
231.137795993532
 30
0.0
 42
-0.1037154851168902
  0
VERTEX
  5
21B
  8
0
 10
551.56810284299263
 20
231.747778000479
 30
0.0
 42
-0.0915052834331004
 70
     2
 50
157.21412958535859
  0
VERTEX
  5
21C
  8
0
 10
548.55414797150627
 20
233.72324807680829
 30
0.0
 42
-0.1012450447570689
  0
VERTEX
  5
21D
  8
0
 10
546.69475524477286
 20
236.4047030192732
 30
0.0
 42
-0.0844157437661641
  0
VERTEX
  5
21E
  8
0
 10
545.63357175261388
 20
239.8014223599252
 30
0.0
 42
-0.0915052834331024
  0
VERTEX
  5
21F
  8
0
 10
545.79170561056662
 20
243.08459589280821
 30
0.0
 42
-0.1037154851168992
 70
     2
 50
76.785870414645956
  0
VERTEX
  5
220
  8
0
 10
547.15253651646424
 20
245.99538232308379
 30
0.0
 42
-0.1143807926381178
  0
VERTEX
  5
221
  8
0
 10
549.38794816859615
 20
247.87446597096681
 30
0.0
  0
SEQEND
  5
222
  8
0
  0
ARC
  5
223
  8
0
 10
612.62923803471222
 20
270.0
 30
0.0
 40
63.0
 50
214.63568584933449
 51
217.36431415066579
  0
ARC
  5
224
  8
0
 10
612.62923803471199
 20
270.0
 30
0.0
 40
67.0
 50
214.71715148639049
 51
217.28284851360971
  0
POLYLINE
  5
225
  8
0
 66
     1
 10
0.0
 20
0.0
 30
0.0
 70
     1
  0
VERTEX
  5
226
  8
0
 10
562.57057230733722
 20
231.77614848760811
 30
0.0
 42
-0.2092540841238558
  0
VERTEX
  5
227
  8
0
 10
563.51054393001607
 20
231.98216669087131
 30
0.0
 42
-0.0763557249806048
  0
VERTEX
  5
228
  8
0
 10
565.51168289719658
 20
231.25348978053299
 30
0.0
 42
-0.0409112075683799
  0
VERTEX
  5
229
  8
0
 10
567.93170309956975
 20
229.65618128763319
 30
0.0
 42
-0.0384902333433664
  0
VERTEX
  5
22A
  8
0
 10
570.2028311635197
 20
227.57359312880709
 30
0.0
 42
-0.0300642918268017
  0
VERTEX
  5
22B
  8
0
 10
572.48745464354545
 20
224.9963691785141
 30
0.0
 42
-0.0409112075683848
  0
VERTEX
  5
22C
  8
0
 10
573.88272781524495
 20
222.88244486248391
 30
0.0
 42
-0.0763557249804645
  0
VERTEX
  5
22D
  8
0
 10
574.61140472558122
 20
220.88130589530769
 30
0.0
 42
-0.2092540841239438
  0
VERTEX
  5
22E
  8
0
 10
574.4053865223234
 20
219.94133427262929
 30
0.0
  0
VERTEX
  5
22F
  8
0
 10
572.04397140506831
 20
216.6911251985122
 30
0.0
 42
-0.1143807926381262
  0
VERTEX
  5
230
  8
0
 10
569.56607646715281
 20
215.1457911611981
 30
0.0
 42
-0.1037154851168902
  0
VERTEX
  5
231
  8
0
 10
566.37723418870314
 20
214.7510465345193
 30
0.0
 42
-0.0915052834331004
 70
     2
 50
175.21412958535859
  0
VERTEX
  5
232
  8
0
 10
562.90033894289172
 20
215.69846694779011
 30
0.0
 42
-0.1012450447570689
  0
VERTEX
  5
233
  8
0
 10
560.30333622690773
 20
217.6740981921952
 30
0.0
 42
-0.0844157437661641
  0
VERTEX
  5
234
  8
0
 10
558.24444675032146
 20
220.57664652192091
 30
0.0
 42
-0.0915052834331024
  0
VERTEX
  5
235
  8
0
 10
557.38028456923143
 20
223.74799615399041
 30
0.0
 42
-0.1037154851168992
 70
     2
 50
94.785870414645956
  0
VERTEX
  5
236
  8
0
 10
557.77502919590995
 20
226.93683843244051
 30
0.0
 42
-0.1143807926381178
  0
VERTEX
  5
237
  8
0
 10
559.32036323322416
 20
229.414733370356
 30
0.0
  0
SEQEND
  5
238
  8
0
  0
POLYLINE
  5
239
  8
0
 66
     1
 10
0.0
 20
0.0
 30
0.0
 70
     1
  0
VERTEX
  5
23A
  8
0
 10
576.832437505445
 20
218.1779785157477
 30
0.0
 42
-0.2092540841238558
  0
VERTEX
  5
23B
  8
0
 10
577.66274051636742
 20
218.66438067607459
 30
0.0
 42
-0.0763557249806048
  0
VERTEX
  5
23C
  8
0
 10
579.79111031981972
 20
218.5897537011883
 30
0.0
 42
-0.0409112075683799
  0
VERTEX
  5
23D
  8
0
 10
582.58628177241803
 20
217.81845041974631
 30
0.0
 42
-0.0384902333433664
  0
VERTEX
  5
23E
  8
0
 10
585.38980805033964
 20
216.539608548698
 30
0.0
 42
-0.0300642918268017
  0
VERTEX
  5
23F
  8
0
 10
588.35902009724975
 20
214.794510397896
 30
0.0
 42
-0.0409112075683848
  0
VERTEX
  5
240
  8
0
 10
590.33924227768239
 20
213.21521202403119
 30
0.0
 42
-0.0763557249804645
  0
VERTEX
  5
241
  8
0
 10
591.65064115049472
 20
211.53718931798869
 30
0.0
 42
-0.2092540841239438
  0
VERTEX
  5
242
  8
0
 10
591.74517340144871
 20
210.57956005515061
 30
0.0
  0
VERTEX
  5
243
  8
0
 10
590.50370400567931
 20
206.75871013388411
 30
0.0
 42
-0.1143807926381262
  0
VERTEX
  5
244
  8
0
 10
588.62462035779606
 20
204.52329848175231
 30
0.0
 42
-0.1037154851168902
  0
VERTEX
  5
245
  8
0
 10
585.71383392752102
 20
203.16246757585469
 30
0.0
 42
-0.0915052834331004
 70
     2
 50
193.21412958535859
  0
VERTEX
  5
246
  8
0
 10
582.11434103899785
 20
202.98909821494971
 30
0.0
 42
-0.1012450447570689
  0
VERTEX
  5
247
  8
0
 10
579.03394105398593
 20
204.06551721006059
 30
0.0
 42
-0.0844157437661641
  0
VERTEX
  5
248
  8
0
 10
576.17888404006715
 20
206.1897728751029
 30
0.0
 42
-0.0915052834331024
  0
VERTEX
  5
249
  8
0
 10
574.37701603519145
 20
208.9388648082799
 30
0.0
 42
-0.1037154851168992
 70
     2
 50
112.7858704146459
  0
VERTEX
  5
24A
  8
0
 10
573.76703402824398
 20
212.09361683471931
 30
0.0
 42
-0.1143807926381178
  0
VERTEX
  5
24B
  8
0
 10
574.47102238819298
 20
214.92776944163461
 30
0.0
  0
SEQEND
  5
24C
  8
0
  0
ARC
  5
24D
  8
0
 10
592.92811122382341
 20
218.64958030958979
 30
0.0
 40
5.0
 50
249.0101655653464
 51
5.0336483547159547
  0
ARC
  5
24E
  8
0
 10
612.62923803471199
 20
270.0
 30
0.0
 40
67.0
 50
232.71715148639049
 51
235.28284851360971
  0
ARC
  5
24F
  8
0
 10
584.87527588467844
 20
253.0894238721886
 30
0.0
 40
10.0
 50
5.0336483547157007
 51
31.354082512800851
  0
ARC
  5
250
  8
0
 10
581.6172398344869
 20
260.27858201550703
 30
0.0
 40
10.0
 50
6.5017349786608367
 51
17.404789186606418
  0
ARC
  5
251
  8
0
 10
581.61723983448758
 20
279.72141798449871
 30
0.0
 40
10.0
 50
342.59521081338369
 51
353.49826502133919
  0
ARC
  5
252
  8
0
 10
584.87527588467833
 20
286.91057612781032
 30
0.0
 40
10.0
 50
328.6459174872013
 51
354.96635164528459
  0
ARC
  5
253
  8
0
 10
591.32027488014251
 20
320.70432022300611
 30
0.0
 40
5.0
 50
353.49826502133948
 51
112.79503458510609
  0
ARC
  5
254
  8
0
 10
612.62923803471222
 20
270.0
 30
0.0
 40
60.0
 50
110.989834434654
 51
255.5224878140703
  0
ARC
  5
255
  8
0
 10
591.32027488014285
 20
219.2956797769935
 30
0.0
 40
5.0
 50
247.20496541489439
 51
6.5017349786608882
  0
LINE
  5
256
  8
0
 10
597.90882793358901
 20
320.91171585288521
 30
0.0
 11
594.83670930420999
 21
286.03316845276038
 31
0.0
  0
LINE
  5
257
  8
0
 10
596.28811701666416
 20
320.13815372223178
 30
0.0
 11
591.55292410753111
 21
278.58908498295
 31
0.0
  0
ARC
  5
258
  8
0
 10
612.62923803471222
 20
270.0
 30
0.0
 40
63.0
 50
232.63568584933449
 51
235.36431415066579
  0
LINE
  5
259
  8
0
 10
596.28811701666461
 20
219.86184627776791
 30
0.0
 11
591.55292410753054
 21
261.41091501705569
 31
0.0
  0
LINE
  5
25A
  8
0
 10
597.90882793358924
 20
219.08828414711471
 30
0.0
 11
594.83670930421022
 21
253.96683154723851
 31
0.0
  0
ARC
  5
25B
  8
0
 10
600.6292380347121
 20
207.13506541799291
 30
0.0
 40
3.0
 50
180.0000000000002
 51
259.19307712514001
  0
LINE
  5
25C
  8
1
 10
627.62923803471222
 20
340.00000000000011
 30
0.0
 11
597.62923803471222
 21
340.0
 31
0.0
  0
CIRCLE
  5
25D
  8
3
 10
612.62923803471222
 20
340.0
 30
0.0
 40
5.0
  0
CIRCLE
  5
25E
  8
0
 10
612.62923803471222
 20
340.0
 30
0.0
 40
4.1879999999999988
  0
ARC
  5
25F
  8
0
 10
612.62923803471222
 20
269.99999999999869
 30
0.0
 40
67.0
 50
93.347017284271075
 51
109.28284851360939
  0
LINE
  5
260
  8
0
 10
435.50000000000011
 20
290.00000000000102
 30
0.0
 11
435.50000000000011
 21
249.99999999999901
 31
0.0
  0
LINE
  5
261
  8
0
 10
401.49999999999989
 20
350.0
 30
0.0
 11
401.49999999999989
 21
190.0
 31
0.0
  0
LINE
  5
262
  8
0
 10
403.0
 20
236.53637418919399
 30
0.0
 11
410.48187917778898
 21
251.66530036886351
 31
0.0
  0
LINE
  5
263
  8
0
 10
403.0
 20
219.68378554021231
 30
0.0
 11
418.30698845774111
 21
242.22839185135399
 31
0.0
  0
LINE
  5
264
  8
0
 10
403.0
 20
222.48221489472911
 30
0.0
 11
418.4550313477958
 21
248.17725507340771
 31
0.0
  0
LINE
  5
265
  8
0
 10
403.0
 20
245.64515223788999
 30
0.0
 11
405.13490467732748
 21
250.38485378362171
 31
0.0
  0
LINE
  5
266
  8
0
 10
419.17036531096488
 20
244.82854199219551
 30
0.0
 11
419.17036531096488
 21
254.9931678346266
 31
0.0
  0
LINE
  5
267
  8
0
 10
410.99999999999989
 20
253.8817748297362
 30
0.0
 11
411.0
 21
270.0
 31
0.0
  0
LINE
  5
268
  8
0
 10
419.17036531096488
 20
256.52368218487169
 30
0.0
 11
412.23913397018748
 21
261.54866519508579
 31
0.0
  0
LINE
  5
269
  8
0
 10
405.57603136072379
 20
256.21230197009157
 30
0.0
 11
410.26336991262991
 21
261.60027219833211
 31
0.0
  0
ARC
  5
26A
  8
0
 10
414.17036531096488
 20
245.03701232082909
 30
0.0
 40
5.0
 50
325.8248856253843
 51
356.15103830730459
  0
ARC
  5
26B
  8
0
 10
422.15232107175979
 20
244.49999999999901
 30
0.0
 40
3.0
 50
101.61434435829101
 51
176.15103830730499
  0
LINE
  5
26C
  8
0
 10
422.0
 20
249.99999999999901
 30
0.0
 11
421.5483515987857
 21
247.43857463333291
 31
0.0
  0
ARC
  5
26D
  8
0
 10
403.57603136072368
 20
248.02769326440929
 30
0.0
 40
2.0
 50
52.652514900565819
 51
70.346175941946797
  0
ARC
  5
26E
  8
0
 10
400.57603136072379
 20
252.43830796698171
 30
0.0
 40
5.0
 50
335.7517605296336
 51
0.0
  0
LINE
  5
26F
  8
0
 10
405.57603136072379
 20
252.43830796698171
 30
0.0
 11
405.57603136072379
 21
255.08998886361559
 31
0.0
  0
LINE
  5
270
  8
0
 10
404.24870415471997
 20
249.91117708759899
 30
0.0
 11
404.0
 21
249.99999999999901
 31
0.0
  0
ARC
  5
271
  8
0
 10
414.17036531096488
 20
250.75439242962821
 30
0.0
 40
5.0
 50
328.97396796044359
 51
0.0
  0
ARC
  5
272
  8
0
 10
405.99999999999989
 20
253.8817748297362
 30
0.0
 40
5.0
 50
333.68570203252739
 51
359.99999999999989
  0
ARC
  5
273
  8
0
 10
422.17036531096488
 20
254.9931678346266
 30
0.0
 40
3.0
 50
125.9412464924149
 51
180.0
  0
ARC
  5
274
  8
0
 10
402.57603136072379
 20
255.08998886361559
 30
0.0
 40
3.0
 50
0.0
 51
41.022085414947298
  0
ARC
  5
275
  8
0
 10
407.99999999999989
 20
263.56932187739068
 30
0.0
 40
3.0
 50
318.97791458505282
 51
0.0
  0
ARC
  5
276
  8
0
 10
413.99999999999989
 20
263.97752312115989
 30
0.0
 40
3.0
 50
179.9999999999994
 51
234.0587535075851
  0
ARC
  5
277
  8
2
 10
130.0
 20
270.0000000000008
 30
0.0
 40
80.000000000000014
 50
86.490815938725277
 51
93.509184061274738
  0
ARC
  5
278
  8
2
 10
129.99999999999989
 20
270.0
 30
0.0
 40
60.0
 50
85.947732055616697
 51
94.052267944383161
  0
CIRCLE
  5
279
  8
0
 10
130.0
 20
339.99999999999989
 30
0.0
 40
11.0
  0
LINE
  5
27A
  8
1
 10
151.0000000000002
 20
339.99999999999989
 30
0.0
 11
108.9999999999999
 21
339.99999999999989
 31
0.0
  0
LINE
  5
27B
  8
0
 10
146.34112101804811
 20
320.13815372223212
 30
0.0
 11
151.07631392718221
 21
278.58908498294318
 31
0.0
  0
ARC
  5
27C
  8
0
 10
129.99999999999989
 20
270.0
 30
0.0
 40
60.0
 50
94.052267944383132
 51
85.947732055616697
  0
ARC
  5
27D
  8
0
 10
129.99999999999989
 20
270.0
 30
0.0
 40
56.000000000000028
 50
75.338501362207737
 51
104.66149863779199
  0
ARC
  5
27E
  8
0
 10
129.99999999999989
 20
270.0
 30
0.0
 40
26.5
 50
49.493772107877412
 51
130.5062278921219
  0
ARC
  5
27F
  8
0
 10
129.99999999999989
 20
270.0
 30
0.0
 40
22.5
 50
37.791264657179347
 51
142.208735342821
  0
CIRCLE
  5
280
  8
0
 10
129.99999999999989
 20
270.0
 30
0.0
 40
20.0
  0
LINE
  5
281
  8
0
 10
144.457144579095
 20
321.00614398243567
 30
0.0
 11
147.7805900643387
 21
283.78769802990843
 31
0.0
  0
ARC
  5
282
  8
0
 10
151.3089631545698
 20
320.70432022300639
 30
0.0
 40
5.0
 50
67.204965414893977
 51
186.5017349786601
  0
ARC
  5
283
  8
0
 10
149.43732872043969
 20
321.45085278412358
 30
0.0
 40
5.0
 50
69.304218035457012
 51
185.10273027132669
  0
ARC
  5
284
  8
0
 10
161.01199820022561
 20
279.72141798449178
 30
0.0
 40
10.0
 50
186.50173497866061
 51
197.40478918660409
  0
ARC
  5
285
  8
0
 10
129.99999999999989
 20
270.0
 30
0.0
 40
22.5
 50
342.59521081339602
 51
17.404789186603999
  0
ARC
  5
286
  8
0
 10
130.0
 20
270.0
 30
0.0
 40
22.5
 50
162.59521081339591
 51
197.40478918660401
  0
ARC
  5
287
  8
0
 10
98.98800179977431
 20
279.72141798449178
 30
0.0
 40
10.0
 50
342.59521081339579
 51
353.49826502133942
  0
ARC
  5
288
  8
0
 10
110.56267127956021
 20
321.45085278412358
 30
0.0
 40
5.0
 50
354.89726972867322
 51
110.6957819645429
  0
ARC
  5
289
  8
0
 10
108.6910368454302
 20
320.70432022300639
 30
0.0
 40
5.0
 50
353.49826502133982
 51
112.795034585106
  0
LINE
  5
28A
  8
0
 10
115.5428554209049
 20
321.00614398243567
 30
0.0
 11
112.2194099356612
 21
283.78769802990848
 31
0.0
  0
LINE
  5
28B
  8
0
 10
113.6588789819519
 20
320.13815372223212
 30
0.0
 11
108.9236860728178
 21
278.58908498294318
 31
0.0
  0
LINE
  5
28C
  8
0
 10
113.6588789819519
 20
219.86184627776791
 30
0.0
 11
108.9236860728178
 21
261.41091501705682
 31
0.0
  0
LINE
  5
28D
  8
0
 10
115.5428554209049
 20
218.9938560175643
 30
0.0
 11
112.2194099356612
 21
256.21230197009152
 31
0.0
  0
ARC
  5
28E
  8
0
 10
108.6910368454302
 20
219.29567977699361
 30
0.0
 40
5.0
 50
247.20496541489399
 51
6.5017349786601901
  0
ARC
  5
28F
  8
0
 10
110.56267127956021
 20
218.54914721587639
 30
0.0
 40
5.0
 50
249.3042180354571
 51
5.1027302713267666
  0
ARC
  5
290
  8
0
 10
98.98800179977431
 20
260.27858201550811
 30
0.0
 40
10.0
 50
6.5017349786606484
 51
17.404789186604191
  0
ARC
  5
291
  8
0
 10
161.01199820022561
 20
260.27858201550811
 30
0.0
 40
10.0
 50
162.59521081339579
 51
173.49826502133939
  0
ARC
  5
292
  8
0
 10
149.43732872043969
 20
218.54914721587639
 30
0.0
 40
5.0
 50
174.89726972867319
 51
290.69578196454302
  0
ARC
  5
293
  8
0
 10
151.3089631545698
 20
219.29567977699361
 30
0.0
 40
5.0
 50
173.49826502133979
 51
292.79503458510612
  0
LINE
  5
294
  8
0
 10
144.457144579095
 20
218.9938560175643
 30
0.0
 11
147.7805900643387
 21
256.21230197009157
 31
0.0
  0
ARC
  5
295
  8
0
 10
129.99999999999989
 20
270.0
 30
0.0
 40
22.5
 50
217.79126465717891
 51
322.20873534282072
  0
ARC
  5
296
  8
0
 10
129.99999999999989
 20
270.0
 30
0.0
 40
26.5
 50
229.4937721078781
 51
310.50622789212258
  0
ARC
  5
297
  8
0
 10
129.99999999999989
 20
270.0
 30
0.0
 40
56.000000000000028
 50
255.33850136220801
 51
284.66149863779231
  0
LINE
  5
298
  8
0
 10
146.34112101804811
 20
219.86184627776791
 30
0.0
 11
151.07631392718221
 21
261.41091501705682
 31
0.0
  0
ARC
  5
299
  8
0
 10
130.0
 20
270.0000000000008
 30
0.0
 40
80.0
 50
93.509184061274794
 51
86.490815938725206
  0
LINE
  5
29A
  8
1
 10
407.99999999999989
 20
340.0
 30
0.0
 11
290.50000000000011
 21
340.0
 31
0.0
  0
LINE
  5
29B
  8
0
 10
403.0
 20
348.49999999999989
 30
0.0
 11
402.99999999999989
 21
191.5
 31
0.0
  0
LINE
  5
29C
  8
0
 10
401.49999999999989
 20
190.0
 30
0.0
 11
386.0
 21
190.0
 31
0.0
  0
LINE
  5
29D
  8
0
 10
435.5
 20
249.99999999999901
 30
0.0
 11
422.0
 21
249.99999999999901
 31
0.0
  0
LINE
  5
29E
  8
0
 10
403.0
 20
191.5
 30
0.0
 11
401.49999999999989
 21
190.0
 31
0.0
  0
ARC
  5
29F
  8
0
 10
386.0
 20
191.0
 30
0.0
 40
1.0
 50
180.00000000000011
 51
270.0
  0
LINE
  5
2A0
  8
0
 10
436.0
 20
250.49999999999909
 30
0.0
 11
435.5
 21
249.99999999999901
 31
0.0
  0
LINE
  5
2A1
  8
0
 10
436.0
 20
289.50000000000102
 30
0.0
 11
435.5
 21
290.00000000000102
 31
0.0
  0
ARC
  5
2A2
  8
0
 10
413.99999999999989
 20
276.02247687884011
 30
0.0
 40
3.0
 50
125.94124649241481
 51
180.0000000000006
  0
ARC
  5
2A3
  8
0
 10
407.99999999999989
 20
276.43067812260932
 30
0.0
 40
3.0
 50
0.0
 51
41.022085414947242
  0
ARC
  5
2A4
  8
0
 10
402.57603136072379
 20
284.9100111363843
 30
0.0
 40
3.0
 50
318.9779145850527
 51
0.0
  0
ARC
  5
2A5
  8
0
 10
422.17036531096488
 20
285.00683216537351
 30
0.0
 40
3.0
 50
180.0
 51
234.0587535075851
  0
ARC
  5
2A6
  8
0
 10
405.99999999999989
 20
286.11822517026383
 30
0.0
 40
5.0
 50
0.0000000000001018
 51
26.314297967472541
  0
ARC
  5
2A7
  8
0
 10
414.17036531096488
 20
289.24560757037182
 30
0.0
 40
5.0
 50
0.0
 51
31.026032039556419
  0
LINE
  5
2A8
  8
0
 10
404.24870415471997
 20
290.08882291240099
 30
0.0
 11
404.0
 21
290.00000000000102
 31
0.0
  0
LINE
  5
2A9
  8
0
 10
405.57603136072379
 20
287.56169203301829
 30
0.0
 11
405.57603136072379
 21
284.9100111363843
 31
0.0
  0
ARC
  5
2AA
  8
0
 10
400.57603136072379
 20
287.56169203301829
 30
0.0
 40
5.0
 50
0.0
 51
24.248239470366379
  0
ARC
  5
2AB
  8
0
 10
403.57603136072368
 20
291.97230673559068
 30
0.0
 40
2.0
 50
289.6538240580532
 51
307.34748509943421
  0
LINE
  5
2AC
  8
0
 10
421.55918254822888
 20
292.50000000000091
 30
0.0
 11
421.55918254822888
 21
247.49999999999909
 31
0.0
  0
LINE
  5
2AD
  8
0
 10
422.0
 20
290.00000000000102
 30
0.0
 11
421.5483515987857
 21
292.56142536666721
 31
0.0
  0
ARC
  5
2AE
  8
0
 10
422.15232107175979
 20
295.50000000000102
 30
0.0
 40
3.0
 50
183.84896169269501
 51
258.38565564170898
  0
ARC
  5
2AF
  8
0
 10
414.17036531096488
 20
294.96298767917091
 30
0.0
 40
5.0
 50
3.8489616926954202
 51
34.17511437461571
  0
LINE
  5
2B0
  8
0
 10
405.57603136072379
 20
283.78769802990843
 30
0.0
 11
410.26336991262991
 21
278.39972780166801
 31
0.0
  0
LINE
  5
2B1
  8
0
 10
419.17036531096488
 20
283.47631781512831
 30
0.0
 11
412.23913397018748
 21
278.4513348049141
 31
0.0
  0
ARC
  5
2B2
  8
0
 10
386.0
 20
349.0
 30
0.0
 40
1.0
 50
90.0
 51
179.99999999999989
  0
LINE
  5
2B3
  8
0
 10
403.0
 20
348.5
 30
0.0
 11
401.49999999999989
 21
350.0
 31
0.0
  0
LINE
  5
2B4
  8
0
 10
410.99999999999989
 20
286.11822517026383
 30
0.0
 11
411.0
 21
270.0
 31
0.0
  0
LINE
  5
2B5
  8
0
 10
419.17036531096488
 20
295.17145800780452
 30
0.0
 11
419.17036531096488
 21
285.00683216537351
 31
0.0
  0
LINE
  5
2B6
  8
0
 10
403.0
 20
294.35484776211001
 30
0.0
 11
405.13490467732748
 21
289.61514621637832
 31
0.0
  0
LINE
  5
2B7
  8
0
 10
403.0
 20
317.51778510527089
 30
0.0
 11
418.4550313477958
 21
291.82274492659229
 31
0.0
  0
LINE
  5
2B8
  8
0
 10
403.0
 20
320.31621445978772
 30
0.0
 11
418.30698845774111
 21
297.77160814864601
 31
0.0
  0
LINE
  5
2B9
  8
0
 10
403.0
 20
303.46362581080598
 30
0.0
 11
410.48187917778898
 21
288.33469963113652
 31
0.0
  0
LINE
  5
2BA
  8
0
 10
435.5
 20
290.00000000000102
 30
0.0
 11
422.0
 21
290.00000000000102
 31
0.0
  0
LINE
  5
2BB
  8
0
 10
422.0
 20
290.00000000000119
 30
0.0
 11
422.0
 21
249.99999999999909
 31
0.0
  0
LINE
  5
2BC
  8
0
 10
436.0
 20
289.50000000000102
 30
0.0
 11
436.0
 21
250.49999999999901
 31
0.0
  0
LINE
  5
2BD
  8
0
 10
404.0
 20
290.00000000000102
 30
0.0
 11
404.0
 21
249.99999999999901
 31
0.0
  0
LINE
  5
2BE
  8
0
 10
401.49999999999989
 20
350.0
 30
0.0
 11
386.0
 21
350.0
 31
0.0
  0
LINE
  5
2BF
  8
1
 10
446.0
 20
270.0
 30
0.0
 11
375.0
 21
270.0
 31
0.0
  0
LINE
  5
2C0
  8
0
 10
385.0
 20
349.0
 30
0.0
 11
385.0
 21
191.0
 31
0.0
  0
LINE
  5
2C1
  8
1
 10
220.0
 20
270.0000000000008
 30
0.0
 11
40.000000000000021
 21
270.0000000000008
 31
0.0
  0
LINE
  5
2C2
  8
1
 10
130.0
 20
360.0000000000008
 30
0.0
 11
130.0
 21
180.0000000000008
 31
0.0
  0
LINE
  5
2C3
  8
1
 10
702.62923803471222
 20
270.0
 30
0.0
 11
522.62923803471222
 21
270.0
 31
0.0
  0
LINE
  5
2C4
  8
1
 10
612.62923803471222
 20
360.0
 30
0.0
 11
612.62923803471222
 21
180.0
 31
0.0
  0
TEXT
  5
3DE
  8
0
 62
     3
 10
0.0
 20
0.0
 30
0.0
 40
10.0
  1
S160ER
  7
STANDARD1
  0
ENDSEC
  0
EOF
