  0
SECTION
  2
HEADER
  9
$ACADVER
  1
AC1009
  9
$INSBASE
 10
0.0
 20
0.0
 30
0.0
  9
$EXTMIN
 10
0.0
 20
-2.960436562073669
 30
0.0
  9
$EXTMAX
 10
221.47535149519871
 20
195.3026825198645
 30
0.0
  9
$LIMMIN
 10
0.0
 20
0.0
  9
$LIMMAX
 10
375.0
 20
270.0
  9
$ORTHOMODE
 70
     1
  9
$REGENMODE
 70
     1
  9
$FILLMODE
 70
     1
  9
$QTEXTMODE
 70
     0
  9
$MIRRTEXT
 70
     0
  9
$DRAGMODE
 70
     2
  9
$LTSCALE
 40
5.0
  9
$OSMODE
 70
    55
  9
$ATTMODE
 70
     1
  9
$TEXTSIZE
 40
0.2
  9
$TRACEWID
 40
0.05
  9
$TEXTSTYLE
  7
STANDARD
  9
$CLAYER
  8
0
  9
$CELTYPE
  6
BYLAYER
  9
$CECOLOR
 62
   256
  9
$DIMSCALE
 40
1.0
  9
$DIMASZ
 40
3.0
  9
$DIMEXO
 40
2.0
  9
$DIMDLI
 40
0.38
  9
$DIMRND
 40
0.0
  9
$DIMDLE
 40
0.0
  9
$DIMEXE
 40
2.0
  9
$DIMTP
 40
0.0
  9
$DIMTM
 40
0.0
  9
$DIMTXT
 40
3.2000000000000002
  9
$DIMCEN
 40
0.0
  9
$DIMTSZ
 40
0.0
  9
$DIMTOL
 70
     0
  9
$DIMLIM
 70
     0
  9
$DIMTIH
 70
     0
  9
$DIMTOH
 70
     0
  9
$DIMSE1
 70
     0
  9
$DIMSE2
 70
     0
  9
$DIMTAD
 70
     1
  9
$DIMZIN
 70
     0
  9
$DIMBLK
  1

  9
$DIMASO
 70
     1
  9
$DIMSHO
 70
     0
  9
$DIMPOST
  1

  9
$DIMAPOST
  1

  9
$DIMALT
 70
     0
  9
$DIMALTD
 70
     2
  9
$DIMALTF
 40
25.399999999999999
  9
$DIMLFAC
 40
1.0
  9
$DIMTOFL
 70
     0
  9
$DIMTVP
 40
1.6000000000000001
  9
$DIMTIX
 70
     1
  9
$DIMSOXD
 70
     0
  9
$DIMSAH
 70
     0
  9
$DIMBLK1
  1

  9
$DIMBLK2
  1

  9
$DIMSTYLE
  2
STANDARD
  9
$DIMCLRD
 70
     0
  9
$DIMCLRE
 70
     0
  9
$DIMCLRT
 70
     0
  9
$DIMTFAC
 40
1.0
  9
$DIMGAP
 40
0.09
  9
$LUNITS
 70
     2
  9
$LUPREC
 70
     4
  9
$SKETCHINC
 40
0.1
  9
$FILLETRAD
 40
2.0
  9
$AUNITS
 70
     0
  9
$AUPREC
 70
     0
  9
$MENU
  1
E:\r13\win\SUPPORT\ACAD
  9
$ELEVATION
 40
0.0
  9
$PELEVATION
 40
0.0
  9
$THICKNESS
 40
0.0
  9
$LIMCHECK
 70
     0
  9
$BLIPMODE
 70
     0
  9
$CHAMFERA
 40
0.0
  9
$CHAMFERB
 40
0.0
  9
$SKPOLY
 70
     0
  9
$TDCREATE
 40
2449840.6069560191
  9
$TDUPDATE
 40
2456598.4781640512
  9
$TDINDWG
 40
0.0110538657
  9
$TDUSRTIMER
 40
0.0110538657
  9
$USRTIMER
 70
     1
  9
$ANGBASE
 50
0.0
  9
$ANGDIR
 70
     0
  9
$PDMODE
 70
     0
  9
$PDSIZE
 40
0.0
  9
$PLINEWID
 40
0.0
  9
$COORDS
 70
     1
  9
$SPLFRAME
 70
     0
  9
$SPLINETYPE
 70
     6
  9
$SPLINESEGS
 70
     8
  9
$ATTDIA
 70
     0
  9
$ATTREQ
 70
     1
  9
$HANDLING
 70
     1
  9
$HANDSEED
  5
689
  9
$SURFTAB1
 70
     6
  9
$SURFTAB2
 70
     6
  9
$SURFTYPE
 70
     6
  9
$SURFU
 70
     6
  9
$SURFV
 70
     6
  9
$UCSNAME
  2

  9
$UCSORG
 10
0.0
 20
0.0
 30
0.0
  9
$UCSXDIR
 10
1.0
 20
0.0
 30
0.0
  9
$UCSYDIR
 10
0.0
 20
1.0
 30
0.0
  9
$PUCSNAME
  2

  9
$PUCSORG
 10
0.0
 20
0.0
 30
0.0
  9
$PUCSXDIR
 10
1.0
 20
0.0
 30
0.0
  9
$PUCSYDIR
 10
0.0
 20
1.0
 30
0.0
  9
$USERI1
 70
     0
  9
$USERI2
 70
     1
  9
$USERI3
 70
     1
  9
$USERI4
 70
     0
  9
$USERI5
 70
     0
  9
$USERR1
 40
0.0
  9
$USERR2
 40
0.0
  9
$USERR3
 40
0.0
  9
$USERR4
 40
0.0
  9
$USERR5
 40
0.0
  9
$WORLDVIEW
 70
     1
  9
$SHADEDGE
 70
     3
  9
$SHADEDIF
 70
    70
  9
$TILEMODE
 70
     1
  9
$MAXACTVP
 70
    16
  9
$PLIMCHECK
 70
     0
  9
$PEXTMIN
 10
1.0000000000000000E+020
 20
1.0000000000000000E+020
 30
1.0000000000000000E+020
  9
$PEXTMAX
 10
-1.0000000000000000E+020
 20
-1.0000000000000000E+020
 30
-1.0000000000000000E+020
  9
$PLIMMIN
 10
0.0
 20
0.0
  9
$PLIMMAX
 10
12.0
 20
9.0
  9
$UNITMODE
 70
     0
  9
$VISRETAIN
 70
     0
  9
$PLINEGEN
 70
     0
  9
$PSLTSCALE
 70
     0
  0
ENDSEC
  0
SECTION
  2
TABLES
  0
TABLE
  2
VPORT
 70
     1
  0
VPORT
  2
*ACTIVE
 70
     0
 10
0.0
 20
0.0
 11
1.0
 21
1.0
 12
187.49427839065231
 22
194.785247995265
 13
0.0
 23
0.0
 14
10.0
 24
10.0
 15
10.0
 25
10.0
 16
0.0
 26
0.0
 36
1.0
 17
0.0
 27
0.0
 37
0.0
 40
399.3463374158577
 41
1.7807262569832401
 42
50.0
 43
0.0
 44
0.0
 50
0.0
 51
0.0
 71
     0
 72
   500
 73
     1
 74
     0
 75
     0
 76
     0
 77
     0
 78
     0
  0
ENDTAB
  0
TABLE
  2
LTYPE
 70
     4
  0
LTYPE
  2
CONTINUOUS
 70
     0
  3
Solid Line
 72
    65
 73
     0
 40
0.0
  0
LTYPE
  2
CENTER
 70
     0
  3
____ _ ____ _ ____ _ ____ _ ____ _ ____ _ ____
 72
    65
 73
     4
 40
2.0
 49
1.25
 49
-0.25
 49
0.25
 49
-0.25
  0
LTYPE
  2
HIDDEN
 70
     0
  3
_ _ _ _ _ _ _ _ _ _ _ _ _ _ _ _ _ _ _ _ _ _ _
 72
    65
 73
     2
 40
0.375
 49
0.25
 49
-0.125
  0
LTYPE
  2
PHANTOM2
 70
     0
  3
___ _ _ ___ _ _ ___ _ _ ___ _ _
 72
    65
 73
     6
 40
1.25
 49
0.625
 49
-0.125
 49
0.125
 49
-0.125
 49
0.125
 49
-0.125
  0
ENDTAB
  0
TABLE
  2
LAYER
 70
     5
  0
LAYER
  2
0
 70
     0
 62
     7
  6
CONTINUOUS
  0
LAYER
  2
1
 70
     0
 62
     1
  6
CENTER
  0
LAYER
  2
2
 70
     0
 62
     2
  6
HIDDEN
  0
LAYER
  2
3
 70
     0
 62
     3
  6
CONTINUOUS
  0
LAYER
  2
DEFPOINTS
 70
     0
 62
     7
  6
CONTINUOUS
  0
ENDTAB
  0
TABLE
  2
STYLE
 70
     2
  0
STYLE
  2
STANDARD
 70
     0
 40
0.0
 41
1.0
 50
0.0
 71
     0
 42
0.2
  3
simplex.shx
  4
bigfont.shx
  0
STYLE
  2
STANDARD1
 70
     0
 40
0.0
 41
1.0
 50
0.0
 71
     0
 42
3.0
  3
txt
  4

  0
ENDTAB
  0
TABLE
  2
VIEW
 70
     1
  0
VIEW
  2
ALL
 70
     0
 40
270.0
 10
220.99159663865549
 20
135.0
 41
0.0
 11
0.0
 21
0.0
 31
1.0
 12
0.0
 22
0.0
 32
0.0
 42
0.0
 43
0.0
 44
0.0
 50
0.0
 71
     0
  0
ENDTAB
  0
TABLE
  2
UCS
 70
     0
  0
ENDTAB
  0
TABLE
  2
APPID
 70
    28
  0
APPID
  2
ACAD
 70
     0
  0
APPID
  2
DCO15
 70
     0
  0
APPID
  2
GENIUS_GENOREF_13
 70
     0
  0
APPID
  2
GENIUS_GENOENT_13
 70
     0
  0
APPID
  2
GENIUS_GENBH_13
 70
     0
  0
APPID
  2
GENIUS_GENOBJ_13
 70
     0
  0
APPID
  2
GENIUS_GENODEF_13
 70
     0
  0
APPID
  2
GENIUS_GENOLIS_13
 70
     0
  0
APPID
  2
GENIUS_GENOBJ-NBEHI-BHF_13
 70
     0
  0
APPID
  2
GENIUS_GENOBJ-NBEHI-BHB_13
 70
     0
  0
APPID
  2
GENIUS_GENOBJ-F-PART_13
 70
     0
  0
APPID
  2
GENIUS_GEFSTDP_13
 70
     0
  0
APPID
  2
GENIUS_GENOBJ-N-RSSYM_13
 70
     0
  0
APPID
  2
GENIUS_GENSYMENT_13
 70
     0
  0
APPID
  2
GENIUS_GENOBJ-N-TIT_13
 70
     0
  0
APPID
  2
GENIUS_GENTITLE_13
 70
     0
  0
APPID
  2
GENIUS_GENZVEED_13
 70
     0
  0
APPID
  2
GENIUS_GENOBJ-N-LEADER_13
 70
     0
  0
APPID
  2
GENIUS_GENOBJ-N-FIL_13
 70
     0
  0
APPID
  2
GENIUS_GENOBJ-N-SEC_13
 70
     0
  0
APPID
  2
GENIUS_GENOBJ-N-CRS_13
 70
     0
  0
APPID
  2
GENIUS_GENOBJ-N-ZOO_13
 70
     0
  0
APPID
  2
GENIUS_GENZOO_13
 70
     0
  0
APPID
  2
GENIUS_GENOBJ-F-TOL_13
 70
     0
  0
APPID
  2
GENIUS_GENFIL_13
 70
     0
  0
APPID
  2
GENIUS_GENOBJ-N-CHA_13
 70
     0
  0
APPID
  2
ACAD_MLEADERVER
 70
     0
  0
APPID
  2
ACAD_NAV_VCDISPLAY
 70
     0
  0
ENDTAB
  0
TABLE
  2
DIMSTYLE
 70
     1
  0
DIMSTYLE
  2
STANDARD
 70
     0
  3

  4

  5

  6

  7

 40
1.0
 41
0.18
 42
0.0625
 43
0.38
 44
0.18
 45
0.0
 46
0.0
 47
0.0
 48
0.0
140
0.18
141
0.09
142
0.0
143
25.399999999999999
144
1.0
145
0.0
146
1.0
147
0.09
 71
     0
 72
     0
 73
     1
 74
     1
 75
     0
 76
     0
 77
     0
 78
     0
170
     0
171
     2
172
     0
173
     0
174
     0
175
     0
176
     0
177
     0
178
     0
  0
ENDTAB
  0
ENDSEC
  0
SECTION
  2
BLOCKS
  0
BLOCK
  8
0
  2
$MODEL_SPACE
 70
     0
 10
0.0
 20
0.0
 30
0.0
  3
$MODEL_SPACE
  1

  0
ENDBLK
  5
159
  8
0
  0
BLOCK
 67
     1
  8
0
  2
$PAPER_SPACE
 70
     0
 10
0.0
 20
0.0
 30
0.0
  3
$PAPER_SPACE
  1

  0
ENDBLK
  5
157
 67
     1
  8
0
  0
ENDSEC
  0
SECTION
  2
ENTITIES
  0
CIRCLE
  5
2DC
  8
3
 10
150.50678218779399
 20
57.302682519864561
 30
0.0
 40
3.0
  0
CIRCLE
  5
2DD
  8
0
 10
150.50678218779399
 20
57.302682519864561
 30
0.0
 40
2.458499999999999
  0
ARC
  5
2DE
  8
0
 10
150.50678218779399
 20
57.302682519864561
 30
0.0
 40
7.0
 50
240.39130675569669
 51
119.6086932443029
  0
ARC
  5
2DF
  8
0
 10
100.506782187794
 20
57.302682519864582
 30
0.0
 40
11.0
 50
53.727739457325818
 51
306.27226054267749
  0
LINE
  5
2E0
  8
0
 10
112.30708643702199
 20
50.352701535441042
 30
0.0
 11
142.5966559432479
 21
52.245799629580567
 31
0.0
  0
ARC
  5
2E1
  8
0
 10
112.9308692985739
 20
40.372175750612222
 30
0.0
 40
10.0
 50
93.576334374998311
 51
126.2722798984916
  0
ARC
  5
2E2
  8
0
 10
143.09568223248939
 20
44.261379001717501
 30
0.0
 40
8.0
 50
60.391336760652642
 51
93.576334374998154
  0
ARC
  5
2E3
  8
0
 10
143.09568223248939
 20
70.343986038011636
 30
0.0
 40
8.0
 50
266.42366562500177
 51
299.60866323934732
  0
ARC
  5
2E4
  8
0
 10
112.9308692985739
 20
74.23318928911695
 30
0.0
 40
10.0
 50
233.72772010150831
 51
266.42366562500172
  0
LINE
  5
2E5
  8
0
 10
112.30708643702199
 20
64.25266350428808
 30
0.0
 11
142.5966559432479
 21
62.359565410148321
 31
0.0
  0
ARC
  5
2E6
  8
2
 10
150.50678218779399
 20
57.302682519864561
 30
0.0
 40
7.0
 50
119.6086932443029
 51
240.39130675569669
  0
LINE
  5
2E8
  8
1
 10
150.50678218779399
 20
69.302682519864561
 30
0.0
 11
150.50678218779399
 21
45.302682519864561
 31
0.0
  0
LINE
  5
2E9
  8
1
 10
100.506782187794
 20
73.302682519864561
 30
0.0
 11
100.506782187794
 21
41.302682519864561
 31
0.0
  0
LINE
  5
2EA
  8
1
 10
162.50678218779399
 20
57.302682519864341
 30
0.0
 11
84.506782187793988
 21
57.302682519864341
 31
0.0
  0
CIRCLE
  5
339
  8
0
 10
100.506782187794
 20
57.302682519864582
 30
0.0
 40
7.0710678118655323
  0
CIRCLE
  5
33A
  8
0
 10
100.506782187794
 20
57.302682519864582
 30
0.0
 40
9.0
  0
LINE
  5
3CB
  8
1
 10
100.506782187794
 20
131.3026825198645
 30
0.0
 11
100.506782187794
 21
103.3026825198645
 31
0.0
  0
LINE
  5
3CC
  8
0
 10
145.04826568820039
 20
126.3026825198646
 30
0.0
 11
92.073769485935372
 21
126.3026825198644
 31
0.0
  0
LINE
  5
3CD
  8
0
 10
108.5067821878179
 20
108.3026825198644
 30
0.0
 11
92.506782187788986
 21
108.3026825198647
 31
0.0
  0
LINE
  5
3CE
  8
0
 10
156.00678218779399
 20
121.3026825198644
 30
0.0
 11
90.506782187789213
 21
121.3026825198648
 31
0.0
1001
ACAD
1000
ASC_BOUNDS
1002
{
1070
    19
1005
0
1005
0
1005
0
1002
}
  0
LINE
  5
3CF
  8
0
 10
143.50678218779399
 20
132.30268251986459
 30
0.0
 11
143.50678218779399
 21
128.30268251986459
 31
0.0
  0
LINE
  5
3D0
  8
0
 10
157.5067821877941
 20
132.30268251986411
 30
0.0
 11
157.50678218779399
 21
122.8026825198644
 31
0.0
  0
ARC
  5
3D1
  8
0
 10
156.00678218779399
 20
122.8026825198645
 30
0.0
 40
1.5
 50
269.9999999999996
 51
0.0
  0
LINE
  5
3D2
  8
1
 10
150.50678218779399
 20
137.3026825198645
 30
0.0
 11
150.50678218779399
 21
116.3026825198644
 31
0.0
  0
ARC
  5
3D3
  8
0
 10
141.50678218779399
 20
128.3026825198647
 30
0.0
 40
2.0
 50
270.0
 51
0.0
  0
LINE
  5
3D4
  8
2
 10
148.048282187794
 20
131.30268251986439
 30
0.0
 11
147.048282187794
 21
132.30268251986411
 31
0.0
1001
ACAD
1000
ASC_BOUNDS
1002
{
1070
    19
1005
0
1002
}
  0
LINE
  5
3D5
  8
2
 10
152.96528218779389
 20
131.30268251986439
 30
0.0
 11
153.96528218779389
 21
132.30268251986411
 31
0.0
1001
ACAD
1000
ASC_BOUNDS
1002
{
1070
    19
1005
0
1002
}
  0
LINE
  5
3D6
  8
2
 10
152.965282187794
 20
131.30268251986439
 30
0.0
 11
152.965282187794
 21
121.30268251986411
 31
0.0
  0
LINE
  5
3D7
  8
2
 10
148.048282187794
 20
131.30268251986411
 30
0.0
 11
148.048282187794
 21
121.3026825198644
 31
0.0
  0
LINE
  5
3D8
  8
2
 10
153.5067821877941
 20
131.8441825198644
 30
0.0
 11
153.5067821877941
 21
121.3026825198644
 31
0.0
1001
ACAD
1000
ASC_BOUNDS
1002
{
1070
    19
1005
0
1002
}
  0
LINE
  5
3D9
  8
2
 10
147.50678218779399
 20
131.84418251986421
 30
0.0
 11
147.50678218779399
 21
121.3026825198646
 31
0.0
1001
ACAD
1000
ASC_BOUNDS
1002
{
1070
    19
1005
0
1002
}
  0
ARC
  5
3DA
  8
0
 10
92.506782187793974
 20
123.5526825198645
 30
0.0
 40
3.0
 50
149.9999999980858
 51
215.0968012274989
  0
ARC
  5
3DB
  8
0
 10
92.073769485935372
 20
123.80268251986421
 30
0.0
 40
2.5
 50
90.000000000000298
 51
149.9999999980858
  0
LINE
  5
3F8
  8
0
 10
91.506782187788986
 20
117.3026825198647
 30
0.0
 11
91.506782187788986
 21
109.3026825198647
 31
0.0
  0
LINE
  5
3FD
  8
2
 10
100.5067821877889
 20
108.3026825198653
 30
0.0
 11
100.5067821877889
 21
126.30268251986421
 31
0.0
  0
ARC
  5
3FE
  8
2
 10
104.04231609372179
 20
106.3204494728339
 30
0.0
 40
4.0533008588981652
 50
29.27761319033009
 51
150.7223868096699
  0
ARC
  5
3FF
  8
2
 10
96.971248281856333
 20
106.3204494728339
 30
0.0
 40
4.0533008588981652
 50
29.27761319033004
 51
150.7223868096699
  0
LINE
  5
400
  8
0
 10
91.506782187788986
 20
117.3026825198647
 30
0.0
 11
90.506782187789213
 21
117.8800327890542
 31
0.0
  0
LINE
  5
401
  8
2
 10
107.5778499996551
 20
108.3026825198526
 30
0.0
 11
107.5778499996551
 21
126.3026825198515
 31
0.0
  0
LINE
  5
402
  8
2
 10
93.435714375908447
 20
108.3026825198899
 30
0.0
 11
93.435714375908447
 21
126.3026825198888
 31
0.0
  0
LINE
  5
403
  8
0
 10
109.5067821878179
 20
117.3026825198647
 30
0.0
 11
109.5067821878179
 21
109.3026825198644
 31
0.0
  0
LINE
  5
404
  8
0
 10
109.5067821878179
 20
117.3026825198644
 30
0.0
 11
110.5067821877892
 21
117.8800327890374
 31
0.0
  0
ARC
  5
405
  8
0
 10
108.5067821878179
 20
109.3026825198645
 30
0.0
 40
1.0
 50
269.9999999999996
 51
0.0
  0
ARC
  5
406
  8
0
 10
92.506782187788986
 20
109.3026825198647
 30
0.0
 40
1.0
 50
180.0
 51
269.99999999999949
  0
LINE
  5
414
  8
0
 10
107.3011502410868
 20
57.025982761291857
 30
0.0
 11
105.2852963831922
 21
55.010128903397231
 31
0.0
  0
LINE
  5
415
  8
0
 10
93.712414134501159
 20
57.025982761291857
 30
0.0
 11
95.728267992395544
 21
55.010128903397458
 31
0.0
  0
ARC
  5
416
  8
0
 10
100.506782187794
 20
57.302682519864582
 30
0.0
 40
5.2999999999999989
 50
295.62996175446239
 51
334.3700382455371
  0
ARC
  5
417
  8
0
 10
100.506782187794
 20
57.302682519864582
 30
0.0
 40
5.2999999999999989
 50
25.629961754451941
 51
64.370038245550191
  0
ARC
  5
418
  8
0
 10
100.506782187794
 20
57.302682519864582
 30
0.0
 40
5.2999999999999989
 50
115.6299617544538
 51
154.3700382455479
  0
ARC
  5
419
  8
0
 10
100.506782187794
 20
57.302682519864582
 30
0.0
 40
5.2999999999999989
 50
205.6299617544592
 51
244.3700382455394
  0
LINE
  5
41A
  8
0
 10
105.2852963831929
 20
59.595236136330982
 30
0.0
 11
107.3011502410868
 21
57.579382278437038
 31
0.0
  0
LINE
  5
41B
  8
0
 10
95.728267992395345
 20
59.595236136331437
 30
0.0
 11
93.712414134501159
 21
57.579382278437272
 31
0.0
  0
LINE
  5
41C
  8
0
 10
102.7993358042613
 20
52.524168324466359
 30
0.0
 11
100.78348194636671
 21
50.508314466571733
 31
0.0
  0
LINE
  5
41D
  8
0
 10
98.214228571326771
 20
52.524168324466132
 30
0.0
 11
100.2300824292213
 21
50.508314466571733
 31
0.0
  0
LINE
  5
41E
  8
0
 10
100.2300824292213
 20
64.097050573157389
 30
0.0
 11
98.21422857132734
 21
62.081196715263438
 31
0.0
  0
LINE
  5
41F
  8
0
 10
100.78348194636651
 20
64.097050573157389
 30
0.0
 11
102.79933580426039
 21
62.081196715263438
 31
0.0
  0
ARC
  5
420
  8
0
 10
100.506782187794
 20
57.302682519864582
 30
0.0
 40
6.7999999999999989
 50
357.6679254941065
 51
2.3320745058901369
  0
ARC
  5
421
  8
0
 10
100.506782187794
 20
57.302682519864582
 30
0.0
 40
6.7999999999999989
 50
87.667925494109198
 51
92.332074505890787
  0
ARC
  5
422
  8
0
 10
100.506782187794
 20
57.302682519864582
 30
0.0
 40
6.7999999999999989
 50
177.6679254941098
 51
182.33207450589339
  0
ARC
  5
423
  8
0
 10
100.506782187794
 20
57.302682519864582
 30
0.0
 40
6.7999999999999989
 50
267.66792549410832
 51
272.33207450589219
  0
LINE
  5
42B
  8
0
 10
90.506782187789213
 20
117.8800327890542
 30
0.0
 11
90.506782187789213
 21
120.3904048597028
 31
0.0
  0
LINE
  5
42F
  8
0
 10
110.5067821877892
 20
118.8026825198646
 30
0.0
 11
110.5067821877892
 21
117.8800327890374
 31
0.0
  0
ARC
  5
430
  8
0
 10
113.0067821877892
 20
118.8026825198647
 30
0.0
 40
2.5
 50
89.999999999999787
 51
180.0
  0
LINE
  5
436
  8
2
 10
152.965282187794
 20
131.30268251986439
 30
0.0
 11
148.048282187794
 21
131.30268251986439
 31
0.0
  0
LINE
  5
437
  8
0
 10
157.50678218779399
 20
132.30268251986439
 30
0.0
 11
143.50678218779399
 21
132.30268251986459
 31
0.0
1001
ACAD
1000
ASC_BOUNDS
1002
{
1070
    19
1005
0
1002
}
  0
CIRCLE
  5
44A
  8
0
 10
100.5067821877941
 20
57.302682519864362
 30
0.0
 40
10.0
  0
ARC
  5
44C
  8
0
 10
88.006782187789213
 20
120.3904048597028
 30
0.0
 40
2.5
 50
0.0
 51
35.096801227499071
  0
TEXT
  5
4A5
  8
0
 10
120.6187609951921
 20
54.63645454294447
 30
0.0
 40
5.0
  1
SC
 41
0.75
 72
     1
 11
123.7437609951921
 21
54.63645454294447
 31
0.0
  0
LINE
  5
4A6
  8
0
 10
132.4564224755637
 20
57.30268251986444
 30
0.0
 11
128.4564224755637
 21
57.30268251986444
 31
0.0
  0
TEXT
  5
4A7
  8
0
 10
133.8672233797466
 20
54.805675050777751
 30
0.0
 40
5.0
  1
3
 41
0.75
 72
     1
 11
135.1172233797466
 21
54.805675050777751
 31
0.0
  0
LINE
  5
4A8
  8
0
 10
91.506782187788986
 20
117.3026825198647
 30
0.0
 11
109.5067821878179
 21
117.3026825198647
 31
0.0
  0
LINE
  5
4A9
  8
0
 10
110.5067821877892
 20
117.8800327890374
 30
0.0
 11
90.506782187789213
 21
117.8800327890542
 31
0.0
  0
ARC
  5
4AB
  8
0
 10
145.04826568820039
 20
128.3026825198647
 30
0.0
 40
2.0
 50
270.0
 51
0.0
  0
CIRCLE
  5
4AF
  8
2
 10
100.5067821877941
 20
179.30268251986431
 30
0.0
 40
10.0
  0
ARC
  5
4B0
  8
0
 10
100.506782187794
 20
179.3026825198645
 30
0.0
 40
6.7999999999999989
 50
267.66792549410832
 51
272.33207450589219
  0
ARC
  5
4B1
  8
0
 10
100.506782187794
 20
179.3026825198645
 30
0.0
 40
6.7999999999999989
 50
177.6679254941098
 51
182.33207450589339
  0
ARC
  5
4B2
  8
0
 10
100.506782187794
 20
179.3026825198645
 30
0.0
 40
6.7999999999999989
 50
87.667925494109198
 51
92.332074505890787
  0
ARC
  5
4B3
  8
0
 10
100.506782187794
 20
179.3026825198645
 30
0.0
 40
6.7999999999999989
 50
357.6679254941065
 51
2.3320745058901369
  0
LINE
  5
4B4
  8
0
 10
100.78348194636651
 20
186.0970505731573
 30
0.0
 11
102.79933580426039
 21
184.08119671526339
 31
0.0
  0
LINE
  5
4B5
  8
0
 10
100.2300824292213
 20
186.0970505731573
 30
0.0
 11
98.21422857132734
 21
184.08119671526339
 31
0.0
  0
LINE
  5
4B6
  8
0
 10
98.214228571326771
 20
174.5241683244661
 30
0.0
 11
100.2300824292213
 21
172.5083144665717
 31
0.0
  0
LINE
  5
4B7
  8
0
 10
102.7993358042613
 20
174.5241683244663
 30
0.0
 11
100.78348194636671
 21
172.5083144665717
 31
0.0
  0
LINE
  5
4B8
  8
0
 10
95.728267992395345
 20
181.59523613633129
 30
0.0
 11
93.712414134501159
 21
179.57938227843721
 31
0.0
  0
LINE
  5
4B9
  8
0
 10
105.2852963831929
 20
181.5952361363309
 30
0.0
 11
107.3011502410868
 21
179.57938227843701
 31
0.0
  0
ARC
  5
4BA
  8
0
 10
100.506782187794
 20
179.3026825198645
 30
0.0
 40
5.2999999999999989
 50
205.6299617544592
 51
244.3700382455394
  0
ARC
  5
4BB
  8
0
 10
100.506782187794
 20
179.3026825198645
 30
0.0
 40
5.2999999999999989
 50
115.6299617544538
 51
154.3700382455479
  0
ARC
  5
4BC
  8
0
 10
100.506782187794
 20
179.3026825198645
 30
0.0
 40
5.2999999999999989
 50
25.629961754451941
 51
64.370038245550191
  0
ARC
  5
4BD
  8
0
 10
100.506782187794
 20
179.3026825198645
 30
0.0
 40
5.2999999999999989
 50
295.62996175446239
 51
334.3700382455371
  0
LINE
  5
4BE
  8
0
 10
93.712414134501159
 20
179.0259827612918
 30
0.0
 11
95.728267992395544
 21
177.0101289033974
 31
0.0
  0
LINE
  5
4BF
  8
0
 10
107.3011502410868
 20
179.0259827612918
 30
0.0
 11
105.2852963831922
 21
177.0101289033972
 31
0.0
  0
CIRCLE
  5
4C0
  8
2
 10
100.506782187794
 20
179.3026825198645
 30
0.0
 40
9.0
  0
CIRCLE
  5
4C1
  8
2
 10
100.506782187794
 20
179.3026825198645
 30
0.0
 40
7.0710678118655323
  0
LINE
  5
4C2
  8
1
 10
162.50678218779399
 20
179.30268251986419
 30
0.0
 11
84.506782187793988
 21
179.30268251986419
 31
0.0
  0
LINE
  5
4C3
  8
1
 10
100.506782187794
 20
195.3026825198645
 30
0.0
 11
100.506782187794
 21
163.3026825198645
 31
0.0
  0
LINE
  5
4C4
  8
1
 10
150.50678218779399
 20
191.3026825198645
 30
0.0
 11
150.50678218779399
 21
167.3026825198645
 31
0.0
  0
LINE
  5
4C6
  8
0
 10
112.30708643702199
 20
186.25266350428799
 30
0.0
 11
142.5966559432479
 21
184.35956541014821
 31
0.0
  0
ARC
  5
4C7
  8
0
 10
112.9308692985739
 20
196.23318928911689
 30
0.0
 40
10.0
 50
233.72772010150831
 51
266.42366562500172
  0
ARC
  5
4C8
  8
0
 10
143.09568223248939
 20
192.34398603801159
 30
0.0
 40
8.0
 50
266.42366562500177
 51
299.60866323934732
  0
ARC
  5
4C9
  8
0
 10
143.09568223248939
 20
166.26137900171739
 30
0.0
 40
8.0
 50
60.391336760652642
 51
93.576334374998154
  0
ARC
  5
4CA
  8
0
 10
112.9308692985739
 20
162.3721757506122
 30
0.0
 40
10.0
 50
93.576334374998311
 51
126.2722798984916
  0
LINE
  5
4CB
  8
0
 10
112.30708643702199
 20
172.35270153544101
 30
0.0
 11
142.5966559432479
 21
174.24579962958049
 31
0.0
  0
ARC
  5
4CC
  8
0
 10
100.506782187794
 20
179.3026825198645
 30
0.0
 40
11.0
 50
53.727739457325818
 51
306.27226054267749
  0
CIRCLE
  5
4CE
  8
0
 10
150.50678218779399
 20
179.3026825198645
 30
0.0
 40
2.458499999999999
  0
CIRCLE
  5
4CF
  8
3
 10
150.50678218779399
 20
179.3026825198645
 30
0.0
 40
3.0
  0
CIRCLE
  5
4ED
  8
0
 10
150.50678218779399
 20
179.30268251986419
 30
0.0
 40
7.0
  0
LINE
  5
4EF
  8
0
 10
50.506782187789213
 20
117.8800327890374
 30
0.0
 11
30.50678218778922
 21
117.8800327890542
 31
0.0
  0
LINE
  5
4F0
  8
0
 10
31.506782187788989
 20
117.3026825198647
 30
0.0
 11
49.506782187817969
 21
117.3026825198647
 31
0.0
  0
ARC
  5
4F1
  8
0
 10
28.00678218778922
 20
120.3904048597028
 30
0.0
 40
2.5
 50
0.0
 51
35.096801227499071
  0
LINE
  5
4F2
  8
0
 10
47.506782187793981
 20
132.30268251986439
 30
0.0
 11
33.506782187793988
 21
132.30268251986459
 31
0.0
1001
ACAD
1000
ASC_BOUNDS
1002
{
1070
    19
1005
0
1002
}
  0
LINE
  5
4F6
  8
0
 10
30.50678218778922
 20
117.8800327890542
 30
0.0
 11
30.50678218778922
 21
120.3904048597028
 31
0.0
  0
ARC
  5
4F7
  8
0
 10
32.506782187788993
 20
109.3026825198647
 30
0.0
 40
1.0
 50
180.0
 51
269.99999999999949
  0
ARC
  5
4F8
  8
0
 10
48.506782187817983
 20
109.3026825198645
 30
0.0
 40
1.0
 50
269.9999999999996
 51
0.0
  0
LINE
  5
4F9
  8
0
 10
49.506782187817969
 20
117.3026825198644
 30
0.0
 11
50.506782187789213
 21
117.8800327890374
 31
0.0
  0
LINE
  5
4FA
  8
0
 10
49.506782187817969
 20
117.3026825198647
 30
0.0
 11
49.506782187817969
 21
109.3026825198644
 31
0.0
  0
LINE
  5
4FB
  8
2
 10
33.435714375908447
 20
108.3026825198899
 30
0.0
 11
33.435714375908447
 21
126.3026825198888
 31
0.0
  0
LINE
  5
4FC
  8
2
 10
47.577849999655079
 20
108.3026825198526
 30
0.0
 11
47.577849999655079
 21
126.3026825198515
 31
0.0
  0
LINE
  5
4FD
  8
0
 10
31.506782187788989
 20
117.3026825198647
 30
0.0
 11
30.50678218778922
 21
117.8800327890542
 31
0.0
  0
ARC
  5
4FE
  8
2
 10
36.971248281856333
 20
106.3204494728339
 30
0.0
 40
4.0533008588981652
 50
29.27761319033004
 51
150.7223868096699
  0
ARC
  5
4FF
  8
2
 10
44.042316093721858
 20
106.3204494728339
 30
0.0
 40
4.0533008588981652
 50
29.27761319033009
 51
150.7223868096699
  0
LINE
  5
500
  8
2
 10
40.506782187788872
 20
108.3026825198653
 30
0.0
 11
40.506782187788872
 21
126.30268251986421
 31
0.0
  0
LINE
  5
501
  8
0
 10
31.506782187788989
 20
117.3026825198647
 30
0.0
 11
31.506782187788989
 21
109.3026825198647
 31
0.0
  0
ARC
  5
502
  8
0
 10
32.073769485935372
 20
123.80268251986421
 30
0.0
 40
2.5
 50
90.000000000000298
 51
149.9999999980858
  0
ARC
  5
503
  8
0
 10
32.506782187793988
 20
123.5526825198645
 30
0.0
 40
3.0
 50
149.9999999980858
 51
215.0968012274989
  0
LINE
  5
50D
  8
0
 10
47.506782187794101
 20
132.30268251986411
 30
0.0
 11
47.506782187794101
 21
126.3026825198645
 31
0.0
  0
LINE
  5
50E
  8
0
 10
33.506782187793988
 20
132.30268251986459
 30
0.0
 11
33.506782187793988
 21
126.3026825198644
 31
0.0
  0
LINE
  5
50F
  8
0
 10
50.506782187798763
 20
121.3026825198646
 30
0.0
 11
30.50678218778922
 21
121.3026825198648
 31
0.0
1001
ACAD
1000
ASC_BOUNDS
1002
{
1070
    19
1005
0
1005
0
1005
0
1002
}
  0
LINE
  5
510
  8
0
 10
48.506782187817983
 20
108.3026825198644
 30
0.0
 11
32.506782187788993
 21
108.3026825198647
 31
0.0
  0
LINE
  5
511
  8
0
 10
48.93979488965261
 20
126.3026825198645
 30
0.0
 11
32.073769485935372
 21
126.3026825198644
 31
0.0
  0
LINE
  5
512
  8
1
 10
40.506782187793981
 20
137.3026825198645
 30
0.0
 11
40.506782187793981
 21
103.3026825198645
 31
0.0
  0
ARC
  5
514
  8
0
 10
48.506782187793988
 20
123.5526825198645
 30
0.0
 40
3.0
 50
324.90319877250113
 51
30.000000001914159
  0
LINE
  5
515
  8
0
 10
50.506782187798763
 20
117.8800327890542
 30
0.0
 11
50.506782187798763
 21
120.3904048597028
 31
0.0
  0
ARC
  5
516
  8
0
 10
53.006782187798763
 20
120.3904048597028
 30
0.0
 40
2.5
 50
144.9031987725009
 51
180.0
  0
ARC
  5
517
  8
0
 10
48.93979488965261
 20
123.80268251986421
 30
0.0
 40
2.5
 50
30.000000001914159
 51
89.999999999999687
  0
ARC
  5
518
  8
0
 10
218.9397948896526
 20
123.80268251986421
 30
0.0
 40
2.5
 50
30.000000001914159
 51
89.999999999999687
  0
ARC
  5
519
  8
0
 10
223.00678218779871
 20
120.3904048597028
 30
0.0
 40
2.5
 50
144.9031987725009
 51
180.0
  0
LINE
  5
51A
  8
0
 10
220.50678218779871
 20
117.8800327890542
 30
0.0
 11
220.50678218779871
 21
120.3904048597028
 31
0.0
  0
ARC
  5
51B
  8
0
 10
218.50678218779399
 20
123.5526825198645
 30
0.0
 40
3.0
 50
324.90319877250113
 51
30.000000001914159
  0
LINE
  5
51C
  8
1
 10
210.50678218779399
 20
137.3026825198645
 30
0.0
 11
210.50678218779399
 21
103.3026825198645
 31
0.0
  0
LINE
  5
51D
  8
0
 10
218.9397948896526
 20
126.3026825198645
 30
0.0
 11
217.577849999655
 21
126.3026825198645
 31
0.0
  0
LINE
  5
51E
  8
0
 10
218.506782187818
 20
108.3026825198644
 30
0.0
 11
202.50678218778901
 21
108.3026825198647
 31
0.0
  0
LINE
  5
51F
  8
0
 10
220.50678218779871
 20
121.3026825198646
 30
0.0
 11
200.50678218778921
 21
121.3026825198648
 31
0.0
1001
ACAD
1000
ASC_BOUNDS
1002
{
1070
    19
1005
0
1005
0
1005
0
1002
}
  0
LINE
  5
520
  8
0
 10
203.50678218779399
 20
132.30268251986459
 30
0.0
 11
203.50678218779399
 21
126.3026825198644
 31
0.0
  0
LINE
  5
521
  8
0
 10
217.5067821877941
 20
132.30268251986411
 30
0.0
 11
217.50678218779399
 21
122.8026825198644
 31
0.0
  0
ARC
  5
522
  8
0
 10
216.00678218779399
 20
122.8026825198645
 30
0.0
 40
1.5
 50
269.9999999999996
 51
0.0
  0
ARC
  5
523
  8
0
 10
202.50678218779399
 20
123.5526825198645
 30
0.0
 40
3.0
 50
149.9999999980858
 51
215.0968012274989
  0
ARC
  5
524
  8
0
 10
202.0737694859354
 20
123.80268251986421
 30
0.0
 40
2.5
 50
90.000000000000298
 51
149.9999999980858
  0
LINE
  5
525
  8
0
 10
201.50678218778901
 20
117.3026825198647
 30
0.0
 11
201.50678218778901
 21
109.3026825198647
 31
0.0
  0
LINE
  5
526
  8
2
 10
210.5067821877889
 20
108.3026825198653
 30
0.0
 11
210.5067821877889
 21
126.30268251986421
 31
0.0
  0
ARC
  5
527
  8
2
 10
214.04231609372189
 20
106.3204494728339
 30
0.0
 40
4.0533008588981652
 50
29.27761319033009
 51
150.7223868096699
  0
ARC
  5
528
  8
2
 10
206.9712482818563
 20
106.3204494728339
 30
0.0
 40
4.0533008588981652
 50
29.27761319033004
 51
150.7223868096699
  0
LINE
  5
529
  8
0
 10
201.50678218778901
 20
117.3026825198647
 30
0.0
 11
200.50678218778921
 21
117.8800327890542
 31
0.0
  0
LINE
  5
52A
  8
2
 10
217.57784999965509
 20
108.3026825198526
 30
0.0
 11
217.57784999965509
 21
126.3026825198515
 31
0.0
  0
LINE
  5
52B
  8
2
 10
203.4357143759085
 20
108.3026825198899
 30
0.0
 11
203.4357143759085
 21
126.3026825198888
 31
0.0
  0
LINE
  5
52C
  8
0
 10
219.506782187818
 20
117.3026825198647
 30
0.0
 11
219.506782187818
 21
109.3026825198644
 31
0.0
  0
LINE
  5
52D
  8
0
 10
219.506782187818
 20
117.3026825198644
 30
0.0
 11
220.50678218778921
 21
117.8800327890374
 31
0.0
  0
ARC
  5
52E
  8
0
 10
218.506782187818
 20
109.3026825198645
 30
0.0
 40
1.0
 50
269.9999999999996
 51
0.0
  0
ARC
  5
52F
  8
0
 10
202.50678218778901
 20
109.3026825198647
 30
0.0
 40
1.0
 50
180.0
 51
269.99999999999949
  0
LINE
  5
530
  8
0
 10
200.50678218778921
 20
117.8800327890542
 30
0.0
 11
200.50678218778921
 21
120.3904048597028
 31
0.0
  0
LINE
  5
531
  8
0
 10
217.50678218779399
 20
132.30268251986439
 30
0.0
 11
203.50678218779399
 21
132.30268251986459
 31
0.0
1001
ACAD
1000
ASC_BOUNDS
1002
{
1070
    19
1005
0
1002
}
  0
ARC
  5
532
  8
0
 10
198.00678218778921
 20
120.3904048597028
 30
0.0
 40
2.5
 50
0.0
 51
35.096801227499071
  0
LINE
  5
533
  8
0
 10
201.50678218778901
 20
117.3026825198647
 30
0.0
 11
219.506782187818
 21
117.3026825198647
 31
0.0
  0
LINE
  5
534
  8
0
 10
220.50678218778921
 20
117.8800327890374
 30
0.0
 11
200.50678218778921
 21
117.8800327890542
 31
0.0
  0
POLYLINE
  5
536
  8
0
 66
     1
 10
0.0
 20
0.0
 30
0.0
  0
VERTEX
  5
537
  8
0
 10
34.420843260374227
 20
126.3026825198644
 30
0.0
 42
0.2030158310508661
  0
VERTEX
  5
538
  8
0
 10
34.679314220669312
 20
126.41214130408039
 30
0.0
 42
0.0972941637916377
  0
VERTEX
  5
539
  8
0
 10
34.98843177172364
 20
126.8884689574914
 30
0.0
 42
0.0542856433699644
 70
     2
 50
68.132154054517855
  0
VERTEX
  5
53A
  8
0
 10
35.17877659254691
 20
127.5677685306748
 30
0.0
 42
0.0520012854257058
 50
68.132154054517855
  0
VERTEX
  5
53B
  8
0
 10
35.223534630971812
 20
128.30268251986439
 30
0.0
 42
0.04120736618792
  0
SEQEND
  5
53C
  8
0
  0
POLYLINE
  5
53D
  8
0
 66
     1
 10
0.0
 20
0.0
 30
0.0
  0
VERTEX
  5
53E
  8
0
 10
46.592723022572727
 20
126.3026825198644
 30
0.0
 42
-0.2030158310508661
  0
VERTEX
  5
53F
  8
0
 10
46.334252062277528
 20
126.41214130408039
 30
0.0
 42
-0.0972941637916377
  0
VERTEX
  5
540
  8
0
 10
46.0251345112232
 20
126.8884689574914
 30
0.0
 42
-0.0542856433699644
 70
     2
 50
111.8678459454822
  0
VERTEX
  5
541
  8
0
 10
45.83478969039993
 20
127.5677685306748
 30
0.0
 42
-0.0520012854257058
  0
VERTEX
  5
542
  8
0
 10
45.790031651975141
 20
128.30268251986439
 30
0.0
 42
-0.04120736618792
  0
SEQEND
  5
543
  8
0
  0
ARC
  5
545
  8
0
 10
205.00678218779399
 20
122.8026825198645
 30
0.0
 40
1.5
 50
180.0
 51
270.0000000000004
  0
LINE
  5
547
  8
0
 10
203.4357143759085
 20
126.3026825198644
 30
0.0
 11
202.0737694859354
 21
126.3026825198644
 31
0.0
  0
LINE
  5
548
  8
2
 10
203.4357143759085
 20
126.3026825198888
 30
0.0
 11
217.577849999655
 21
126.3026825198645
 31
0.0
  0
TEXT
  5
5F3
  8
0
 62
     3
 10
0.0
 20
0.0
 30
0.0
 40
10.0
  1
SC3S
  7
STANDARD1
  0
ENDSEC
  0
EOF
