  0
SECTION
  2
HEADER
  9
$ACADVER
  1
AC1009
  9
$INSBASE
 10
0.0
 20
0.0
 30
0.0
  9
$EXTMIN
 10
0.0
 20
-2.960436562073669
 30
0.0
  9
$EXTMAX
 10
364.1317865082803
 20
303.5583374972332
 30
0.0
  9
$LIMMIN
 10
0.0
 20
0.0
  9
$LIMMAX
 10
750.0
 20
540.0
  9
$ORTHOMODE
 70
     0
  9
$REGENMODE
 70
     1
  9
$FILLMODE
 70
     1
  9
$QTEXTMODE
 70
     0
  9
$MIRRTEXT
 70
     0
  9
$DRAGMODE
 70
     2
  9
$LTSCALE
 40
10.0
  9
$OSMODE
 70
    55
  9
$ATTMODE
 70
     1
  9
$TEXTSIZE
 40
0.2
  9
$TRACEWID
 40
0.05
  9
$TEXTSTYLE
  7
STANDARD
  9
$CLAYER
  8
0
  9
$CELTYPE
  6
BYLAYER
  9
$CECOLOR
 62
   256
  9
$DIMSCALE
 40
2.0
  9
$DIMASZ
 40
3.0
  9
$DIMEXO
 40
2.0
  9
$DIMDLI
 40
0.38
  9
$DIMRND
 40
0.0
  9
$DIMDLE
 40
0.0
  9
$DIMEXE
 40
2.0
  9
$DIMTP
 40
0.0
  9
$DIMTM
 40
0.0
  9
$DIMTXT
 40
3.2000000000000002
  9
$DIMCEN
 40
0.0
  9
$DIMTSZ
 40
0.0
  9
$DIMTOL
 70
     0
  9
$DIMLIM
 70
     0
  9
$DIMTIH
 70
     0
  9
$DIMTOH
 70
     0
  9
$DIMSE1
 70
     0
  9
$DIMSE2
 70
     0
  9
$DIMTAD
 70
     1
  9
$DIMZIN
 70
     0
  9
$DIMBLK
  1

  9
$DIMASO
 70
     1
  9
$DIMSHO
 70
     0
  9
$DIMPOST
  1

  9
$DIMAPOST
  1

  9
$DIMALT
 70
     0
  9
$DIMALTD
 70
     2
  9
$DIMALTF
 40
25.399999999999999
  9
$DIMLFAC
 40
1.0
  9
$DIMTOFL
 70
     0
  9
$DIMTVP
 40
1.6000000000000001
  9
$DIMTIX
 70
     1
  9
$DIMSOXD
 70
     0
  9
$DIMSAH
 70
     0
  9
$DIMBLK1
  1

  9
$DIMBLK2
  1

  9
$DIMSTYLE
  2
STANDARD
  9
$DIMCLRD
 70
     0
  9
$DIMCLRE
 70
     0
  9
$DIMCLRT
 70
     0
  9
$DIMTFAC
 40
1.0
  9
$DIMGAP
 40
0.09
  9
$LUNITS
 70
     2
  9
$LUPREC
 70
     4
  9
$SKETCHINC
 40
0.1
  9
$FILLETRAD
 40
3.0
  9
$AUNITS
 70
     0
  9
$AUPREC
 70
     0
  9
$MENU
  1
E:\r13\win\SUPPORT\ACAD
  9
$ELEVATION
 40
0.0
  9
$PELEVATION
 40
0.0
  9
$THICKNESS
 40
0.0
  9
$LIMCHECK
 70
     0
  9
$BLIPMODE
 70
     0
  9
$CHAMFERA
 40
0.0
  9
$CHAMFERB
 40
0.0
  9
$SKPOLY
 70
     0
  9
$TDCREATE
 40
2449840.6065856488
  9
$TDUPDATE
 40
2456598.4783728011
  9
$TDINDWG
 40
0.0073049306
  9
$TDUSRTIMER
 40
0.0073049306
  9
$USRTIMER
 70
     1
  9
$ANGBASE
 50
0.0
  9
$ANGDIR
 70
     0
  9
$PDMODE
 70
     0
  9
$PDSIZE
 40
0.0
  9
$PLINEWID
 40
0.0
  9
$COORDS
 70
     1
  9
$SPLFRAME
 70
     0
  9
$SPLINETYPE
 70
     6
  9
$SPLINESEGS
 70
     8
  9
$ATTDIA
 70
     0
  9
$ATTREQ
 70
     1
  9
$HANDLING
 70
     1
  9
$HANDSEED
  5
568
  9
$SURFTAB1
 70
     6
  9
$SURFTAB2
 70
     6
  9
$SURFTYPE
 70
     6
  9
$SURFU
 70
     6
  9
$SURFV
 70
     6
  9
$UCSNAME
  2

  9
$UCSORG
 10
0.0
 20
0.0
 30
0.0
  9
$UCSXDIR
 10
1.0
 20
0.0
 30
0.0
  9
$UCSYDIR
 10
0.0
 20
1.0
 30
0.0
  9
$PUCSNAME
  2

  9
$PUCSORG
 10
0.0
 20
0.0
 30
0.0
  9
$PUCSXDIR
 10
1.0
 20
0.0
 30
0.0
  9
$PUCSYDIR
 10
0.0
 20
1.0
 30
0.0
  9
$USERI1
 70
     0
  9
$USERI2
 70
     1
  9
$USERI3
 70
     1
  9
$USERI4
 70
     0
  9
$USERI5
 70
     0
  9
$USERR1
 40
0.0
  9
$USERR2
 40
0.0
  9
$USERR3
 40
0.0
  9
$USERR4
 40
0.0
  9
$USERR5
 40
0.0
  9
$WORLDVIEW
 70
     1
  9
$SHADEDGE
 70
     3
  9
$SHADEDIF
 70
    70
  9
$TILEMODE
 70
     1
  9
$MAXACTVP
 70
    16
  9
$PLIMCHECK
 70
     0
  9
$PEXTMIN
 10
1.0000000000000000E+020
 20
1.0000000000000000E+020
 30
1.0000000000000000E+020
  9
$PEXTMAX
 10
-1.0000000000000000E+020
 20
-1.0000000000000000E+020
 30
-1.0000000000000000E+020
  9
$PLIMMIN
 10
0.0
 20
0.0
  9
$PLIMMAX
 10
12.0
 20
9.0
  9
$UNITMODE
 70
     0
  9
$VISRETAIN
 70
     0
  9
$PLINEGEN
 70
     0
  9
$PSLTSCALE
 70
     0
  0
ENDSEC
  0
SECTION
  2
TABLES
  0
TABLE
  2
VPORT
 70
     1
  0
VPORT
  2
*ACTIVE
 70
     0
 10
0.0
 20
0.0
 11
1.0
 21
1.0
 12
374.98855678130462
 22
390.38782554515711
 13
0.0
 23
0.0
 14
20.0
 24
20.0
 15
20.0
 25
20.0
 16
0.0
 26
0.0
 36
1.0
 17
0.0
 27
0.0
 37
0.0
 40
794.35313298118172
 41
1.7807262569832401
 42
50.0
 43
0.0
 44
0.0
 50
0.0
 51
0.0
 71
     0
 72
   500
 73
     1
 74
     0
 75
     0
 76
     0
 77
     0
 78
     1
  0
ENDTAB
  0
TABLE
  2
LTYPE
 70
     4
  0
LTYPE
  2
CONTINUOUS
 70
     0
  3
Solid Line
 72
    65
 73
     0
 40
0.0
  0
LTYPE
  2
CENTER
 70
     0
  3
____ _ ____ _ ____ _ ____ _ ____ _ ____ _ ____
 72
    65
 73
     4
 40
2.0
 49
1.25
 49
-0.25
 49
0.25
 49
-0.25
  0
LTYPE
  2
HIDDEN
 70
     0
  3
_ _ _ _ _ _ _ _ _ _ _ _ _ _ _ _ _ _ _ _ _ _ _
 72
    65
 73
     2
 40
0.375
 49
0.25
 49
-0.125
  0
LTYPE
  2
PHANTOM2
 70
     0
  3
___ _ _ ___ _ _ ___ _ _ ___ _ _
 72
    65
 73
     6
 40
1.25
 49
0.625
 49
-0.125
 49
0.125
 49
-0.125
 49
0.125
 49
-0.125
  0
ENDTAB
  0
TABLE
  2
LAYER
 70
     5
  0
LAYER
  2
0
 70
     0
 62
     7
  6
CONTINUOUS
  0
LAYER
  2
1
 70
     0
 62
     1
  6
CENTER
  0
LAYER
  2
2
 70
     0
 62
     2
  6
HIDDEN
  0
LAYER
  2
3
 70
     0
 62
     3
  6
CONTINUOUS
  0
LAYER
  2
DEFPOINTS
 70
     0
 62
     7
  6
CONTINUOUS
  0
ENDTAB
  0
TABLE
  2
STYLE
 70
     2
  0
STYLE
  2
STANDARD
 70
     0
 40
0.0
 41
1.0
 50
0.0
 71
     0
 42
0.2
  3
simplex.shx
  4
bigfont.shx
  0
STYLE
  2
STANDARD1
 70
     0
 40
0.0
 41
1.0
 50
0.0
 71
     0
 42
3.0
  3
txt
  4

  0
ENDTAB
  0
TABLE
  2
VIEW
 70
     1
  0
VIEW
  2
ALL
 70
     0
 40
540.00000000000057
 10
441.98319327731139
 20
269.99999999999972
 41
0.0
 11
0.0
 21
0.0
 31
1.0
 12
0.0
 22
0.0
 32
0.0
 42
0.0
 43
0.0
 44
0.0
 50
0.0
 71
     0
  0
ENDTAB
  0
TABLE
  2
UCS
 70
     0
  0
ENDTAB
  0
TABLE
  2
APPID
 70
    28
  0
APPID
  2
ACAD
 70
     0
  0
APPID
  2
DCO15
 70
     0
  0
APPID
  2
GENIUS_GENOREF_13
 70
     0
  0
APPID
  2
GENIUS_GENOENT_13
 70
     0
  0
APPID
  2
GENIUS_GENBH_13
 70
     0
  0
APPID
  2
GENIUS_GENOBJ_13
 70
     0
  0
APPID
  2
GENIUS_GENODEF_13
 70
     0
  0
APPID
  2
GENIUS_GENOLIS_13
 70
     0
  0
APPID
  2
GENIUS_GENOBJ-NBEHI-BHF_13
 70
     0
  0
APPID
  2
GENIUS_GENOBJ-NBEHI-BHB_13
 70
     0
  0
APPID
  2
GENIUS_GENOBJ-F-PART_13
 70
     0
  0
APPID
  2
GENIUS_GEFSTDP_13
 70
     0
  0
APPID
  2
GENIUS_GENOBJ-N-RSSYM_13
 70
     0
  0
APPID
  2
GENIUS_GENSYMENT_13
 70
     0
  0
APPID
  2
GENIUS_GENOBJ-N-TIT_13
 70
     0
  0
APPID
  2
GENIUS_GENTITLE_13
 70
     0
  0
APPID
  2
GENIUS_GENZVEED_13
 70
     0
  0
APPID
  2
GENIUS_GENOBJ-N-LEADER_13
 70
     0
  0
APPID
  2
GENIUS_GENOBJ-N-FIL_13
 70
     0
  0
APPID
  2
GENIUS_GENOBJ-N-SEC_13
 70
     0
  0
APPID
  2
GENIUS_GENOBJ-N-CRS_13
 70
     0
  0
APPID
  2
GENIUS_GENOBJ-N-ZOO_13
 70
     0
  0
APPID
  2
GENIUS_GENZOO_13
 70
     0
  0
APPID
  2
GENIUS_GENOBJ-F-TOL_13
 70
     0
  0
APPID
  2
GENIUS_GENFIL_13
 70
     0
  0
APPID
  2
GENIUS_GENOBJ-N-CHA_13
 70
     0
  0
APPID
  2
ACAD_MLEADERVER
 70
     0
  0
APPID
  2
ACAD_NAV_VCDISPLAY
 70
     0
  0
ENDTAB
  0
TABLE
  2
DIMSTYLE
 70
     1
  0
DIMSTYLE
  2
STANDARD
 70
     0
  3

  4

  5

  6

  7

 40
1.0
 41
0.18
 42
0.0625
 43
0.38
 44
0.18
 45
0.0
 46
0.0
 47
0.0
 48
0.0
140
0.18
141
0.09
142
0.0
143
25.399999999999999
144
1.0
145
0.0
146
1.0
147
0.09
 71
     0
 72
     0
 73
     1
 74
     1
 75
     0
 76
     0
 77
     0
 78
     0
170
     0
171
     2
172
     0
173
     0
174
     0
175
     0
176
     0
177
     0
178
     0
  0
ENDTAB
  0
ENDSEC
  0
SECTION
  2
BLOCKS
  0
BLOCK
  8
0
  2
$MODEL_SPACE
 70
     0
 10
0.0
 20
0.0
 30
0.0
  3
$MODEL_SPACE
  1

  0
ENDBLK
  5
124
  8
0
  0
BLOCK
 67
     1
  8
0
  2
$PAPER_SPACE
 70
     0
 10
0.0
 20
0.0
 30
0.0
  3
$PAPER_SPACE
  1

  0
ENDBLK
  5
122
 67
     1
  8
0
  0
ENDSEC
  0
SECTION
  2
ENTITIES
  0
CIRCLE
  5
280
  8
0
 10
274.1767547896136
 20
84.558337497233254
 30
0.0
 40
4.1879999999999988
  0
CIRCLE
  5
281
  8
3
 10
274.1767547896136
 20
84.558337497233254
 30
0.0
 40
5.0
  0
CIRCLE
  5
282
  8
0
 10
149.1767547896136
 20
84.558337497233254
 30
0.0
 40
6.5
  0
CIRCLE
  5
283
  8
0
 10
149.1767547896136
 20
84.558337497233254
 30
0.0
 40
18.0
  0
ARC
  5
284
  8
2
 10
274.1767547896136
 20
84.558337497233254
 30
0.0
 40
10.0
 50
120.76159538773079
 51
239.23840461226939
  0
ARC
  5
285
  8
0
 10
149.1767547896136
 20
84.558337497233254
 30
0.0
 40
20.0
 50
51.441853708148479
 51
308.55814629185147
  0
LINE
  5
286
  8
0
 10
264.50796288164412
 20
77.077512702561307
 30
0.0
 11
168.42905851073411
 21
71.515049817930276
 31
0.0
  0
ARC
  5
287
  8
0
 10
169.12263396192199
 20
59.535110206500399
 30
0.0
 40
12.0
 50
93.313425399792436
 51
128.55815968711599
  0
ARC
  5
288
  8
0
 10
264.97034651576928
 20
69.090886294941413
 30
0.0
 40
8.0
 50
59.238396208856123
 51
93.313425399792052
  0
ARC
  5
289
  8
0
 10
264.97034651576928
 20
100.02578869952509
 30
0.0
 40
8.0
 50
266.68657460020739
 51
300.76160379114378
  0
ARC
  5
28A
  8
0
 10
169.12263396192199
 20
109.5815647879661
 30
0.0
 40
12.0
 50
231.4418403128837
 51
266.68657460020739
  0
LINE
  5
28B
  8
0
 10
264.50796288164412
 20
92.039162291905086
 30
0.0
 11
168.42905851073411
 21
97.601625176536103
 31
0.0
  0
ARC
  5
28C
  8
0
 10
274.1767547896136
 20
84.558337497233254
 30
0.0
 40
10.0
 50
239.23840461226939
 51
120.76159538773079
  0
LINE
  5
28E
  8
1
 10
274.1767547896136
 20
99.558337497233197
 30
0.0
 11
274.1767547896136
 21
69.558337497233197
 31
0.0
  0
LINE
  5
28F
  8
1
 10
149.17675478961371
 20
109.5583374972332
 30
0.0
 11
149.1767547896136
 21
59.558337497233197
 31
0.0
  0
LINE
  5
290
  8
1
 10
289.1767547896136
 20
84.558337497233197
 30
0.0
 11
124.1767547896137
 21
84.558337497233197
 31
0.0
  0
ARC
  5
291
  8
0
 10
128.1767547896136
 20
190.40148324774091
 30
0.0
 40
3.0
 50
0.0
 51
38.942441268979273
  0
ARC
  5
292
  8
0
 10
132.5786785782594
 20
197.5583374972332
 30
0.0
 40
3.0
 50
89.999999999999986
 51
150.00000000000759
1001
ACAD
1000
ASC_BOUNDS
1002
{
1070
    19
1002
}
  0
ARC
  5
293
  8
0
 10
135.1767547896136
 20
196.05833749723331
 30
0.0
 40
6.0
 50
150.0000000000077
 51
218.94244126897931
1001
ACAD
1000
ASC_BOUNDS
1002
{
1070
    19
1002
}
  0
LINE
  5
294
  8
2
 10
269.1767547896136
 20
207.87033749723329
 30
0.0
 11
269.1767547896136
 21
192.5583374972332
 31
0.0
  0
LINE
  5
295
  8
2
 10
279.1767547896136
 20
207.87033749723329
 30
0.0
 11
279.1767547896136
 21
192.5583374972332
 31
0.0
  0
LINE
  5
296
  8
2
 10
269.98875478961372
 20
207.0583374972332
 30
0.0
 11
269.98875478961372
 21
192.5583374972332
 31
0.0
  0
LINE
  5
297
  8
2
 10
278.3647547896137
 20
207.0583374972334
 30
0.0
 11
278.3647547896137
 21
192.5583374972332
 31
0.0
  0
LINE
  5
298
  8
2
 10
269.98875478961372
 20
207.0583374972332
 30
0.0
 11
268.48875478961372
 21
208.5583374972332
 31
0.0
  0
LINE
  5
299
  8
0
 10
278.3647547896137
 20
207.0583374972332
 30
0.0
 11
279.8647547896137
 21
208.5583374972332
 31
0.0
  0
ARC
  5
29A
  8
0
 10
261.1767547896136
 20
203.55833749723331
 30
0.0
 40
3.0
 50
270.0
 51
0.0
  0
LINE
  5
29B
  8
2
 10
155.67675478961371
 20
200.5583374972332
 30
0.0
 11
155.67675478961371
 21
164.55833749723331
 31
0.0
  0
LINE
  5
29C
  8
2
 10
142.6767547896136
 20
200.5583374972332
 30
0.0
 11
142.67675478961371
 21
164.5583374972332
 31
0.0
1001
ACAD
1000
ASC_BOUNDS
1002
{
1070
    19
1002
}
  0
LINE
  5
29D
  8
0
 10
284.1767547896136
 20
208.5583374972332
 30
0.0
 11
284.1767547896136
 21
194.5583374972332
 31
0.0
  0
LINE
  5
29E
  8
0
 10
264.1767547896136
 20
208.5583374972332
 30
0.0
 11
264.1767547896136
 21
203.5583374972332
 31
0.0
  0
LINE
  5
29F
  8
0
 10
167.17675478961371
 20
188.5583374972332
 30
0.0
 11
167.1767547896136
 21
165.55833749723331
 31
0.0
  0
LINE
  5
2A0
  8
0
 10
131.17675478961371
 20
190.40148324774091
 30
0.0
 11
131.17675478961371
 21
165.5583374972332
 31
0.0
1001
ACAD
1000
ASC_BOUNDS
1002
{
1070
    19
1002
}
  0
LINE
  5
2A1
  8
0
 10
266.06208352636691
 20
200.5583374972332
 30
0.0
 11
132.57867857825951
 21
200.5583374972332
 31
0.0
  0
LINE
  5
2A2
  8
1
 10
149.17675478961371
 20
205.5583374972332
 30
0.0
 11
149.17675478961371
 21
159.5583374972332
 31
0.0
  0
LINE
  5
2A3
  8
1
 10
274.1767547896136
 20
213.5583374972332
 30
0.0
 11
274.1767547896136
 21
187.5583374972332
 31
0.0
  0
LINE
  5
356
  8
0
 10
166.1767547896136
 20
164.55833749723331
 30
0.0
 11
132.17675478961371
 21
164.5583374972332
 31
0.0
  0
ARC
  5
357
  8
0
 10
132.1767547896136
 20
165.55833749723331
 30
0.0
 40
1.0
 50
180.0
 51
270.0
1001
ACAD
1000
ASC_BOUNDS
1002
{
1070
    19
1002
}
  0
ARC
  5
358
  8
0
 10
166.1767547896136
 20
165.5583374972334
 30
0.0
 40
1.0
 50
270.0000000000004
 51
0.0
  0
ARC
  5
35C
  8
0
 10
170.1767547896136
 20
188.5583374972332
 30
0.0
 40
3.0
 50
109.4712206344967
 51
180.0
  0
LINE
  5
35D
  8
0
 10
169.1767547896134
 20
191.38676462197941
 30
0.0
 11
264.1767547896136
 21
192.5583374972332
 31
0.0
  0
LINE
  5
35E
  8
0
 10
264.1767547896136
 20
192.5583374972332
 30
0.0
 11
282.1767547896136
 21
192.5583374972332
 31
0.0
  0
LINE
  5
35F
  8
0
 10
264.1767547896136
 20
208.5583374972332
 30
0.0
 11
284.1767547896136
 21
208.5583374972332
 31
0.0
  0
LINE
  5
360
  8
2
 10
269.98875478961372
 20
207.0583374972332
 30
0.0
 11
278.3647547896137
 21
207.0583374972332
 31
0.0
  0
ARC
  5
361
  8
0
 10
282.1767547896136
 20
194.5583374972332
 30
0.0
 40
2.0
 50
270.0
 51
0.0
  0
LINE
  5
3C5
  8
0
 10
169.1767547896134
 20
191.38676462197941
 30
0.0
 11
131.17675478961371
 21
191.38676462197941
 31
0.0
  0
ARC
  5
3C7
  8
0
 10
266.06208352636691
 20
203.5583374972332
 30
0.0
 40
3.0
 50
270.0
 51
0.0
  0
LINE
  5
3C8
  8
1
 10
289.1767547896136
 20
278.5583374972332
 30
0.0
 11
124.1767547896137
 21
278.5583374972332
 31
0.0
  0
LINE
  5
3C9
  8
1
 10
149.17675478961371
 20
303.5583374972332
 30
0.0
 11
149.1767547896136
 21
253.5583374972332
 31
0.0
  0
LINE
  5
3CA
  8
1
 10
274.1767547896136
 20
293.5583374972332
 30
0.0
 11
274.1767547896136
 21
263.5583374972332
 31
0.0
  0
LINE
  5
3CC
  8
0
 10
264.50796288164412
 20
286.03916229190509
 30
0.0
 11
168.42905851073411
 21
291.60162517653612
 31
0.0
  0
ARC
  5
3CD
  8
0
 10
169.12263396192199
 20
303.5815647879661
 30
0.0
 40
12.0
 50
231.4418403128837
 51
266.68657460020739
  0
ARC
  5
3CE
  8
0
 10
264.97034651576928
 20
294.02578869952509
 30
0.0
 40
8.0
 50
266.68657460020739
 51
300.76160379114378
  0
ARC
  5
3CF
  8
0
 10
264.97034651576928
 20
263.09088629494141
 30
0.0
 40
8.0
 50
59.238396208856123
 51
93.313425399792052
  0
ARC
  5
3D0
  8
0
 10
169.12263396192199
 20
253.53511020650041
 30
0.0
 40
12.0
 50
93.313425399792436
 51
128.55815968711599
  0
LINE
  5
3D1
  8
0
 10
264.50796288164412
 20
271.07751270256131
 30
0.0
 11
168.42905851073411
 21
265.51504981793028
 31
0.0
  0
ARC
  5
3D2
  8
0
 10
149.1767547896136
 20
278.55833749723331
 30
0.0
 40
20.0
 50
51.441853708148479
 51
308.55814629185147
  0
CIRCLE
  5
3D4
  8
2
 10
149.1767547896136
 20
278.55833749723331
 30
0.0
 40
18.0
  0
CIRCLE
  5
3D5
  8
0
 10
149.1767547896136
 20
278.55833749723331
 30
0.0
 40
6.5
  0
CIRCLE
  5
3D6
  8
3
 10
274.1767547896136
 20
278.55833749723331
 30
0.0
 40
5.0
  0
CIRCLE
  5
3D7
  8
0
 10
274.1767547896136
 20
278.55833749723331
 30
0.0
 40
4.1879999999999988
  0
CIRCLE
  5
3D8
  8
0
 10
274.1767547896136
 20
278.5583374972332
 30
0.0
 40
10.0
  0
LINE
  5
3DA
  8
0
 10
77.176754789614051
 20
191.38676462197941
 30
0.0
 11
41.176754789613817
 21
191.38676462197941
 31
0.0
  0
LINE
  5
3DD
  8
0
 10
49.176754789613817
 20
208.5583374972332
 30
0.0
 11
69.176754789613824
 21
208.5583374972332
 31
0.0
  0
ARC
  5
3E1
  8
0
 10
76.17675478961371
 20
165.5583374972334
 30
0.0
 40
1.0
 50
270.0000000000004
 51
0.0
  0
ARC
  5
3E2
  8
0
 10
42.176754789613703
 20
165.55833749723331
 30
0.0
 40
1.0
 50
180.0
 51
270.0
1001
ACAD
1000
ASC_BOUNDS
1002
{
1070
    19
1002
}
  0
LINE
  5
3E3
  8
0
 10
76.17675478961371
 20
164.55833749723331
 30
0.0
 11
42.176754789613817
 21
164.5583374972332
 31
0.0
  0
LINE
  5
3E5
  8
1
 10
59.17675478961371
 20
213.5583374972332
 30
0.0
 11
59.176754789613817
 21
159.5583374972332
 31
0.0
  0
LINE
  5
3E6
  8
0
 10
75.774831000968106
 20
200.5583374972332
 30
0.0
 11
42.578678578259648
 21
200.5583374972332
 31
0.0
  0
LINE
  5
3E7
  8
0
 10
41.176754789613817
 20
190.40148324774091
 30
0.0
 11
41.176754789613817
 21
165.5583374972332
 31
0.0
1001
ACAD
1000
ASC_BOUNDS
1002
{
1070
    19
1002
}
  0
LINE
  5
3E8
  8
0
 10
77.176754789614051
 20
190.401483247741
 30
0.0
 11
77.17675478961371
 21
165.55833749723331
 31
0.0
  0
LINE
  5
3E9
  8
0
 10
49.176754789613817
 20
208.5583374972332
 30
0.0
 11
49.176754789613817
 21
200.5583374972332
 31
0.0
  0
LINE
  5
3EA
  8
0
 10
69.176754789613824
 20
208.5583374972332
 30
0.0
 11
69.176754789613824
 21
200.5583374972332
 31
0.0
  0
LINE
  5
3EB
  8
2
 10
52.67675478961371
 20
200.5583374972332
 30
0.0
 11
52.676754789613831
 21
164.5583374972332
 31
0.0
1001
ACAD
1000
ASC_BOUNDS
1002
{
1070
    19
1002
}
  0
LINE
  5
3EC
  8
2
 10
65.676754789613824
 20
200.5583374972332
 30
0.0
 11
65.676754789613824
 21
164.55833749723331
 31
0.0
  0
ARC
  5
3F4
  8
0
 10
45.17675478961371
 20
196.05833749723331
 30
0.0
 40
6.0
 50
150.0000000000077
 51
218.94244126897931
1001
ACAD
1000
ASC_BOUNDS
1002
{
1070
    19
1002
}
  0
ARC
  5
3F5
  8
0
 10
42.578678578259542
 20
197.55833749723331
 30
0.0
 40
3.0
 50
89.999999999999986
 51
150.00000000000759
1001
ACAD
1000
ASC_BOUNDS
1002
{
1070
    19
1002
}
  0
ARC
  5
3F6
  8
0
 10
38.17675478961371
 20
190.401483247741
 30
0.0
 40
3.0
 50
0.0
 51
38.942441268979273
  0
ARC
  5
3F7
  8
0
 10
80.176754789613923
 20
190.401483247741
 30
0.0
 40
3.0
 50
141.05755873102069
 51
180.0
  0
ARC
  5
3F8
  8
0
 10
75.774831000968106
 20
197.55833749723331
 30
0.0
 40
3.0
 50
29.99999999999239
 51
90.000000000000028
1001
ACAD
1000
ASC_BOUNDS
1002
{
1070
    19
1002
}
  0
ARC
  5
3F9
  8
0
 10
73.176754789613938
 20
196.05833749723331
 30
0.0
 40
6.0
 50
321.05755873102072
 51
29.99999999999234
1001
ACAD
1000
ASC_BOUNDS
1002
{
1070
    19
1002
}
  0
ARC
  5
3FB
  8
0
 10
358.17675478961382
 20
196.05833749723331
 30
0.0
 40
6.0
 50
321.05755873102072
 51
29.99999999999234
1001
ACAD
1000
ASC_BOUNDS
1002
{
1070
    19
1002
}
  0
ARC
  5
3FC
  8
0
 10
360.77483100096811
 20
197.5583374972332
 30
0.0
 40
3.0
 50
29.99999999999239
 51
90.000000000000028
1001
ACAD
1000
ASC_BOUNDS
1002
{
1070
    19
1002
}
  0
ARC
  5
3FD
  8
0
 10
365.17675478961382
 20
190.40148324774091
 30
0.0
 40
3.0
 50
141.05755873102069
 51
180.0
  0
ARC
  5
3FE
  8
0
 10
323.1767547896136
 20
190.40148324774091
 30
0.0
 40
3.0
 50
0.0
 51
38.942441268979273
  0
ARC
  5
3FF
  8
0
 10
327.57867857825948
 20
197.5583374972332
 30
0.0
 40
3.0
 50
89.999999999999986
 51
150.00000000000759
1001
ACAD
1000
ASC_BOUNDS
1002
{
1070
    19
1002
}
  0
ARC
  5
400
  8
0
 10
330.1767547896136
 20
196.05833749723331
 30
0.0
 40
6.0
 50
150.0000000000077
 51
218.94244126897931
1001
ACAD
1000
ASC_BOUNDS
1002
{
1070
    19
1002
}
  0
LINE
  5
402
  8
2
 10
350.6767547896136
 20
200.55833749723311
 30
0.0
 11
350.6767547896136
 21
164.5583374972332
 31
0.0
  0
LINE
  5
403
  8
2
 10
337.6767547896136
 20
200.55833749723311
 30
0.0
 11
337.6767547896136
 21
164.55833749723311
 31
0.0
1001
ACAD
1000
ASC_BOUNDS
1002
{
1070
    19
1002
}
  0
LINE
  5
404
  8
0
 10
354.1767547896136
 20
208.5583374972332
 30
0.0
 11
354.17675478961382
 21
194.55833749723331
 31
0.0
  0
LINE
  5
405
  8
0
 10
334.1767547896136
 20
208.5583374972332
 30
0.0
 11
334.1767547896136
 21
194.5583374972332
 31
0.0
  0
LINE
  5
406
  8
0
 10
362.17675478961411
 20
190.401483247741
 30
0.0
 11
362.1767547896136
 21
165.55833749723331
 31
0.0
  0
LINE
  5
407
  8
0
 10
326.1767547896136
 20
190.4014832477408
 30
0.0
 11
326.1767547896136
 21
165.55833749723311
 31
0.0
1001
ACAD
1000
ASC_BOUNDS
1002
{
1070
    19
1002
}
  0
LINE
  5
408
  8
0
 10
360.77483100096811
 20
200.5583374972332
 30
0.0
 11
354.1767547896136
 21
200.5583374972332
 31
0.0
  0
LINE
  5
409
  8
1
 10
344.1767547896136
 20
213.5583374972332
 30
0.0
 11
344.1767547896136
 21
159.5583374972332
 31
0.0
  0
LINE
  5
40A
  8
0
 10
361.1767547896136
 20
164.5583374972332
 30
0.0
 11
327.1767547896136
 21
164.55833749723311
 31
0.0
  0
ARC
  5
40B
  8
0
 10
327.1767547896136
 20
165.55833749723331
 30
0.0
 40
1.0
 50
180.0
 51
270.0
1001
ACAD
1000
ASC_BOUNDS
1002
{
1070
    19
1002
}
  0
ARC
  5
40C
  8
0
 10
361.1767547896136
 20
165.5583374972334
 30
0.0
 40
1.0
 50
270.0000000000004
 51
0.0
  0
LINE
  5
40D
  8
0
 10
336.17675478961382
 20
192.55833749723311
 30
0.0
 11
352.1767547896136
 21
192.55833749723311
 31
0.0
  0
LINE
  5
40E
  8
0
 10
334.1767547896136
 20
208.5583374972332
 30
0.0
 11
354.1767547896136
 21
208.5583374972332
 31
0.0
  0
ARC
  5
40F
  8
0
 10
352.1767547896136
 20
194.5583374972332
 30
0.0
 40
2.0
 50
270.0
 51
0.0
  0
LINE
  5
410
  8
0
 10
362.17675478961411
 20
191.38676462197941
 30
0.0
 11
326.1767547896136
 21
191.38676462197941
 31
0.0
  0
POLYLINE
  5
411
  8
0
 66
     1
 10
0.0
 20
0.0
 30
0.0
  0
VERTEX
  5
412
  8
0
 10
50.583725541579831
 20
200.5583374972332
 30
0.0
 42
0.2207027590946715
  0
VERTEX
  5
413
  8
0
 10
50.911179698116939
 20
200.71027857436351
 30
0.0
 42
0.0915094750235058
  0
VERTEX
  5
414
  8
0
 10
51.326707153248549
 20
201.43701715367351
 30
0.0
 42
0.0482428572313308
 70
     2
 50
70.697454781623932
  0
VERTEX
  5
415
  8
0
 10
51.576423919758327
 20
202.45532315029061
 30
0.0
 42
0.0457836636516424
 50
70.697454781623932
  0
VERTEX
  5
416
  8
0
 10
51.634460213395521
 20
203.5583374972332
 30
0.0
 42
0.0360333421034115
  0
SEQEND
  5
417
  8
0
  0
POLYLINE
  5
418
  8
0
 66
     1
 10
0.0
 20
0.0
 30
0.0
  0
VERTEX
  5
419
  8
0
 10
67.769784037647582
 20
200.5583374972332
 30
0.0
 42
-0.2207027590946715
  0
VERTEX
  5
41A
  8
0
 10
67.442329881110481
 20
200.71027857436351
 30
0.0
 42
-0.0915094750235058
  0
VERTEX
  5
41B
  8
0
 10
67.026802425978872
 20
201.43701715367351
 30
0.0
 42
-0.0482428572313308
 70
     2
 50
109.3025452183761
  0
VERTEX
  5
41C
  8
0
 10
66.777085659469094
 20
202.45532315029061
 30
0.0
 42
-0.0457836636516424
  0
VERTEX
  5
41D
  8
0
 10
66.719049365831893
 20
203.5583374972332
 30
0.0
 42
-0.0360333421034115
  0
SEQEND
  5
41E
  8
0
  0
ARC
  5
41F
  8
0
 10
336.17675478961382
 20
194.5583374972332
 30
0.0
 40
2.0
 50
180.0
 51
270.0
  0
LINE
  5
420
  8
0
 10
334.1767547896136
 20
200.55833749723311
 30
0.0
 11
327.57867857825948
 21
200.55833749723311
 31
0.0
  0
LINE
  5
421
  8
2
 10
334.1767547896136
 20
200.55833749723311
 30
0.0
 11
354.1767547896136
 21
200.5583374972332
 31
0.0
  0
TEXT
  5
427
  8
0
 10
222.23144058588289
 20
79.861463426315566
 30
0.0
 40
9.0
  1
7
 41
0.75
 72
     1
 11
224.48144058588289
 21
79.861463426315566
 31
0.0
  0
LINE
  5
428
  8
0
 10
221.17756414212431
 20
84.558337497234305
 30
0.0
 11
216.7775641421392
 21
84.558337497234305
 31
0.0
  0
TEXT
  5
429
  8
0
 10
203.83909330924209
 20
79.757327729187381
 30
0.0
 40
9.0
  1
SC
 41
0.75
 72
     1
 11
209.46409330924209
 21
79.757327729187381
 31
0.0
  0
TEXT
  5
4D2
  8
0
 62
     3
 10
0.0
 20
0.0
 30
0.0
 40
10.0
  1
SC7
  7
STANDARD1
  0
ENDSEC
  0
EOF
