  0
SECTION
  2
HEADER
  9
$ACADVER
  1
AC1009
  9
$INSBASE
 10
0.0
 20
0.0
 30
0.0
  9
$EXTMIN
 10
0.0
 20
-2.960436562073669
 30
0.0
  9
$EXTMAX
 10
536.05766151011767
 20
403.2352485543604
 30
0.0
  9
$LIMMIN
 10
0.0
 20
0.0
  9
$LIMMAX
 10
750.0
 20
540.0
  9
$ORTHOMODE
 70
     1
  9
$REGENMODE
 70
     1
  9
$FILLMODE
 70
     1
  9
$QTEXTMODE
 70
     0
  9
$MIRRTEXT
 70
     0
  9
$DRAGMODE
 70
     2
  9
$LTSCALE
 40
10.0
  9
$OSMODE
 70
    55
  9
$ATTMODE
 70
     1
  9
$TEXTSIZE
 40
0.2
  9
$TRACEWID
 40
0.05
  9
$TEXTSTYLE
  7
STANDARD
  9
$CLAYER
  8
0
  9
$CELTYPE
  6
BYLAYER
  9
$CECOLOR
 62
   256
  9
$DIMSCALE
 40
2.0
  9
$DIMASZ
 40
3.0
  9
$DIMEXO
 40
2.0
  9
$DIMDLI
 40
0.38
  9
$DIMRND
 40
0.0
  9
$DIMDLE
 40
0.0
  9
$DIMEXE
 40
2.0
  9
$DIMTP
 40
0.0
  9
$DIMTM
 40
0.0
  9
$DIMTXT
 40
3.2000000000000002
  9
$DIMCEN
 40
0.0
  9
$DIMTSZ
 40
0.0
  9
$DIMTOL
 70
     0
  9
$DIMLIM
 70
     0
  9
$DIMTIH
 70
     0
  9
$DIMTOH
 70
     0
  9
$DIMSE1
 70
     0
  9
$DIMSE2
 70
     0
  9
$DIMTAD
 70
     1
  9
$DIMZIN
 70
     0
  9
$DIMBLK
  1

  9
$DIMASO
 70
     1
  9
$DIMSHO
 70
     0
  9
$DIMPOST
  1

  9
$DIMAPOST
  1

  9
$DIMALT
 70
     0
  9
$DIMALTD
 70
     2
  9
$DIMALTF
 40
25.399999999999999
  9
$DIMLFAC
 40
1.0
  9
$DIMTOFL
 70
     0
  9
$DIMTVP
 40
1.6000000000000001
  9
$DIMTIX
 70
     1
  9
$DIMSOXD
 70
     0
  9
$DIMSAH
 70
     0
  9
$DIMBLK1
  1

  9
$DIMBLK2
  1

  9
$DIMSTYLE
  2
STANDARD
  9
$DIMCLRD
 70
     0
  9
$DIMCLRE
 70
     0
  9
$DIMCLRT
 70
     0
  9
$DIMTFAC
 40
1.0
  9
$DIMGAP
 40
0.09
  9
$LUNITS
 70
     2
  9
$LUPREC
 70
     4
  9
$SKETCHINC
 40
0.1
  9
$FILLETRAD
 40
3.0
  9
$AUNITS
 70
     0
  9
$AUPREC
 70
     0
  9
$MENU
  1
E:\r13\win\SUPPORT\ACAD
  9
$ELEVATION
 40
0.0
  9
$PELEVATION
 40
0.0
  9
$THICKNESS
 40
0.0
  9
$LIMCHECK
 70
     0
  9
$BLIPMODE
 70
     0
  9
$CHAMFERA
 40
0.0
  9
$CHAMFERB
 40
0.0
  9
$SKPOLY
 70
     0
  9
$TDCREATE
 40
2449840.6070833332
  9
$TDUPDATE
 40
2456598.478549317
  9
$TDINDWG
 40
0.0074115046
  9
$TDUSRTIMER
 40
0.0074115046
  9
$USRTIMER
 70
     1
  9
$ANGBASE
 50
0.0
  9
$ANGDIR
 70
     0
  9
$PDMODE
 70
     0
  9
$PDSIZE
 40
0.0
  9
$PLINEWID
 40
0.0
  9
$COORDS
 70
     1
  9
$SPLFRAME
 70
     0
  9
$SPLINETYPE
 70
     6
  9
$SPLINESEGS
 70
     8
  9
$ATTDIA
 70
     0
  9
$ATTREQ
 70
     1
  9
$HANDLING
 70
     1
  9
$HANDSEED
  5
6E2
  9
$SURFTAB1
 70
     6
  9
$SURFTAB2
 70
     6
  9
$SURFTYPE
 70
     6
  9
$SURFU
 70
     6
  9
$SURFV
 70
     6
  9
$UCSNAME
  2

  9
$UCSORG
 10
0.0
 20
0.0
 30
0.0
  9
$UCSXDIR
 10
1.0
 20
0.0
 30
0.0
  9
$UCSYDIR
 10
0.0
 20
1.0
 30
0.0
  9
$PUCSNAME
  2

  9
$PUCSORG
 10
0.0
 20
0.0
 30
0.0
  9
$PUCSXDIR
 10
1.0
 20
0.0
 30
0.0
  9
$PUCSYDIR
 10
0.0
 20
1.0
 30
0.0
  9
$USERI1
 70
     0
  9
$USERI2
 70
     1
  9
$USERI3
 70
     1
  9
$USERI4
 70
     0
  9
$USERI5
 70
     0
  9
$USERR1
 40
0.0
  9
$USERR2
 40
0.0
  9
$USERR3
 40
0.0
  9
$USERR4
 40
0.0
  9
$USERR5
 40
0.0
  9
$WORLDVIEW
 70
     1
  9
$SHADEDGE
 70
     3
  9
$SHADEDIF
 70
    70
  9
$TILEMODE
 70
     1
  9
$MAXACTVP
 70
    16
  9
$PLIMCHECK
 70
     0
  9
$PEXTMIN
 10
1.0000000000000000E+020
 20
1.0000000000000000E+020
 30
1.0000000000000000E+020
  9
$PEXTMAX
 10
-1.0000000000000000E+020
 20
-1.0000000000000000E+020
 30
-1.0000000000000000E+020
  9
$PLIMMIN
 10
0.0
 20
0.0
  9
$PLIMMAX
 10
12.0
 20
9.0
  9
$UNITMODE
 70
     0
  9
$VISRETAIN
 70
     0
  9
$PLINEGEN
 70
     0
  9
$PSLTSCALE
 70
     0
  0
ENDSEC
  0
SECTION
  2
TABLES
  0
TABLE
  2
VPORT
 70
     1
  0
VPORT
  2
*ACTIVE
 70
     0
 10
0.0
 20
0.0
 11
1.0
 21
1.0
 12
374.98855678130462
 22
390.38782554515711
 13
0.0
 23
0.0
 14
20.0
 24
20.0
 15
20.0
 25
20.0
 16
0.0
 26
0.0
 36
1.0
 17
0.0
 27
0.0
 37
0.0
 40
794.35313298118172
 41
1.7807262569832401
 42
50.0
 43
0.0
 44
0.0
 50
0.0
 51
0.0
 71
     0
 72
   500
 73
     1
 74
     0
 75
     0
 76
     0
 77
     0
 78
     2
  0
ENDTAB
  0
TABLE
  2
LTYPE
 70
     4
  0
LTYPE
  2
CONTINUOUS
 70
     0
  3
Solid Line
 72
    65
 73
     0
 40
0.0
  0
LTYPE
  2
CENTER
 70
     0
  3
____ _ ____ _ ____ _ ____ _ ____ _ ____ _ ____
 72
    65
 73
     4
 40
2.0
 49
1.25
 49
-0.25
 49
0.25
 49
-0.25
  0
LTYPE
  2
HIDDEN
 70
     0
  3
_ _ _ _ _ _ _ _ _ _ _ _ _ _ _ _ _ _ _ _ _ _ _
 72
    65
 73
     2
 40
0.375
 49
0.25
 49
-0.125
  0
LTYPE
  2
PHANTOM2
 70
     0
  3
___ _ _ ___ _ _ ___ _ _ ___ _ _
 72
    65
 73
     6
 40
1.25
 49
0.625
 49
-0.125
 49
0.125
 49
-0.125
 49
0.125
 49
-0.125
  0
ENDTAB
  0
TABLE
  2
LAYER
 70
     5
  0
LAYER
  2
0
 70
     0
 62
     7
  6
CONTINUOUS
  0
LAYER
  2
1
 70
     0
 62
     1
  6
CENTER
  0
LAYER
  2
2
 70
     0
 62
     2
  6
HIDDEN
  0
LAYER
  2
3
 70
     0
 62
     3
  6
CONTINUOUS
  0
LAYER
  2
DEFPOINTS
 70
     0
 62
     7
  6
CONTINUOUS
  0
ENDTAB
  0
TABLE
  2
STYLE
 70
     2
  0
STYLE
  2
STANDARD
 70
     0
 40
0.0
 41
1.0
 50
0.0
 71
     0
 42
0.2
  3
simplex.shx
  4
bigfont.shx
  0
STYLE
  2
STANDARD1
 70
     0
 40
0.0
 41
1.0
 50
0.0
 71
     0
 42
3.0
  3
txt
  4

  0
ENDTAB
  0
TABLE
  2
VIEW
 70
     1
  0
VIEW
  2
ALL
 70
     0
 40
540.0
 10
441.98319327731087
 20
270.0
 41
0.0
 11
0.0
 21
0.0
 31
1.0
 12
0.0
 22
0.0
 32
0.0
 42
0.0
 43
0.0
 44
0.0
 50
0.0
 71
     0
  0
ENDTAB
  0
TABLE
  2
UCS
 70
     0
  0
ENDTAB
  0
TABLE
  2
APPID
 70
    28
  0
APPID
  2
ACAD
 70
     0
  0
APPID
  2
DCO15
 70
     0
  0
APPID
  2
GENIUS_GENOREF_13
 70
     0
  0
APPID
  2
GENIUS_GENOENT_13
 70
     0
  0
APPID
  2
GENIUS_GENBH_13
 70
     0
  0
APPID
  2
GENIUS_GENOBJ_13
 70
     0
  0
APPID
  2
GENIUS_GENODEF_13
 70
     0
  0
APPID
  2
GENIUS_GENOLIS_13
 70
     0
  0
APPID
  2
GENIUS_GENOBJ-NBEHI-BHF_13
 70
     0
  0
APPID
  2
GENIUS_GENOBJ-NBEHI-BHB_13
 70
     0
  0
APPID
  2
GENIUS_GENOBJ-F-PART_13
 70
     0
  0
APPID
  2
GENIUS_GEFSTDP_13
 70
     0
  0
APPID
  2
GENIUS_GENOBJ-N-RSSYM_13
 70
     0
  0
APPID
  2
GENIUS_GENSYMENT_13
 70
     0
  0
APPID
  2
GENIUS_GENOBJ-N-TIT_13
 70
     0
  0
APPID
  2
GENIUS_GENTITLE_13
 70
     0
  0
APPID
  2
GENIUS_GENZVEED_13
 70
     0
  0
APPID
  2
GENIUS_GENOBJ-N-LEADER_13
 70
     0
  0
APPID
  2
GENIUS_GENOBJ-N-FIL_13
 70
     0
  0
APPID
  2
GENIUS_GENOBJ-N-SEC_13
 70
     0
  0
APPID
  2
GENIUS_GENOBJ-N-CRS_13
 70
     0
  0
APPID
  2
GENIUS_GENOBJ-N-ZOO_13
 70
     0
  0
APPID
  2
GENIUS_GENZOO_13
 70
     0
  0
APPID
  2
GENIUS_GENOBJ-F-TOL_13
 70
     0
  0
APPID
  2
GENIUS_GENFIL_13
 70
     0
  0
APPID
  2
GENIUS_GENOBJ-N-CHA_13
 70
     0
  0
APPID
  2
ACAD_MLEADERVER
 70
     0
  0
APPID
  2
ACAD_NAV_VCDISPLAY
 70
     0
  0
ENDTAB
  0
TABLE
  2
DIMSTYLE
 70
     1
  0
DIMSTYLE
  2
STANDARD
 70
     0
  3

  4

  5

  6

  7

 40
1.0
 41
0.18
 42
0.0625
 43
0.38
 44
0.18
 45
0.0
 46
0.0
 47
0.0
 48
0.0
140
0.18
141
0.09
142
0.0
143
25.399999999999999
144
1.0
145
0.0
146
1.0
147
0.09
 71
     0
 72
     0
 73
     1
 74
     1
 75
     0
 76
     0
 77
     0
 78
     0
170
     0
171
     2
172
     0
173
     0
174
     0
175
     0
176
     0
177
     0
178
     0
  0
ENDTAB
  0
ENDSEC
  0
SECTION
  2
BLOCKS
  0
BLOCK
  8
0
  2
$MODEL_SPACE
 70
     0
 10
0.0
 20
0.0
 30
0.0
  3
$MODEL_SPACE
  1

  0
ENDBLK
  5
162
  8
0
  0
BLOCK
 67
     1
  8
0
  2
$PAPER_SPACE
 70
     0
 10
0.0
 20
0.0
 30
0.0
  3
$PAPER_SPACE
  1

  0
ENDBLK
  5
160
 67
     1
  8
0
  0
ENDSEC
  0
SECTION
  2
ENTITIES
  0
CIRCLE
  5
39B
  8
0
 10
392.07783380459023
 20
99.235248554361533
 30
0.0
 40
5.052999999999999
  0
CIRCLE
  5
39C
  8
3
 10
392.07783380459023
 20
99.235248554361533
 30
0.0
 40
6.0
  0
CIRCLE
  5
39D
  8
0
 10
192.0778338045902
 20
99.23524855436159
 30
0.0
 40
15.556349186104059
  0
CIRCLE
  5
39E
  8
0
 10
192.0778338045902
 20
99.23524855436159
 30
0.0
 40
22.0
  0
ARC
  5
39F
  8
0
 10
392.07783380459023
 20
99.235248554361533
 30
0.0
 40
12.0
 50
240.57561004817839
 51
119.4243899518212
  0
ARC
  5
3A0
  8
0
 10
192.0778338045902
 20
99.23524855436159
 30
0.0
 40
24.0
 50
51.741622180316689
 51
308.25837781968301
  0
LINE
  5
3A1
  8
0
 10
381.93551539857731
 20
89.808878822789893
 30
0.0
 11
214.4737257942848
 21
83.171678535734145
 31
0.0
  0
ARC
  5
3A2
  8
0
 10
214.9885651125623
 20
70.181877133235545
 30
0.0
 40
13.0
 50
92.269679716792169
 51
128.25839110807209
  0
ARC
  5
3A3
  8
0
 10
382.25233959444063
 20
81.815154882790921
 30
0.0
 40
8.0
 50
60.575600920257713
 51
92.269679716792169
  0
ARC
  5
3A4
  8
0
 10
382.25233959444063
 20
116.6553422259323
 30
0.0
 40
8.0
 50
267.73032028320779
 51
299.4243990797425
  0
ARC
  5
3A5
  8
0
 10
214.9885651125623
 20
128.28861997548759
 30
0.0
 40
13.0
 50
231.7416088919278
 51
267.73032028320779
  0
LINE
  5
3A6
  8
0
 10
381.93551539857731
 20
108.6616182859334
 30
0.0
 11
214.4737257942848
 21
115.29881857298911
 31
0.0
  0
ARC
  5
3A7
  8
2
 10
392.07783380459023
 20
99.235248554361533
 30
0.0
 40
12.0
 50
119.4243899518212
 51
240.57561004817839
  0
LINE
  5
3A9
  8
1
 10
392.07783380459023
 20
121.2352485543617
 30
0.0
 11
392.07783380459023
 21
77.235248554361988
 31
0.0
  0
LINE
  5
3AA
  8
1
 10
192.0778338045902
 20
133.23524855436131
 30
0.0
 11
192.0778338045902
 21
65.23524855436176
 31
0.0
  0
LINE
  5
3AB
  8
1
 10
414.07783380459023
 20
99.235248554361533
 30
0.0
 11
158.07783380459071
 21
99.235248554361533
 31
0.0
  0
ARC
  5
446
  8
0
 10
377.79569218813663
 20
259.52395406220029
 30
0.0
 40
2.2887055078389422
 50
270.0
 51
355.65962538262238
  0
ARC
  5
447
  8
0
 10
165.5778338045902
 20
244.3070453240862
 30
0.0
 40
4.5
 50
0.0
 51
32.204227503972071
  0
ARC
  5
448
  8
0
 10
219.0778338045902
 20
240.3009539123575
 30
0.0
 40
5.0
 50
90.688204493040871
 51
178.97484075477939
  0
LINE
  5
466
  8
1
 10
392.07783380459023
 20
277.23524855436119
 30
0.0
 11
392.07783380459023
 21
237.23524855436219
 31
0.0
  0
LINE
  5
467
  8
1
 10
192.0778338045902
 20
267.23524855436159
 30
0.0
 11
192.0778338045902
 21
205.2352485543615
 31
0.0
  0
LINE
  5
468
  8
0
 10
383.90039732718787
 20
257.23524855436142
 30
0.0
 11
172.86973456104209
 21
257.23524855436148
 31
0.0
  0
LINE
  5
469
  8
0
 10
170.0778338045902
 20
244.3070453240862
 30
0.0
 11
170.0778338045902
 21
240.38994909274049
 31
0.0
  0
LINE
  5
46A
  8
0
 10
210.57783380459111
 20
215.23524855436131
 30
0.0
 11
173.5778338045902
 21
215.23524855436159
 31
0.0
  0
LINE
  5
46B
  8
0
 10
402.07783380459023
 20
247.23524855436139
 30
0.0
 11
380.07783380459227
 21
247.23524855436139
 31
0.0
1001
ACAD
1000
ASC_BOUNDS
1002
{
1070
    19
1005
0
1005
0
1002
}
  0
LINE
  5
46C
  8
0
 10
380.07783380459051
 20
265.23524855436142
 30
0.0
 11
380.07783380459
 21
259.35074163752063
 31
0.0
  0
LINE
  5
46D
  8
0
 10
404.0778338045904
 20
265.23524855436159
 30
0.0
 11
404.07783380459011
 21
249.23524855436139
 31
0.0
  0
ARC
  5
46E
  8
0
 10
402.07783380459023
 20
249.2352485543615
 30
0.0
 40
2.0
 50
270.0
 51
0.0
  0
LINE
  5
46F
  8
0
 10
380.07783380459227
 20
247.23524855436139
 30
0.0
 11
219.0177780770473
 21
245.3005932303071
 31
0.0
  0
LINE
  5
470
  8
2
 10
397.13083380459028
 20
263.23524855436142
 30
0.0
 11
399.13083380459028
 21
265.23524855436142
 31
0.0
  0
LINE
  5
471
  8
2
 10
387.02483380459029
 20
263.23524855436142
 30
0.0
 11
385.02483380459012
 21
265.23524855436142
 31
0.0
  0
LINE
  5
472
  8
2
 10
397.13083380459028
 20
263.23524855436142
 30
0.0
 11
397.13083380459028
 21
247.23524855436139
 31
0.0
  0
LINE
  5
473
  8
2
 10
387.02483380459029
 20
263.23524855436142
 30
0.0
 11
387.02483380459029
 21
247.23524855436139
 31
0.0
  0
LINE
  5
474
  8
2
 10
398.07783380459023
 20
264.18224855436142
 30
0.0
 11
398.07783380459023
 21
247.23524855436139
 31
0.0
  0
LINE
  5
475
  8
2
 10
386.07783380459023
 20
264.18224855436142
 30
0.0
 11
386.07783380459023
 21
247.23524855436139
 31
0.0
  0
ARC
  5
476
  8
0
 10
176.5778338045902
 20
251.23524855436159
 30
0.0
 40
8.5
 50
157.97568716295811
 51
212.20422750397199
  0
ARC
  5
477
  8
0
 10
172.86973456104209
 20
252.73524855436159
 30
0.0
 40
4.5
 50
89.999999999999986
 51
157.97568716295811
  0
LINE
  5
482
  8
2
 10
176.5214846184883
 20
257.23524855436142
 30
0.0
 11
176.5214846184883
 21
215.23524855436159
 31
0.0
  0
LINE
  5
483
  8
1
 10
192.0778338045904
 20
267.23524855436142
 30
0.0
 11
192.0778338045902
 21
203.23524855436131
 31
0.0
  0
LINE
  5
484
  8
2
 10
192.0778338045902
 20
257.23524855436142
 30
0.0
 11
192.0778338045902
 21
215.23524855436159
 31
0.0
  0
LINE
  5
485
  8
2
 10
207.6341829906923
 20
257.23524855436142
 30
0.0
 11
207.6341829906923
 21
215.23524855436131
 31
0.0
  0
ARC
  5
486
  8
2
 10
184.2996592115382
 20
210.87433585087959
 30
0.0
 40
8.9172618895810931
 50
29.27761319040485
 51
150.72238680959529
  0
ARC
  5
487
  8
2
 10
199.85600839764129
 20
210.87433585087959
 30
0.0
 40
8.9172618895810931
 50
29.277613190404651
 51
150.72238680959509
  0
LINE
  5
499
  8
0
 10
172.0778338045902
 20
239.23524855436139
 30
0.0
 11
172.0778338045902
 21
216.7352485543615
 31
0.0
  0
ARC
  5
49A
  8
0
 10
173.5778338045902
 20
216.73524855436159
 30
0.0
 40
1.5
 50
180.0
 51
270.0
  0
LINE
  5
49B
  8
0
 10
212.07783380459111
 20
239.23524855436139
 30
0.0
 11
212.07783380459111
 21
216.73524855436131
 31
0.0
  0
ARC
  5
49C
  8
0
 10
210.57783380459111
 20
216.73524855436131
 30
0.0
 40
1.5
 50
270.0
 51
0.0
  0
CIRCLE
  5
4AF
  8
0
 10
192.0778338045902
 20
99.23524855436159
 30
0.0
 40
20.0
  0
LINE
  5
4B3
  8
0
 10
202.34623931063021
 20
104.52319223442581
 30
0.0
 11
206.80447945248599
 21
100.0649520925699
 31
0.0
  0
LINE
  5
4B4
  8
0
 10
181.8094282985507
 20
104.5231922344262
 30
0.0
 11
177.3511881566946
 21
100.0649520925699
 31
0.0
  0
ARC
  5
4B5
  8
0
 10
192.0778338045902
 20
99.23524855436159
 30
0.0
 40
11.550000000000001
 50
207.2472098380542
 51
242.7527901619452
  0
ARC
  5
4B6
  8
0
 10
192.0778338045902
 20
99.23524855436159
 30
0.0
 40
11.550000000000001
 50
117.2472098380554
 51
152.75279016194509
  0
ARC
  5
4B7
  8
0
 10
192.0778338045902
 20
99.23524855436159
 30
0.0
 40
11.550000000000001
 50
27.24720983805398
 51
62.752790161945242
  0
ARC
  5
4B8
  8
0
 10
192.0778338045902
 20
99.23524855436159
 30
0.0
 40
11.550000000000001
 50
297.24720983805548
 51
332.75279016194531
  0
LINE
  5
4B9
  8
0
 10
192.90753734279861
 20
113.9618942022571
 30
0.0
 11
197.3657774846545
 21
109.5036540604014
 31
0.0
  0
LINE
  5
4BA
  8
0
 10
177.3511881566946
 20
98.405545016153155
 30
0.0
 11
181.8094282985503
 21
93.947304874297515
 31
0.0
  0
LINE
  5
4BB
  8
0
 10
206.80447945248599
 20
98.405545016153155
 30
0.0
 11
202.3462393106297
 21
93.94730487429706
 31
0.0
  0
LINE
  5
4BC
  8
0
 10
191.24813026638179
 20
113.9618942022571
 30
0.0
 11
186.7898901245257
 21
109.503654060401
 31
0.0
  0
LINE
  5
4C1
  8
0
 10
197.3657774846547
 20
88.966843048322062
 30
0.0
 11
192.90753734279861
 21
84.508602906465967
 31
0.0
  0
LINE
  5
4C2
  8
0
 10
186.78989012452601
 20
88.966843048321834
 30
0.0
 11
191.24813026638179
 21
84.508602906465967
 31
0.0
  0
ARC
  5
4CA
  8
0
 10
192.0778338045902
 20
99.23524855436159
 30
0.0
 40
14.75
 50
356.775348009727
 51
3.2246519902730002
  0
ARC
  5
4CB
  8
0
 10
192.0778338045902
 20
99.23524855436159
 30
0.0
 40
14.75
 50
86.775348009723757
 51
93.224651990276229
  0
ARC
  5
4CC
  8
0
 10
192.0778338045902
 20
99.23524855436159
 30
0.0
 40
14.75
 50
176.77534800972691
 51
183.224651990273
  0
ARC
  5
4CD
  8
0
 10
192.0778338045902
 20
99.23524855436159
 30
0.0
 40
14.75
 50
266.775348009727
 51
273.224651990273
  0
LINE
  5
4D8
  8
0
 10
172.0778338045902
 20
239.23524855436139
 30
0.0
 11
170.0778338045902
 21
240.38994909274049
 31
0.0
  0
LINE
  5
4D9
  8
0
 10
212.07783380459111
 20
239.23524855436139
 30
0.0
 11
214.0786341285577
 21
240.39041115999811
 31
0.0
  0
LINE
  5
4DD
  8
2
 10
397.13083380459028
 20
263.23524855436142
 30
0.0
 11
387.02483380459012
 21
263.23524855436142
 31
0.0
  0
LINE
  5
4DE
  8
0
 10
404.0778338045904
 20
265.23524855436142
 30
0.0
 11
380.07783380459051
 21
265.23524855436142
 31
0.0
1001
ACAD
1000
ASC_BOUNDS
1002
{
1070
    19
1005
0
1005
0
1002
}
  0
LINE
  5
502
  8
0
 10
212.07783380459111
 20
239.23524855436139
 30
0.0
 11
172.0778338045902
 21
239.23524855436131
 31
0.0
  0
LINE
  5
503
  8
0
 10
170.0778338045902
 20
240.38994909274049
 30
0.0
 11
214.0786341285577
 21
240.39041115999831
 31
0.0
  0
LINE
  5
504
  8
0
 10
219.0177780770473
 20
245.30059323030719
 30
0.0
 11
170.0778338045902
 21
245.3005932303073
 31
0.0
  0
LINE
  5
505
  8
0
 10
298.13763596284429
 20
99.235248554361817
 30
0.0
 11
292.137635962883
 21
99.235248554361817
 31
0.0
  0
TEXT
  5
506
  8
0
 10
300.49968301298708
 20
93.145559534354206
 30
0.0
 40
12.0
  1
9
 41
0.75
 72
     1
 11
303.2853972987013
 21
93.145559534354206
 31
0.0
  0
TEXT
  5
507
  8
0
 10
273.98297807961421
 20
92.846169405110743
 30
0.0
 40
12.0
  1
SC
 41
0.75
 72
     1
 11
281.48297807961421
 21
92.846169405110743
 31
0.0
  0
ARC
  5
50A
  8
0
 10
383.90039732718787
 20
259.52395406220029
 30
0.0
 40
2.2887055078389422
 50
270.0
 51
355.65962538262238
  0
ARC
  5
50E
  8
0
 10
192.0778338045902
 20
369.23524855436079
 30
0.0
 40
14.75
 50
266.775348009727
 51
273.224651990273
  0
ARC
  5
50F
  8
0
 10
192.0778338045902
 20
369.23524855436079
 30
0.0
 40
14.75
 50
176.77534800972691
 51
183.224651990273
  0
ARC
  5
510
  8
0
 10
192.0778338045902
 20
369.23524855436079
 30
0.0
 40
14.75
 50
86.775348009723757
 51
93.224651990276229
  0
ARC
  5
511
  8
0
 10
192.0778338045902
 20
369.23524855436079
 30
0.0
 40
14.75
 50
356.775348009727
 51
3.2246519902730002
  0
LINE
  5
512
  8
0
 10
186.78989012452601
 20
358.96684304832098
 30
0.0
 11
191.24813026638179
 21
354.50860290646523
 31
0.0
  0
LINE
  5
513
  8
0
 10
197.3657774846547
 20
358.96684304832132
 30
0.0
 11
192.90753734279861
 21
354.50860290646523
 31
0.0
  0
LINE
  5
514
  8
0
 10
191.24813026638179
 20
383.9618942022563
 30
0.0
 11
186.7898901245257
 21
379.50365406040021
 31
0.0
  0
LINE
  5
515
  8
0
 10
206.80447945248599
 20
368.4055450161523
 30
0.0
 11
202.3462393106297
 21
363.94730487429632
 31
0.0
  0
LINE
  5
516
  8
0
 10
177.3511881566946
 20
368.4055450161523
 30
0.0
 11
181.8094282985503
 21
363.94730487429672
 31
0.0
  0
LINE
  5
517
  8
0
 10
192.90753734279861
 20
383.9618942022563
 30
0.0
 11
197.3657774846545
 21
379.50365406040061
 31
0.0
  0
ARC
  5
518
  8
0
 10
192.0778338045902
 20
369.23524855436079
 30
0.0
 40
11.550000000000001
 50
297.24720983805548
 51
332.75279016194531
  0
ARC
  5
519
  8
0
 10
192.0778338045902
 20
369.23524855436079
 30
0.0
 40
11.550000000000001
 50
27.24720983805398
 51
62.752790161945242
  0
ARC
  5
51A
  8
0
 10
192.0778338045902
 20
369.23524855436079
 30
0.0
 40
11.550000000000001
 50
117.2472098380554
 51
152.75279016194509
  0
ARC
  5
51B
  8
0
 10
192.0778338045902
 20
369.23524855436079
 30
0.0
 40
11.550000000000001
 50
207.2472098380542
 51
242.7527901619452
  0
LINE
  5
51C
  8
0
 10
181.8094282985507
 20
374.52319223442538
 30
0.0
 11
177.3511881566946
 21
370.06495209256911
 31
0.0
  0
LINE
  5
51D
  8
0
 10
202.34623931063021
 20
374.52319223442498
 30
0.0
 11
206.80447945248599
 21
370.06495209256911
 31
0.0
  0
CIRCLE
  5
51E
  8
2
 10
192.0778338045902
 20
369.23524855436079
 30
0.0
 40
20.0
  0
LINE
  5
51F
  8
1
 10
414.07783380459023
 20
369.23524855436079
 30
0.0
 11
158.07783380459071
 21
369.23524855436079
 31
0.0
  0
LINE
  5
520
  8
1
 10
192.0778338045902
 20
403.2352485543604
 30
0.0
 11
192.0778338045902
 21
335.23524855436091
 31
0.0
  0
LINE
  5
521
  8
1
 10
392.07783380459023
 20
391.23524855436102
 30
0.0
 11
392.07783380459023
 21
347.23524855436119
 31
0.0
  0
LINE
  5
523
  8
0
 10
381.93551539857731
 20
378.6616182859326
 30
0.0
 11
214.4737257942848
 21
385.29881857298841
 31
0.0
  0
ARC
  5
524
  8
0
 10
214.9885651125623
 20
398.28861997548682
 30
0.0
 40
13.0
 50
231.7416088919278
 51
267.73032028320779
  0
ARC
  5
525
  8
0
 10
382.25233959444063
 20
386.65534222593158
 30
0.0
 40
8.0
 50
267.73032028320779
 51
299.4243990797425
  0
ARC
  5
526
  8
0
 10
382.25233959444063
 20
351.81515488279013
 30
0.0
 40
8.0
 50
60.575600920257713
 51
92.269679716792169
  0
ARC
  5
527
  8
0
 10
214.9885651125623
 20
340.18187713323482
 30
0.0
 40
13.0
 50
92.269679716792169
 51
128.25839110807209
  0
LINE
  5
528
  8
0
 10
381.93551539857731
 20
359.8088788227891
 30
0.0
 11
214.4737257942848
 21
353.17167853573341
 31
0.0
  0
ARC
  5
529
  8
0
 10
192.0778338045902
 20
369.23524855436079
 30
0.0
 40
24.0
 50
51.741622180316689
 51
308.25837781968301
  0
CIRCLE
  5
52B
  8
2
 10
192.0778338045902
 20
369.23524855436079
 30
0.0
 40
22.0
  0
CIRCLE
  5
52C
  8
2
 10
192.0778338045902
 20
369.23524855436079
 30
0.0
 40
15.556349186104059
  0
CIRCLE
  5
52D
  8
3
 10
392.07783380459023
 20
369.23524855436079
 30
0.0
 40
6.0
  0
CIRCLE
  5
52E
  8
0
 10
392.07783380459023
 20
369.23524855436079
 30
0.0
 40
5.052999999999999
  0
LINE
  5
530
  8
0
 10
94.077833804590682
 20
245.3005932303069
 30
0.0
 11
50.077833804590227
 21
245.3005932303071
 31
0.0
  0
LINE
  5
531
  8
0
 10
50.077833804590227
 20
240.3899490927403
 30
0.0
 11
94.078634128557724
 21
240.39041115999811
 31
0.0
  0
LINE
  5
532
  8
0
 10
92.077833804591137
 20
239.23524855436119
 30
0.0
 11
52.077833804590227
 21
239.23524855436111
 31
0.0
  0
LINE
  5
533
  8
0
 10
84.077833804590682
 20
265.23524855436199
 30
0.0
 11
60.077833804590682
 21
265.23524855436199
 31
0.0
1001
ACAD
1000
ASC_BOUNDS
1002
{
1070
    19
1005
0
1005
0
1002
}
  0
LINE
  5
536
  8
0
 10
52.077833804590227
 20
239.23524855436119
 30
0.0
 11
50.077833804590227
 21
240.3899490927403
 31
0.0
  0
ARC
  5
537
  8
0
 10
90.577833804591137
 20
216.73524855436111
 30
0.0
 40
1.5
 50
270.0
 51
0.0
  0
LINE
  5
538
  8
0
 10
92.077833804591137
 20
239.23524855436119
 30
0.0
 11
92.077833804591137
 21
216.73524855436111
 31
0.0
  0
ARC
  5
539
  8
0
 10
53.57783380459022
 20
216.73524855436131
 30
0.0
 40
1.5
 50
180.0
 51
270.0
  0
LINE
  5
53A
  8
0
 10
52.077833804590227
 20
239.23524855436119
 30
0.0
 11
52.077833804590227
 21
216.73524855436131
 31
0.0
  0
ARC
  5
53B
  8
2
 10
79.85600839764129
 20
210.87433585087939
 30
0.0
 40
8.9172618895810931
 50
29.277613190404651
 51
150.72238680959509
  0
ARC
  5
53C
  8
2
 10
64.299659211538255
 20
210.87433585087939
 30
0.0
 40
8.9172618895810931
 50
29.27761319040485
 51
150.72238680959529
  0
LINE
  5
53D
  8
2
 10
87.634182990692338
 20
257.23524855436119
 30
0.0
 11
87.634182990692338
 21
215.23524855436111
 31
0.0
  0
LINE
  5
53E
  8
2
 10
72.077833804590227
 20
257.23524855436119
 30
0.0
 11
72.077833804590227
 21
215.23524855436131
 31
0.0
  0
LINE
  5
53F
  8
1
 10
72.077833804590227
 20
275.23524855436187
 30
0.0
 11
72.077833804590227
 21
205.23524855436119
 31
0.0
  0
LINE
  5
540
  8
2
 10
56.52148461848833
 20
257.23524855436119
 30
0.0
 11
56.52148461848833
 21
215.23524855436131
 31
0.0
  0
ARC
  5
541
  8
0
 10
52.869734561042151
 20
252.73524855436139
 30
0.0
 40
4.5
 50
89.999999999999986
 51
157.97568716295811
  0
ARC
  5
542
  8
0
 10
56.57783380459022
 20
251.23524855436139
 30
0.0
 40
8.5
 50
157.97568716295811
 51
212.20422750397199
  0
LINE
  5
54B
  8
0
 10
84.077833804590682
 20
265.23524855436199
 30
0.0
 11
84.077833804590682
 21
257.23524855436131
 31
0.0
  0
LINE
  5
54C
  8
0
 10
60.077833804590682
 20
265.23524855436199
 30
0.0
 11
60.07783380459
 21
257.23524855436131
 31
0.0
  0
LINE
  5
54E
  8
0
 10
90.577833804591137
 20
215.23524855436111
 30
0.0
 11
53.57783380459022
 21
215.23524855436131
 31
0.0
  0
LINE
  5
54F
  8
0
 10
50.077833804590227
 20
244.307045324086
 30
0.0
 11
50.077833804590227
 21
240.3899490927403
 31
0.0
  0
LINE
  5
550
  8
0
 10
91.285933048138745
 20
257.23524855436119
 30
0.0
 11
52.869734561042151
 21
257.23524855436131
 31
0.0
  0
ARC
  5
554
  8
0
 10
45.577833804590227
 20
244.307045324086
 30
0.0
 40
4.5
 50
0.0
 51
32.204227503972071
  0
ARC
  5
556
  8
0
 10
98.577833804590682
 20
244.307045324086
 30
0.0
 40
4.5
 50
147.79577249602789
 51
180.0
  0
LINE
  5
557
  8
0
 10
94.077833804590682
 20
244.307045324086
 30
0.0
 11
94.077833804590682
 21
240.3899490927403
 31
0.0
  0
ARC
  5
558
  8
0
 10
87.577833804590682
 20
251.23524855436139
 30
0.0
 40
8.5
 50
327.79577249602801
 51
22.024312837041911
  0
ARC
  5
559
  8
0
 10
91.285933048138745
 20
252.73524855436139
 30
0.0
 40
4.5
 50
22.024312837041911
 51
90.000000000000028
  0
LINE
  5
55A
  8
0
 10
92.077833804590668
 20
239.23524855436119
 30
0.0
 11
94.077833804590682
 21
240.3899490927403
 31
0.0
  0
POLYLINE
  5
55D
  8
0
 66
     1
 10
0.0
 20
0.0
 30
0.0
  0
VERTEX
  5
55E
  8
0
 10
61.62577825588982
 20
257.23524855436131
 30
0.0
 42
0.2299705310757594
  0
VERTEX
  5
55F
  8
0
 10
61.92520650827214
 20
257.38065809658099
 30
0.0
 42
0.0881244171302637
  0
VERTEX
  5
560
  8
0
 10
62.317115659312101
 20
258.11392821080182
 30
0.0
 42
0.0452469462329071
  0
VERTEX
  5
561
  8
0
 10
62.549728046090422
 20
259.13206700826152
 30
0.0
 42
0.0427748781765291
  0
VERTEX
  5
562
  8
0
 10
62.603476987985012
 20
260.23524855436148
 30
0.0
 42
0.0335578121801047
  0
SEQEND
  5
563
  8
0
  0
POLYLINE
  5
564
  8
0
 66
     1
 10
0.0
 20
0.0
 30
0.0
  0
VERTEX
  5
565
  8
0
 10
82.52988935329131
 20
257.23524855436131
 30
0.0
 42
-0.2299705310757594
  0
VERTEX
  5
566
  8
0
 10
82.230461100908755
 20
257.38065809658099
 30
0.0
 42
-0.0881244171302637
  0
VERTEX
  5
567
  8
0
 10
81.838551949868815
 20
258.11392821080182
 30
0.0
 42
-0.0452469462329071
  0
VERTEX
  5
568
  8
0
 10
81.605939563090715
 20
259.13206700826152
 30
0.0
 42
-0.0427748781765291
  0
VERTEX
  5
569
  8
0
 10
81.552190621195905
 20
260.23524855436148
 30
0.0
 42
-0.0335578121801047
  0
SEQEND
  5
56A
  8
0
  0
LINE
  5
579
  8
0
 10
532.07783380459057
 20
239.23524855436139
 30
0.0
 11
534.07783380459068
 21
240.38994909274049
 31
0.0
  0
ARC
  5
57A
  8
0
 10
531.28593304813865
 20
252.73524855436159
 30
0.0
 40
4.5
 50
22.024312837041911
 51
90.000000000000028
  0
ARC
  5
57B
  8
0
 10
527.57783380459057
 20
251.23524855436159
 30
0.0
 40
8.5
 50
327.79577249602801
 51
22.024312837041911
  0
LINE
  5
57C
  8
0
 10
534.07783380459068
 20
244.3070453240862
 30
0.0
 11
534.07783380459068
 21
240.38994909274049
 31
0.0
  0
ARC
  5
57D
  8
0
 10
538.57783380459057
 20
244.3070453240862
 30
0.0
 40
4.5
 50
147.79577249602789
 51
180.0
  0
ARC
  5
57E
  8
0
 10
485.57783380459023
 20
244.3070453240862
 30
0.0
 40
4.5
 50
0.0
 51
32.204227503972071
  0
LINE
  5
57F
  8
1
 10
512.07783380459011
 20
275.23524855436222
 30
0.0
 11
512.07783380459011
 21
205.2352485543615
 31
0.0
  0
LINE
  5
580
  8
0
 10
531.28593304813865
 20
257.23524855436148
 30
0.0
 11
524.07783380459057
 21
257.23524855436148
 31
0.0
  0
LINE
  5
581
  8
0
 10
490.07783380459023
 20
244.3070453240862
 30
0.0
 11
490.07783380459023
 21
240.38994909274049
 31
0.0
  0
LINE
  5
582
  8
0
 10
530.57783380459114
 20
215.23524855436131
 30
0.0
 11
493.57783380459023
 21
215.23524855436159
 31
0.0
  0
LINE
  5
583
  8
0
 10
522.07783380459045
 20
247.23524855436219
 30
0.0
 11
502.07783380458989
 21
247.23524855436219
 31
0.0
1001
ACAD
1000
ASC_BOUNDS
1002
{
1070
    19
1005
0
1005
0
1002
}
  0
LINE
  5
584
  8
0
 10
500.07783380459068
 20
265.23524855436222
 30
0.0
 11
500.07783380458932
 21
249.23524855436241
 31
0.0
  0
LINE
  5
585
  8
0
 10
524.07783380459057
 20
265.23524855436227
 30
0.0
 11
524.07783380459045
 21
249.23524855436219
 31
0.0
  0
ARC
  5
586
  8
0
 10
522.07783380459045
 20
249.2352485543623
 30
0.0
 40
2.0
 50
270.0
 51
0.0
  0
ARC
  5
587
  8
0
 10
496.57783380459023
 20
251.23524855436159
 30
0.0
 40
8.5
 50
157.97568716295811
 51
212.20422750397199
  0
ARC
  5
588
  8
0
 10
492.86973456104209
 20
252.73524855436159
 30
0.0
 40
4.5
 50
89.999999999999986
 51
157.97568716295811
  0
LINE
  5
589
  8
2
 10
496.52148461848827
 20
257.23524855436142
 30
0.0
 11
496.52148461848827
 21
215.23524855436159
 31
0.0
  0
LINE
  5
58B
  8
2
 10
512.07783380459011
 20
257.23524855436142
 30
0.0
 11
512.07783380459011
 21
215.23524855436159
 31
0.0
  0
LINE
  5
58C
  8
2
 10
527.63418299069235
 20
257.23524855436142
 30
0.0
 11
527.63418299069235
 21
215.23524855436131
 31
0.0
  0
ARC
  5
58D
  8
2
 10
504.2996592115382
 20
210.87433585087959
 30
0.0
 40
8.9172618895810931
 50
29.27761319040485
 51
150.72238680959529
  0
ARC
  5
58E
  8
2
 10
519.85600839764129
 20
210.87433585087959
 30
0.0
 40
8.9172618895810931
 50
29.277613190404651
 51
150.72238680959509
  0
LINE
  5
58F
  8
0
 10
492.07783380459023
 20
239.23524855436139
 30
0.0
 11
492.07783380459023
 21
216.7352485543615
 31
0.0
  0
ARC
  5
590
  8
0
 10
493.57783380459023
 20
216.73524855436159
 30
0.0
 40
1.5
 50
180.0
 51
270.0
  0
LINE
  5
591
  8
0
 10
532.07783380459114
 20
239.23524855436139
 30
0.0
 11
532.07783380459114
 21
216.73524855436131
 31
0.0
  0
ARC
  5
592
  8
0
 10
530.57783380459114
 20
216.73524855436131
 30
0.0
 40
1.5
 50
270.0
 51
0.0
  0
LINE
  5
593
  8
0
 10
492.07783380459023
 20
239.23524855436139
 30
0.0
 11
490.07783380459023
 21
240.38994909274049
 31
0.0
  0
LINE
  5
594
  8
0
 10
524.07783380459057
 20
265.23524855436222
 30
0.0
 11
500.07783380459068
 21
265.23524855436222
 31
0.0
1001
ACAD
1000
ASC_BOUNDS
1002
{
1070
    19
1005
0
1005
0
1002
}
  0
LINE
  5
595
  8
0
 10
532.07783380459114
 20
239.23524855436139
 30
0.0
 11
492.07783380459023
 21
239.23524855436131
 31
0.0
  0
LINE
  5
596
  8
0
 10
490.07783380459023
 20
240.38994909274049
 30
0.0
 11
534.07863412855772
 21
240.39041115999831
 31
0.0
  0
LINE
  5
597
  8
0
 10
534.07783380459068
 20
245.30059323030719
 30
0.0
 11
490.07783380459023
 21
245.3005932303073
 31
0.0
  0
ARC
  5
59A
  8
0
 10
502.07783380458989
 20
249.2352485543623
 30
0.0
 40
2.0
 50
180.0
 51
270.0
  0
LINE
  5
59B
  8
0
 10
500.07783380459
 20
257.23524855436148
 30
0.0
 11
492.86973456104209
 21
257.23524855436148
 31
0.0
  0
LINE
  5
59C
  8
2
 10
524.07783380459057
 20
257.23524855436148
 30
0.0
 11
500.07783380458972
 21
257.23524855436148
 31
0.0
  0
CIRCLE
  5
5A5
  8
0
 10
392.07783380459023
 20
369.23524855436108
 30
0.0
 40
12.0
  0
TEXT
  5
64C
  8
0
 62
     3
 10
0.0
 20
0.0
 30
0.0
 40
10.0
  1
SC9S
  7
STANDARD1
  0
ENDSEC
  0
EOF
