  0
SECTION
  2
HEADER
  9
$ACADVER
  1
AC1009
  9
$INSBASE
 10
0.0
 20
0.0
 30
0.0
  9
$EXTMIN
 10
0.0
 20
-2.960436562073669
 30
0.0
  9
$EXTMAX
 10
205.99739557163201
 20
157.5532688209002
 30
0.0
  9
$LIMMIN
 10
0.0
 20
0.0
  9
$LIMMAX
 10
187.5
 20
135.0
  9
$ORTHOMODE
 70
     0
  9
$REGENMODE
 70
     1
  9
$FILLMODE
 70
     1
  9
$QTEXTMODE
 70
     0
  9
$MIRRTEXT
 70
     0
  9
$DRAGMODE
 70
     2
  9
$LTSCALE
 40
5.0
  9
$OSMODE
 70
    55
  9
$ATTMODE
 70
     1
  9
$TEXTSIZE
 40
0.2
  9
$TRACEWID
 40
0.05
  9
$TEXTSTYLE
  7
STANDARD
  9
$CLAYER
  8
0
  9
$CELTYPE
  6
BYLAYER
  9
$CECOLOR
 62
   256
  9
$DIMSCALE
 40
0.5
  9
$DIMASZ
 40
3.0
  9
$DIMEXO
 40
2.0
  9
$DIMDLI
 40
0.38
  9
$DIMRND
 40
0.0
  9
$DIMDLE
 40
0.0
  9
$DIMEXE
 40
2.0
  9
$DIMTP
 40
0.0
  9
$DIMTM
 40
0.0
  9
$DIMTXT
 40
3.2000000000000002
  9
$DIMCEN
 40
0.0
  9
$DIMTSZ
 40
0.0
  9
$DIMTOL
 70
     0
  9
$DIMLIM
 70
     0
  9
$DIMTIH
 70
     0
  9
$DIMTOH
 70
     0
  9
$DIMSE1
 70
     0
  9
$DIMSE2
 70
     0
  9
$DIMTAD
 70
     1
  9
$DIMZIN
 70
     0
  9
$DIMBLK
  1

  9
$DIMASO
 70
     0
  9
$DIMSHO
 70
     0
  9
$DIMPOST
  1

  9
$DIMAPOST
  1

  9
$DIMALT
 70
     0
  9
$DIMALTD
 70
     2
  9
$DIMALTF
 40
25.399999999999999
  9
$DIMLFAC
 40
1.0
  9
$DIMTOFL
 70
     1
  9
$DIMTVP
 40
1.6000000000000001
  9
$DIMTIX
 70
     1
  9
$DIMSOXD
 70
     0
  9
$DIMSAH
 70
     0
  9
$DIMBLK1
  1

  9
$DIMBLK2
  1

  9
$DIMSTYLE
  2
STANDARD
  9
$DIMCLRD
 70
     0
  9
$DIMCLRE
 70
     0
  9
$DIMCLRT
 70
     0
  9
$DIMTFAC
 40
1.0
  9
$DIMGAP
 40
0.09
  9
$LUNITS
 70
     2
  9
$LUPREC
 70
     4
  9
$SKETCHINC
 40
0.1
  9
$FILLETRAD
 40
0.0
  9
$AUNITS
 70
     0
  9
$AUPREC
 70
     4
  9
$MENU
  1
E:\r13\win\SUPPORT\ACAD
  9
$ELEVATION
 40
0.0
  9
$PELEVATION
 40
0.0
  9
$THICKNESS
 40
0.0
  9
$LIMCHECK
 70
     0
  9
$BLIPMODE
 70
     0
  9
$CHAMFERA
 40
0.0
  9
$CHAMFERB
 40
0.0
  9
$SKPOLY
 70
     0
  9
$TDCREATE
 40
2449840.6289351848
  9
$TDUPDATE
 40
2456598.4788822229
  9
$TDINDWG
 40
0.0016123495
  9
$TDUSRTIMER
 40
0.0016123495
  9
$USRTIMER
 70
     1
  9
$ANGBASE
 50
0.0
  9
$ANGDIR
 70
     0
  9
$PDMODE
 70
     0
  9
$PDSIZE
 40
0.0
  9
$PLINEWID
 40
0.0
  9
$COORDS
 70
     1
  9
$SPLFRAME
 70
     0
  9
$SPLINETYPE
 70
     6
  9
$SPLINESEGS
 70
     8
  9
$ATTDIA
 70
     0
  9
$ATTREQ
 70
     1
  9
$HANDLING
 70
     1
  9
$HANDSEED
  5
22A
  9
$SURFTAB1
 70
     6
  9
$SURFTAB2
 70
     6
  9
$SURFTYPE
 70
     6
  9
$SURFU
 70
     6
  9
$SURFV
 70
     6
  9
$UCSNAME
  2

  9
$UCSORG
 10
0.0
 20
0.0
 30
0.0
  9
$UCSXDIR
 10
1.0
 20
0.0
 30
0.0
  9
$UCSYDIR
 10
0.0
 20
1.0
 30
0.0
  9
$PUCSNAME
  2

  9
$PUCSORG
 10
0.0
 20
0.0
 30
0.0
  9
$PUCSXDIR
 10
1.0
 20
0.0
 30
0.0
  9
$PUCSYDIR
 10
0.0
 20
1.0
 30
0.0
  9
$USERI1
 70
     0
  9
$USERI2
 70
     1
  9
$USERI3
 70
     0
  9
$USERI4
 70
     0
  9
$USERI5
 70
     0
  9
$USERR1
 40
0.0
  9
$USERR2
 40
0.0
  9
$USERR3
 40
0.0
  9
$USERR4
 40
0.0
  9
$USERR5
 40
0.0
  9
$WORLDVIEW
 70
     1
  9
$SHADEDGE
 70
     3
  9
$SHADEDIF
 70
    70
  9
$TILEMODE
 70
     1
  9
$MAXACTVP
 70
    16
  9
$PLIMCHECK
 70
     0
  9
$PEXTMIN
 10
1.0000000000000000E+020
 20
1.0000000000000000E+020
 30
1.0000000000000000E+020
  9
$PEXTMAX
 10
-1.0000000000000000E+020
 20
-1.0000000000000000E+020
 30
-1.0000000000000000E+020
  9
$PLIMMIN
 10
0.0
 20
0.0
  9
$PLIMMAX
 10
12.0
 20
9.0
  9
$UNITMODE
 70
     0
  9
$VISRETAIN
 70
     0
  9
$PLINEGEN
 70
     0
  9
$PSLTSCALE
 70
     0
  0
ENDSEC
  0
SECTION
  2
TABLES
  0
TABLE
  2
VPORT
 70
     1
  0
VPORT
  2
*ACTIVE
 70
     0
 10
0.0
 20
0.0
 11
1.0
 21
1.0
 12
102.99869826544089
 22
113.3288108882509
 13
0.0
 23
0.0
 14
5.0
 24
5.0
 15
5.0
 25
5.0
 16
0.0
 26
0.0
 36
1.0
 17
0.0
 27
0.0
 37
0.0
 40
234.83153357682681
 41
1.7807262569832401
 42
50.0
 43
0.0
 44
0.0
 50
0.0
 51
0.0
 71
     0
 72
   500
 73
     1
 74
     0
 75
     0
 76
     0
 77
     0
 78
     2
  0
ENDTAB
  0
TABLE
  2
LTYPE
 70
     3
  0
LTYPE
  2
CONTINUOUS
 70
     0
  3
Solid Line
 72
    65
 73
     0
 40
0.0
  0
LTYPE
  2
CENTER
 70
     0
  3
____ _ ____ _ ____ _ ____ _ ____ _ ____ _ ____
 72
    65
 73
     4
 40
2.0
 49
1.25
 49
-0.25
 49
0.25
 49
-0.25
  0
LTYPE
  2
PHANTOM2
 70
     0
  3
___ _ _ ___ _ _ ___ _ _ ___ _ _
 72
    65
 73
     6
 40
1.25
 49
0.625
 49
-0.125
 49
0.125
 49
-0.125
 49
0.125
 49
-0.125
  0
ENDTAB
  0
TABLE
  2
LAYER
 70
     3
  0
LAYER
  2
0
 70
     0
 62
     7
  6
CONTINUOUS
  0
LAYER
  2
1
 70
     0
 62
     1
  6
CENTER
  0
LAYER
  2
3
 70
     0
 62
     3
  6
CONTINUOUS
  0
ENDTAB
  0
TABLE
  2
STYLE
 70
     2
  0
STYLE
  2
STANDARD
 70
     0
 40
0.0
 41
1.0
 50
0.0
 71
     0
 42
0.2
  3
TXT
  4
BIGFONT
  0
STYLE
  2
STANDARD1
 70
     0
 40
0.0
 41
1.0
 50
0.0
 71
     0
 42
3.0
  3
txt
  4

  0
ENDTAB
  0
TABLE
  2
VIEW
 70
     1
  0
VIEW
  2
ALL
 70
     0
 40
135.0
 10
110.4957983193277
 20
67.5
 41
0.0
 11
0.0
 21
0.0
 31
1.0
 12
0.0
 22
0.0
 32
0.0
 42
0.0
 43
0.0
 44
0.0
 50
0.0
 71
     0
  0
ENDTAB
  0
TABLE
  2
UCS
 70
     0
  0
ENDTAB
  0
TABLE
  2
APPID
 70
     3
  0
APPID
  2
ACAD
 70
     0
  0
APPID
  2
ACAD_MLEADERVER
 70
     0
  0
APPID
  2
ACAD_NAV_VCDISPLAY
 70
     0
  0
ENDTAB
  0
TABLE
  2
DIMSTYLE
 70
     1
  0
DIMSTYLE
  2
STANDARD
 70
     0
  3

  4

  5

  6

  7

 40
1.0
 41
0.18
 42
0.0625
 43
0.38
 44
0.18
 45
0.0
 46
0.0
 47
0.0
 48
0.0
140
0.18
141
0.09
142
0.0
143
25.399999999999999
144
1.0
145
0.0
146
1.0
147
0.09
 71
     0
 72
     0
 73
     1
 74
     1
 75
     0
 76
     0
 77
     0
 78
     0
170
     0
171
     2
172
     0
173
     0
174
     0
175
     0
176
     0
177
     0
178
     0
  0
ENDTAB
  0
ENDSEC
  0
SECTION
  2
BLOCKS
  0
BLOCK
  8
0
  2
$MODEL_SPACE
 70
     0
 10
0.0
 20
0.0
 30
0.0
  3
$MODEL_SPACE
  1

  0
ENDBLK
  5
CC
  8
0
  0
BLOCK
 67
     1
  8
0
  2
$PAPER_SPACE
 70
     0
 10
0.0
 20
0.0
 30
0.0
  3
$PAPER_SPACE
  1

  0
ENDBLK
  5
CA
 67
     1
  8
0
  0
ENDSEC
  0
SECTION
  2
ENTITIES
  0
LINE
  5
3C
  8
1
 10
193.4973955716321
 20
88.002896646700947
 30
0.0
 11
193.4973955716321
 21
113.00289664670071
 31
0.0
  0
CIRCLE
  5
3D
  8
0
 10
193.4973955716321
 20
100.5028966467008
 30
0.0
 40
5.0000000000000284
  0
CIRCLE
  5
3E
  8
3
 10
193.4973955716321
 20
100.5028966467008
 30
0.0
 40
9.1879999999999953
  0
CIRCLE
  5
3F
  8
0
 10
193.4973955716321
 20
100.5028966467008
 30
0.0
 40
10.00000000000003
  0
LINE
  5
40
  8
0
 10
191.99739557163201
 20
90.616036680058343
 30
0.0
 11
191.99739557163201
 21
95.733200639616555
 31
0.0
  0
LINE
  5
41
  8
0
 10
191.99739557163201
 20
105.2725926537854
 30
0.0
 11
191.99739557163201
 21
110.38975661334339
 31
0.0
  0
LINE
  5
42
  8
0
 10
194.99739557163201
 20
90.616036680058173
 30
0.0
 11
194.99739557163201
 21
95.733200639615788
 31
0.0
  0
LINE
  5
43
  8
0
 10
194.99739557163201
 20
105.2725926537852
 30
0.0
 11
194.99739557163201
 21
110.38975661334339
 31
0.0
  0
LINE
  5
44
  8
1
 10
180.9973955716321
 20
100.5028966467008
 30
0.0
 11
205.99739557163201
 21
100.5028966467008
 31
0.0
  0
CIRCLE
  5
45
  8
3
 10
49.507190783459649
 20
100.5028966467008
 30
0.0
 40
9.1879999999999953
  0
CIRCLE
  5
46
  8
0
 10
49.507190783459649
 20
100.5028966467008
 30
0.0
 40
10.00000000000003
  0
LINE
  5
47
  8
1
 10
62.007190783459578
 20
100.5028966467008
 30
0.0
 11
37.007190783459791
 21
100.5028966467008
 31
0.0
  0
LINE
  5
48
  8
1
 10
49.507190783459649
 20
88.002896646700947
 30
0.0
 11
49.507190783459663
 21
113.00289664670071
 31
0.0
  0
CIRCLE
  5
4F
  8
0
 10
49.507190783459663
 20
100.5028966467008
 30
0.0
 40
8.0
  0
CIRCLE
  5
50
  8
3
 10
49.507190783459663
 20
100.5028966467008
 30
0.0
 40
7.1879999999999988
  0
LINE
  5
51
  8
1
 10
92.208885019186269
 20
100.5028966467008
 30
0.0
 11
156.2088850191862
 21
100.5028966467008
 31
0.0
  0
LINE
  5
52
  8
0
 10
97.208885019186255
 20
91.702896646700822
 30
0.0
 11
97.208885019186255
 21
109.3028966467008
 31
0.0
  0
LINE
  5
53
  8
0
 10
98.408885019186272
 20
110.5028966467008
 30
0.0
 11
143.00888501918621
 21
110.5028966467008
 31
0.0
  0
LINE
  5
54
  8
0
 10
144.20888501918631
 20
109.3028966467008
 30
0.0
 11
144.20888501918631
 21
91.702896646700836
 31
0.0
  0
LINE
  5
55
  8
0
 10
143.00888501918621
 20
90.502896646700805
 30
0.0
 11
98.408885019186272
 21
90.502896646700805
 31
0.0
  0
LINE
  5
56
  8
0
 10
97.208885019186255
 20
91.702896646700822
 30
0.0
 11
98.408885019186272
 21
90.502896646700805
 31
0.0
  0
LINE
  5
57
  8
0
 10
97.208885019186255
 20
109.3028966467008
 30
0.0
 11
98.408885019186272
 21
110.5028966467008
 31
0.0
  0
LINE
  5
58
  8
0
 10
143.00888501918621
 20
110.5028966467008
 30
0.0
 11
144.2088850191862
 21
109.3028966467008
 31
0.0
  0
LINE
  5
59
  8
0
 10
144.2088850191862
 20
91.702896646700822
 30
0.0
 11
143.00888501918621
 21
90.502896646700805
 31
0.0
  0
LINE
  5
5A
  8
3
 10
97.59688501918626
 20
109.69089664670081
 30
0.0
 11
143.82088501918631
 21
109.69089664670081
 31
0.0
  0
LINE
  5
5B
  8
3
 10
97.59688501918626
 20
91.314896646700817
 30
0.0
 11
143.82088501918631
 21
91.314896646700817
 31
0.0
  0
LINE
  5
5C
  8
0
 10
151.2088850191862
 20
96.002896646700947
 30
0.0
 11
151.2088850191862
 21
105.0028966467009
 31
0.0
  0
LINE
  5
5D
  8
0
 10
150.70888501918631
 20
105.5028966467009
 30
0.0
 11
144.20888501918631
 21
105.5028966467009
 31
0.0
  0
LINE
  5
5E
  8
0
 10
151.2088850191862
 20
105.0028966467009
 30
0.0
 11
150.7088850191862
 21
105.5028966467009
 31
0.0
  0
LINE
  5
5F
  8
0
 10
151.2088850191862
 20
96.002896646700933
 30
0.0
 11
150.7088850191862
 21
95.502896646700947
 31
0.0
  0
LINE
  5
60
  8
0
 10
150.7088850191862
 20
95.502896646700947
 30
0.0
 11
144.2088850191862
 21
95.502896646700947
 31
0.0
  0
LINE
  5
61
  8
0
 10
150.7088850191862
 20
142.5532688209004
 30
0.0
 11
144.2088850191862
 21
142.5532688209004
 31
0.0
  0
LINE
  5
62
  8
0
 10
151.2088850191862
 20
143.05326882090031
 30
0.0
 11
150.7088850191862
 21
142.5532688209004
 31
0.0
  0
LINE
  5
63
  8
0
 10
151.2088850191862
 20
152.05326882090031
 30
0.0
 11
150.7088850191862
 21
152.55326882090031
 31
0.0
  0
LINE
  5
64
  8
0
 10
150.70888501918631
 20
152.55326882090031
 30
0.0
 11
144.20888501918631
 21
152.55326882090031
 31
0.0
  0
LINE
  5
65
  8
0
 10
151.2088850191862
 20
143.05326882090031
 30
0.0
 11
151.2088850191862
 21
152.05326882090031
 31
0.0
  0
LINE
  5
66
  8
3
 10
97.59688501918626
 20
138.3652688209003
 30
0.0
 11
143.82088501918631
 21
138.3652688209003
 31
0.0
  0
LINE
  5
67
  8
0
 10
142.2088850191862
 20
149.0532688209002
 30
0.0
 11
142.2088850191862
 21
146.0532688209002
 31
0.0
  0
LINE
  5
68
  8
3
 10
97.59688501918626
 20
156.74126882090019
 30
0.0
 11
143.82088501918631
 21
156.74126882090019
 31
0.0
  0
LINE
  5
69
  8
0
 10
144.2088850191862
 20
138.75326882090019
 30
0.0
 11
143.00888501918621
 21
137.5532688209002
 31
0.0
  0
LINE
  5
6A
  8
0
 10
143.00888501918621
 20
157.5532688209002
 30
0.0
 11
144.2088850191862
 21
156.3532688209003
 31
0.0
  0
LINE
  5
6B
  8
0
 10
97.208885019186255
 20
156.3532688209003
 30
0.0
 11
98.408885019186272
 21
157.5532688209002
 31
0.0
  0
LINE
  5
6C
  8
0
 10
97.208885019186255
 20
138.75326882090019
 30
0.0
 11
98.408885019186272
 21
137.5532688209002
 31
0.0
  0
LINE
  5
6D
  8
0
 10
143.00888501918621
 20
137.5532688209002
 30
0.0
 11
98.408885019186272
 21
137.5532688209002
 31
0.0
  0
LINE
  5
6E
  8
0
 10
144.20888501918631
 20
156.3532688209003
 30
0.0
 11
144.20888501918631
 21
149.05326882090031
 31
0.0
  0
LINE
  5
6F
  8
0
 10
98.408885019186272
 20
157.5532688209002
 30
0.0
 11
143.00888501918621
 21
157.5532688209002
 31
0.0
  0
LINE
  5
70
  8
0
 10
97.208885019186255
 20
138.75326882090019
 30
0.0
 11
97.208885019186255
 21
156.3532688209003
 31
0.0
  0
LINE
  5
71
  8
1
 10
92.208885019186269
 20
147.5532688209002
 30
0.0
 11
156.2088850191862
 21
147.5532688209002
 31
0.0
  0
LINE
  5
72
  8
0
 10
98.408885019186272
 20
110.5028966467008
 30
0.0
 11
98.408885019186272
 21
90.502896646700805
 31
0.0
  0
LINE
  5
73
  8
0
 10
143.00888501918621
 20
110.5028966467008
 30
0.0
 11
143.00888501918621
 21
90.502896646700805
 31
0.0
  0
LINE
  5
74
  8
0
 10
98.408885019186272
 20
157.5532688209002
 30
0.0
 11
98.408885019186229
 21
137.5532688209002
 31
0.0
  0
LINE
  5
75
  8
0
 10
142.2088850191862
 20
149.0532688209002
 30
0.0
 11
144.20888501918631
 21
149.05326882090031
 31
0.0
  0
LINE
  5
76
  8
0
 10
142.2088850191862
 20
146.0532688209002
 30
0.0
 11
144.20888501918631
 21
146.05326882090031
 31
0.0
  0
LINE
  5
77
  8
0
 10
144.20888501918631
 20
146.05326882090031
 30
0.0
 11
144.20888501918631
 21
138.7532688209003
 31
0.0
  0
LINE
  5
78
  8
0
 10
143.00888501918621
 20
157.5532688209002
 30
0.0
 11
143.00888501918621
 21
149.0532688209002
 31
0.0
  0
LINE
  5
79
  8
0
 10
143.00888501918621
 20
146.0532688209002
 30
0.0
 11
143.00888501918621
 21
137.5532688209002
 31
0.0
  0
LINE
  5
7A
  8
0
 10
143.00888501918621
 20
50.980136890658059
 30
0.0
 11
143.00888501918621
 21
42.480136890658059
 31
0.0
  0
LINE
  5
7B
  8
0
 10
143.00888501918621
 20
62.480136890658059
 30
0.0
 11
143.00888501918621
 21
53.980136890658052
 31
0.0
  0
LINE
  5
7C
  8
0
 10
144.20888501918631
 20
50.980136890658123
 30
0.0
 11
144.20888501918631
 21
43.680136890658112
 31
0.0
  0
LINE
  5
7D
  8
0
 10
142.2088850191862
 20
50.980136890658059
 30
0.0
 11
144.20888501918631
 21
50.980136890658081
 31
0.0
  0
LINE
  5
7E
  8
0
 10
142.2088850191862
 20
53.980136890658052
 30
0.0
 11
144.20888501918631
 21
53.980136890658088
 31
0.0
  0
LINE
  5
7F
  8
0
 10
98.408885019186272
 20
62.480136890658059
 30
0.0
 11
98.408885019186229
 21
42.480136890658059
 31
0.0
  0
LINE
  5
80
  8
1
 10
92.208885019186269
 20
52.480136890658059
 30
0.0
 11
156.2088850191862
 21
52.480136890658059
 31
0.0
  0
LINE
  5
81
  8
0
 10
97.208885019186255
 20
43.680136890658041
 30
0.0
 11
97.208885019186255
 21
61.280136890658071
 31
0.0
  0
LINE
  5
82
  8
0
 10
98.408885019186272
 20
62.480136890658059
 30
0.0
 11
143.00888501918621
 21
62.480136890658059
 31
0.0
  0
LINE
  5
83
  8
0
 10
144.20888501918631
 20
61.280136890658071
 30
0.0
 11
144.20888501918631
 21
53.980136890658088
 31
0.0
  0
LINE
  5
84
  8
0
 10
143.00888501918621
 20
42.480136890658059
 30
0.0
 11
98.408885019186272
 21
42.480136890658059
 31
0.0
  0
LINE
  5
85
  8
0
 10
97.208885019186255
 20
43.680136890658041
 30
0.0
 11
98.408885019186272
 21
42.480136890658059
 31
0.0
  0
LINE
  5
86
  8
0
 10
97.208885019186255
 20
61.280136890658071
 30
0.0
 11
98.408885019186272
 21
62.480136890658059
 31
0.0
  0
LINE
  5
87
  8
0
 10
143.00888501918621
 20
62.480136890658059
 30
0.0
 11
144.2088850191862
 21
61.280136890658071
 31
0.0
  0
LINE
  5
88
  8
0
 10
144.2088850191862
 20
43.680136890658041
 30
0.0
 11
143.00888501918621
 21
42.480136890658059
 31
0.0
  0
LINE
  5
89
  8
3
 10
97.59688501918626
 20
61.66813689065804
 30
0.0
 11
143.82088501918631
 21
61.66813689065804
 31
0.0
  0
LINE
  5
8A
  8
0
 10
142.2088850191862
 20
53.980136890658052
 30
0.0
 11
142.2088850191862
 21
50.980136890658059
 31
0.0
  0
LINE
  5
8B
  8
3
 10
97.59688501918626
 20
43.292136890658071
 30
0.0
 11
143.82088501918631
 21
43.292136890658071
 31
0.0
  0
LINE
  5
8C
  8
0
 10
151.2088850191862
 20
47.980136890658173
 30
0.0
 11
151.2088850191862
 21
56.980136890658173
 31
0.0
  0
LINE
  5
8D
  8
0
 10
150.70888501918631
 20
57.480136890658173
 30
0.0
 11
144.20888501918631
 21
57.480136890658173
 31
0.0
  0
LINE
  5
8E
  8
0
 10
151.2088850191862
 20
56.980136890658173
 30
0.0
 11
150.7088850191862
 21
57.480136890658173
 31
0.0
  0
LINE
  5
8F
  8
0
 10
151.2088850191862
 20
47.980136890658173
 30
0.0
 11
150.7088850191862
 21
47.480136890658173
 31
0.0
  0
LINE
  5
90
  8
0
 10
150.7088850191862
 20
47.480136890658173
 30
0.0
 11
144.2088850191862
 21
47.480136890658173
 31
0.0
  0
LINE
  5
EB
  8
0
 10
52.507190781016099
 20
102.23494745286099
 30
0.0
 11
52.507190781016099
 21
98.7708458377233
 31
0.0
  0
LINE
  5
EC
  8
0
 10
52.507190781014287
 20
98.770845840540915
 30
0.0
 11
49.507190781016099
 21
97.038795032971848
 31
0.0
  0
LINE
  5
ED
  8
0
 10
49.507190783459009
 20
97.038795034383838
 30
0.0
 11
46.507190783459002
 21
98.770845841951996
 31
0.0
  0
LINE
  5
EE
  8
0
 10
46.507190785901912
 20
98.770845840542734
 30
0.0
 11
46.507190785901912
 21
102.2349474556804
 31
0.0
  0
LINE
  5
EF
  8
0
 10
46.507190785901912
 20
102.2349474528605
 30
0.0
 11
49.507190785901912
 21
103.96699826042961
 31
0.0
  0
LINE
  5
F0
  8
0
 10
49.507190783459009
 20
103.9669982590176
 30
0.0
 11
52.507190783459009
 21
102.2349474514494
 31
0.0
  0
TEXT
  5
193
  8
0
 62
     3
 10
0.0
 20
0.0
 30
0.0
 40
10.0
  1
SCD20
  7
STANDARD1
  0
ENDSEC
  0
EOF
