  0
SECTION
  2
HEADER
  9
$ACADVER
  1
AC1009
  9
$INSBASE
 10
0.0
 20
0.0
 30
0.0
  9
$EXTMIN
 10
0.0
 20
-2.960436562073669
 30
0.0
  9
$EXTMAX
 10
874.49542051975436
 20
343.4070945095466
 30
0.0
  9
$LIMMIN
 10
0.0
 20
0.0
  9
$LIMMAX
 10
187.5
 20
135.0
  9
$ORTHOMODE
 70
     1
  9
$REGENMODE
 70
     1
  9
$FILLMODE
 70
     1
  9
$QTEXTMODE
 70
     0
  9
$MIRRTEXT
 70
     0
  9
$DRAGMODE
 70
     2
  9
$LTSCALE
 40
5.0
  9
$OSMODE
 70
    55
  9
$ATTMODE
 70
     1
  9
$TEXTSIZE
 40
4.0
  9
$TRACEWID
 40
0.05
  9
$TEXTSTYLE
  7
K80
  9
$CLAYER
  8
0
  9
$CELTYPE
  6
BYLAYER
  9
$CECOLOR
 62
   256
  9
$DIMSCALE
 40
1.0
  9
$DIMASZ
 40
3.0
  9
$DIMEXO
 40
2.0
  9
$DIMDLI
 40
10.0
  9
$DIMRND
 40
0.0
  9
$DIMDLE
 40
0.0
  9
$DIMEXE
 40
2.0
  9
$DIMTP
 40
0.0
  9
$DIMTM
 40
0.0
  9
$DIMTXT
 40
3.2000000000000002
  9
$DIMCEN
 40
0.0
  9
$DIMTSZ
 40
0.0
  9
$DIMTOL
 70
     0
  9
$DIMLIM
 70
     0
  9
$DIMTIH
 70
     0
  9
$DIMTOH
 70
     0
  9
$DIMSE1
 70
     0
  9
$DIMSE2
 70
     0
  9
$DIMTAD
 70
     1
  9
$DIMZIN
 70
     0
  9
$DIMBLK
  1

  9
$DIMASO
 70
     0
  9
$DIMSHO
 70
     0
  9
$DIMPOST
  1

  9
$DIMAPOST
  1

  9
$DIMALT
 70
     0
  9
$DIMALTD
 70
     2
  9
$DIMALTF
 40
25.399999999999999
  9
$DIMLFAC
 40
1.0
  9
$DIMTOFL
 70
     1
  9
$DIMTVP
 40
1.6000000000000001
  9
$DIMTIX
 70
     1
  9
$DIMSOXD
 70
     0
  9
$DIMSAH
 70
     0
  9
$DIMBLK1
  1

  9
$DIMBLK2
  1

  9
$DIMSTYLE
  2
STANDARD
  9
$DIMCLRD
 70
     0
  9
$DIMCLRE
 70
     0
  9
$DIMCLRT
 70
     0
  9
$DIMTFAC
 40
1.0
  9
$DIMGAP
 40
0.09
  9
$LUNITS
 70
     2
  9
$LUPREC
 70
     4
  9
$SKETCHINC
 40
0.1
  9
$FILLETRAD
 40
0.0
  9
$AUNITS
 70
     0
  9
$AUPREC
 70
     4
  9
$MENU
  1
E:\r13\win\SUPPORT\ACAD
  9
$ELEVATION
 40
0.0
  9
$PELEVATION
 40
0.0
  9
$THICKNESS
 40
0.0
  9
$LIMCHECK
 70
     0
  9
$BLIPMODE
 70
     0
  9
$CHAMFERA
 40
0.0
  9
$CHAMFERB
 40
0.0
  9
$SKPOLY
 70
     0
  9
$TDCREATE
 40
2455509.4487702549
  9
$TDUPDATE
 40
2456598.4826300931
  9
$TDINDWG
 40
0.0860157176
  9
$TDUSRTIMER
 40
0.0860157176
  9
$USRTIMER
 70
     1
  9
$ANGBASE
 50
0.0
  9
$ANGDIR
 70
     0
  9
$PDMODE
 70
    35
  9
$PDSIZE
 40
0.0
  9
$PLINEWID
 40
0.0
  9
$COORDS
 70
     1
  9
$SPLFRAME
 70
     0
  9
$SPLINETYPE
 70
     6
  9
$SPLINESEGS
 70
     8
  9
$ATTDIA
 70
     0
  9
$ATTREQ
 70
     1
  9
$HANDLING
 70
     1
  9
$HANDSEED
  5
3B5E
  9
$SURFTAB1
 70
     6
  9
$SURFTAB2
 70
     6
  9
$SURFTYPE
 70
     6
  9
$SURFU
 70
     6
  9
$SURFV
 70
     6
  9
$UCSNAME
  2

  9
$UCSORG
 10
0.0
 20
0.0
 30
0.0
  9
$UCSXDIR
 10
1.0
 20
0.0
 30
0.0
  9
$UCSYDIR
 10
0.0
 20
1.0
 30
0.0
  9
$PUCSNAME
  2

  9
$PUCSORG
 10
0.0
 20
0.0
 30
0.0
  9
$PUCSXDIR
 10
1.0
 20
0.0
 30
0.0
  9
$PUCSYDIR
 10
0.0
 20
1.0
 30
0.0
  9
$USERI1
 70
     0
  9
$USERI2
 70
     1
  9
$USERI3
 70
     0
  9
$USERI4
 70
     0
  9
$USERI5
 70
     0
  9
$USERR1
 40
0.0
  9
$USERR2
 40
0.0
  9
$USERR3
 40
0.0
  9
$USERR4
 40
0.0
  9
$USERR5
 40
0.0
  9
$WORLDVIEW
 70
     1
  9
$SHADEDGE
 70
     3
  9
$SHADEDIF
 70
    70
  9
$TILEMODE
 70
     1
  9
$MAXACTVP
 70
    16
  9
$PLIMCHECK
 70
     0
  9
$PEXTMIN
 10
1.0000000000000000E+020
 20
1.0000000000000000E+020
 30
1.0000000000000000E+020
  9
$PEXTMAX
 10
-1.0000000000000000E+020
 20
-1.0000000000000000E+020
 30
-1.0000000000000000E+020
  9
$PLIMMIN
 10
0.0
 20
0.0
  9
$PLIMMAX
 10
12.0
 20
9.0
  9
$UNITMODE
 70
     0
  9
$VISRETAIN
 70
     0
  9
$PLINEGEN
 70
     0
  9
$PSLTSCALE
 70
     0
  0
ENDSEC
  0
SECTION
  2
TABLES
  0
TABLE
  2
VPORT
 70
     1
  0
VPORT
  2
*ACTIVE
 70
     0
 10
0.0
 20
0.0
 11
1.0
 21
1.0
 12
437.24771229597042
 22
247.97448008947731
 13
0.0
 23
0.0
 14
5.0
 24
5.0
 15
5.0
 25
5.0
 16
0.0
 26
0.0
 36
1.0
 17
0.0
 27
0.0
 37
0.0
 40
506.74700737378009
 41
1.7807262569832401
 42
50.0
 43
0.0
 44
0.0
 50
0.0
 51
0.0
 71
     0
 72
   100
 73
     1
 74
     0
 75
     0
 76
     0
 77
     0
 78
     2
  0
ENDTAB
  0
TABLE
  2
LTYPE
 70
     3
  0
LTYPE
  2
CONTINUOUS
 70
     0
  3
Solid Line
 72
    65
 73
     0
 40
0.0
  0
LTYPE
  2
CENTER
 70
     0
  3
____ _ ____ _ ____ _ ____ _ ____ _ ____ _ ____
 72
    65
 73
     4
 40
2.0
 49
1.25
 49
-0.25
 49
0.25
 49
-0.25
  0
LTYPE
  2
PHANTOM2
 70
     0
  3
___ _ _ ___ _ _ ___ _ _ ___ _ _
 72
    65
 73
     6
 40
1.25
 49
0.625
 49
-0.125
 49
0.125
 49
-0.125
 49
0.125
 49
-0.125
  0
ENDTAB
  0
TABLE
  2
LAYER
 70
     2
  0
LAYER
  2
0
 70
     0
 62
     7
  6
CONTINUOUS
  0
LAYER
  2
1
 70
     0
 62
     1
  6
CENTER
  0
ENDTAB
  0
TABLE
  2
STYLE
 70
     3
  0
STYLE
  2
STANDARD
 70
     0
 40
0.0
 41
1.0
 50
0.0
 71
     0
 42
4.0
  3
ROMANS
  4

  0
STYLE
  2
K80
 70
     0
 40
0.0
 41
1.0
 50
0.0
 71
     0
 42
4.0
  3
romans.shx
  4

  0
STYLE
  2
STANDARD1
 70
     0
 40
0.0
 41
1.0
 50
0.0
 71
     0
 42
3.0
  3
txt
  4

  0
ENDTAB
  0
TABLE
  2
VIEW
 70
     2
  0
VIEW
  2
ALL
 70
     0
 40
175.0
 10
143.23529400000001
 20
87.5
 41
0.0
 11
0.0
 21
0.0
 31
1.0
 12
0.0
 22
0.0
 32
0.0
 42
0.0
 43
0.0
 44
0.0
 50
0.0
 71
     0
  0
VIEW
  2
OLE1
 70
     0
 40
700.0
 10
583.82663847780123
 20
350.0
 41
1167.653276955602
 11
0.0
 21
0.0
 31
1.0
 12
0.0
 22
0.0
 32
0.0
 42
50.0
 43
0.0
 44
0.0
 50
0.0
 71
     0
  0
ENDTAB
  0
TABLE
  2
UCS
 70
     0
  0
ENDTAB
  0
TABLE
  2
APPID
 70
     3
  0
APPID
  2
ACAD
 70
     0
  0
APPID
  2
ACAD_MLEADERVER
 70
     0
  0
APPID
  2
ACAD_NAV_VCDISPLAY
 70
     0
  0
ENDTAB
  0
TABLE
  2
DIMSTYLE
 70
     1
  0
DIMSTYLE
  2
STANDARD
 70
     0
  3

  4

  5

  6

  7

 40
1.0
 41
0.18
 42
0.0625
 43
0.38
 44
0.18
 45
0.0
 46
0.0
 47
0.0
 48
0.0
140
0.18
141
0.09
142
0.0
143
25.399999999999999
144
1.0
145
0.0
146
1.0
147
0.09
 71
     0
 72
     0
 73
     1
 74
     1
 75
     0
 76
     0
 77
     0
 78
     0
170
     0
171
     2
172
     0
173
     0
174
     0
175
     0
176
     0
177
     0
178
     0
  0
ENDTAB
  0
ENDSEC
  0
SECTION
  2
BLOCKS
  0
BLOCK
  8
0
  2
$MODEL_SPACE
 70
     0
 10
0.0
 20
0.0
 30
0.0
  3
$MODEL_SPACE
  1

  0
ENDBLK
  5
1EF
  8
0
  0
BLOCK
 67
     1
  8
0
  2
$PAPER_SPACE
 70
     0
 10
0.0
 20
0.0
 30
0.0
  3
$PAPER_SPACE
  1

  0
ENDBLK
  5
1ED
 67
     1
  8
0
  0
ENDSEC
  0
SECTION
  2
ENTITIES
  0
LINE
  5
385D
  8
0
 10
302.93315665144598
 20
328.907094926779
 30
0.0
 11
300.93315259833008
 21
328.907094926779
 31
0.0
  0
ARC
  5
3864
  8
0
 10
305.9331529797999
 20
232.9070945095466
 30
0.0
 40
2.9999999999999711
 50
180.0
 51
0.0
  0
CIRCLE
  5
3866
  8
0
 10
274.93315297979979
 20
249.4070945095466
 30
0.0
 40
6.2500000000000711
  0
LINE
  5
387A
  8
0
 10
230.93315975088751
 20
219.40709281081419
 30
0.0
 11
231.93314687628421
 21
218.4070945095466
 31
0.0
  0
LINE
  5
387C
  8
0
 10
327.93314771074932
 20
218.4070945095466
 30
0.0
 11
328.93314973730719
 21
219.40709281081419
 31
0.0
  0
ARC
  5
387F
  8
0
 10
305.9331529797999
 20
328.9070945095466
 30
0.0
 40
2.9999999999999711
 50
0.0
 51
180.0
  0
LINE
  5
3881
  8
0
 10
310.93315796274823
 20
328.907094926779
 30
0.0
 11
308.93315390963232
 21
328.907094926779
 31
0.0
  0
LINE
  5
3883
  8
0
 10
328.93314973730719
 20
342.40709620827897
 30
0.0
 11
327.93314771074932
 21
343.4070945095466
 31
0.0
  0
LINE
  5
3886
  8
0
 10
320.933148426005
 20
242.90709573144181
 30
0.0
 11
320.933148426005
 21
318.90709328765121
 31
0.0
  0
CIRCLE
  5
3888
  8
0
 10
274.93315297979979
 20
312.4070945095466
 30
0.0
 40
6.25
  0
LINE
  5
3889
  8
0
 10
230.93315975088751
 20
219.40709281081419
 30
0.0
 11
230.93315975088751
 21
342.40709620827897
 31
0.0
  0
CIRCLE
  5
388B
  8
0
 10
242.93315297979959
 20
249.4070945095466
 30
0.0
 40
6.2500000000000711
  0
LINE
  5
388C
  8
0
 10
300.93315259833008
 20
232.90709409231411
 30
0.0
 11
302.93315665144598
 21
232.90709409231411
 31
0.0
  0
ARC
  5
388E
  8
0
 10
300.93315297979979
 20
242.9070945095466
 30
0.0
 40
10.000000000000069
 50
180.0
 51
270.0
  0
CIRCLE
  5
3890
  8
0
 10
242.93315297979959
 20
312.4070945095466
 30
0.0
 40
6.25
  0
LINE
  5
3891
  8
0
 10
328.93314973730719
 20
342.40709620827897
 30
0.0
 11
328.93314973730719
 21
219.40709281081419
 31
0.0
  0
LINE
  5
3892
  8
0
 10
327.93314771074932
 20
218.4070945095466
 30
0.0
 11
231.93314687628421
 21
218.4070945095466
 31
0.0
  0
LINE
  5
3894
  8
0
 10
231.93314687628421
 20
343.4070945095466
 30
0.0
 11
327.93314771074932
 21
343.4070945095466
 31
0.0
  0
LINE
  5
3895
  8
0
 10
230.93315975088751
 20
342.40709620827897
 30
0.0
 11
231.93314687628421
 21
343.4070945095466
 31
0.0
  0
LINE
  5
3896
  8
0
 10
308.93315390963232
 20
232.90709409231411
 30
0.0
 11
310.93315796274823
 21
232.90709409231411
 31
0.0
  0
ARC
  5
3898
  8
0
 10
310.93315297979979
 20
318.90709450954648
 30
0.0
 40
10.000000000000069
 50
0.0
 51
90.0
  0
ARC
  5
3899
  8
0
 10
310.93315297979979
 20
242.9070945095466
 30
0.0
 40
10.000000000000069
 50
270.0
 51
0.0
  0
LINE
  5
389A
  8
0
 10
290.9331621350733
 20
318.90709328765121
 30
0.0
 11
290.9331621350733
 21
242.90709573144181
 31
0.0
  0
ARC
  5
389C
  8
0
 10
300.93315297979979
 20
318.90709450954648
 30
0.0
 40
10.0
 50
90.0
 51
180.0
  0
CIRCLE
  5
389D
  8
0
 10
305.9331529797999
 20
305.9070945095466
 30
0.0
 40
6.25
  0
CIRCLE
  5
389E
  8
0
 10
305.9331529797999
 20
255.90709450954651
 30
0.0
 40
6.25
  0
ARC
  5
389F
  8
0
 10
305.9331529797999
 20
232.9070945095466
 30
0.0
 40
2.9999999999999711
 50
0.0
 51
180.0
  0
ARC
  5
38A0
  8
0
 10
305.9331529797999
 20
328.9070945095466
 30
0.0
 40
2.9999999999999711
 50
180.0
 51
0.0
  0
CIRCLE
  5
38A1
  8
0
 10
749.49542051975413
 20
317.4070945095466
 30
0.0
 40
6.25
  0
CIRCLE
  5
38B0
  8
0
 10
709.49542051975402
 20
280.9070945095466
 30
0.0
 40
6.25
  0
CIRCLE
  5
38B1
  8
0
 10
749.49542051975413
 20
244.40709450954651
 30
0.0
 40
6.2500000000000711
  0
LINE
  5
38B2
  8
0
 10
685.4954209071841
 20
219.40709281081419
 30
0.0
 11
685.4954209071841
 21
342.40709620827897
 31
0.0
  0
LINE
  5
38B5
  8
0
 10
685.4954209071841
 20
342.40709620827897
 30
0.0
 11
686.4954201397743
 21
343.4070945095466
 31
0.0
  0
LINE
  5
38B8
  8
0
 10
782.49542004291698
 20
218.4070945095466
 30
0.0
 11
783.4954220694749
 21
219.40709281081419
 31
0.0
  0
LINE
  5
38BB
  8
0
 10
783.4954220694749
 20
342.40709620827897
 30
0.0
 11
783.4954220694749
 21
219.40709281081419
 31
0.0
  0
LINE
  5
38BD
  8
0
 10
783.4954220694749
 20
342.40709620827897
 30
0.0
 11
782.49542004291698
 21
343.4070945095466
 31
0.0
  0
CIRCLE
  5
38BE
  8
0
 10
694.49542051975391
 20
280.9070945095466
 30
0.0
 40
3.9999999999999849
  0
LINE
  5
38BF
  8
0
 10
686.4954201397743
 20
343.4070945095466
 30
0.0
 11
782.49542004291698
 21
343.4070945095466
 31
0.0
  0
LINE
  5
38C0
  8
0
 10
782.49542004291698
 20
218.4070945095466
 30
0.0
 11
686.4954201397743
 21
218.4070945095466
 31
0.0
  0
CIRCLE
  5
38C2
  8
0
 10
749.49542051975413
 20
280.9070945095466
 30
0.0
 40
3.9999999999999849
  0
CIRCLE
  5
38C3
  8
0
 10
725.49542051975391
 20
280.9070945095466
 30
0.0
 40
3.9999999999999849
  0
CIRCLE
  5
38C4
  8
0
 10
771.49542051975391
 20
249.4070945095466
 30
0.0
 40
6.2500000000000711
  0
CIRCLE
  5
38C5
  8
0
 10
697.49542051975413
 20
312.4070945095466
 30
0.0
 40
6.25
  0
CIRCLE
  5
38C6
  8
0
 10
697.49542051975413
 20
249.4070945095466
 30
0.0
 40
6.2500000000000711
  0
CIRCLE
  5
38C7
  8
0
 10
771.49542051975391
 20
312.4070945095466
 30
0.0
 40
6.25
  0
LINE
  5
38C8
  8
0
 10
685.4954209071841
 20
219.40709281081419
 30
0.0
 11
686.4954201397743
 21
218.4070945095466
 31
0.0
  0
CIRCLE
  5
38C9
  8
0
 10
725.49542051975391
 20
280.9070945095466
 30
0.0
 40
3.9000000000000048
  0
CIRCLE
  5
38CA
  8
0
 10
749.49542051975413
 20
280.9070945095466
 30
0.0
 40
3.9000000000000048
  0
CIRCLE
  5
38CB
  8
0
 10
694.49542051975391
 20
280.9070945095466
 30
0.0
 40
3.9000000000000048
  0
CIRCLE
  5
38D5
  8
0
 10
160.93316130060791
 20
280.9070945095466
 30
0.0
 40
4.2999999999999972
  0
LINE
  5
38D9
  8
0
 10
144.93316130060799
 20
239.1070947360443
 30
0.0
 11
145.1831613124823
 21
239.35709524268361
 31
0.0
  0
LINE
  5
38DA
  8
0
 10
145.2331613148572
 20
239.40709608906971
 30
0.0
 11
150.933161352762
 21
239.40709608906971
 31
0.0
  0
LINE
  5
38DC
  8
0
 10
145.1831613124823
 20
239.35709524268361
 30
0.0
 11
145.2331613148572
 21
239.40709608906971
 31
0.0
  0
LINE
  5
38DD
  8
0
 10
145.43316132435669
 20
343.4070945095466
 30
0.0
 11
179.93316144961989
 21
343.4070945095466
 31
0.0
  0
LINE
  5
38E0
  8
0
 10
145.43316132435669
 20
343.4070945095466
 30
0.0
 11
144.93316130060799
 21
342.90709349626758
 31
0.0
  0
LINE
  5
38E1
  8
0
 10
150.933161352762
 20
239.40709608906971
 30
0.0
 11
150.933161352762
 21
259.4070937793897
 31
0.0
  0
LINE
  5
38E4
  8
0
 10
145.1831613124823
 20
259.45709462577548
 30
0.0
 11
144.93316130060799
 21
259.70709513241508
 31
0.0
  0
LINE
  5
38E5
  8
0
 10
144.93316130060799
 20
218.90709552282539
 30
0.0
 11
144.93316130060799
 21
342.90709349626758
 31
0.0
  0
LINE
  5
38E6
  8
0
 10
150.933161352762
 20
259.4070937793897
 30
0.0
 11
145.2331613148572
 21
259.4070937793897
 31
0.0
  0
LINE
  5
38E7
  8
0
 10
145.1831613124823
 20
259.45709462577548
 30
0.0
 11
145.2331613148572
 21
259.4070937793897
 31
0.0
  0
LINE
  5
38E9
  8
0
 10
179.93316144961989
 20
218.4070945095466
 30
0.0
 11
145.43316132435669
 21
218.4070945095466
 31
0.0
  0
LINE
  5
38EA
  8
0
 10
144.93316130060799
 20
218.9070955228255
 30
0.0
 11
145.43316132435669
 21
218.4070945095466
 31
0.0
  0
CIRCLE
  5
38EB
  8
0
 10
160.93316130060791
 20
280.9070945095466
 30
0.0
 40
3.9999999999999849
  0
LINE
  5
38EC
  8
0
 10
180.93315975088751
 20
342.40709620827897
 30
0.0
 11
179.93316144961989
 21
343.4070945095466
 31
0.0
  0
LINE
  5
38EE
  8
0
 10
180.93315975088751
 20
342.40709620827897
 30
0.0
 11
180.93315975088751
 21
219.40709281081419
 31
0.0
  0
LINE
  5
38F0
  8
0
 10
179.93316144961989
 20
218.4070945095466
 30
0.0
 11
180.93315975088751
 21
219.40709281081419
 31
0.0
  0
CIRCLE
  5
38F1
  8
0
 10
160.93316130060791
 20
280.9070945095466
 30
0.0
 40
3.4000000000000341
  0
LINE
  5
38F6
  8
0
 10
145.23316131485689
 20
259.4070937793897
 30
0.0
 11
145.23316131485689
 21
239.4070960890696
 31
0.0
  0
LINE
  5
38FF
  8
0
 10
314.82227162737519
 20
132.4070960592673
 30
0.0
 11
314.9222733201471
 21
132.907096083016
 31
0.0
  0
LINE
  5
3902
  8
0
 10
231.93314687628421
 20
168.4070945095466
 30
0.0
 11
327.93314771074932
 21
168.4070945095466
 31
0.0
  0
LINE
  5
3904
  8
0
 10
230.93315975088751
 20
132.907096083016
 30
0.0
 11
230.93315975088751
 21
167.407096208279
 31
0.0
  0
LINE
  5
3908
  8
0
 10
230.93315975088751
 20
132.907096083016
 30
0.0
 11
231.4331533135859
 21
132.4070960592673
 31
0.0
  0
LINE
  5
3909
  8
0
 10
230.93315975088751
 20
167.407096208279
 30
0.0
 11
231.93314687628421
 21
168.4070945095466
 31
0.0
  0
LINE
  5
390A
  8
0
 10
327.93314771074932
 20
168.4070945095466
 30
0.0
 11
328.93314973730719
 21
167.407096208279
 31
0.0
  0
LINE
  5
390C
  8
0
 10
310.13315932173413
 20
132.907096083016
 30
0.0
 11
310.3331478061167
 21
132.907096083016
 31
0.0
  0
LINE
  5
390D
  8
0
 10
310.23314611334479
 20
132.4070960592673
 30
0.0
 11
310.3331478061167
 21
132.907096083016
 31
0.0
  0
LINE
  5
390E
  8
0
 10
310.13315932173413
 20
132.907096083016
 30
0.0
 11
310.23314611334479
 21
132.4070960592673
 31
0.0
  0
LINE
  5
390F
  8
0
 10
328.43315617460883
 20
132.4070960592673
 30
0.0
 11
231.4331533135859
 21
132.4070960592673
 31
0.0
  0
LINE
  5
3911
  8
0
 10
305.54403380770361
 20
132.907096083016
 30
0.0
 11
305.64403550047552
 21
132.4070960592673
 31
0.0
  0
LINE
  5
3912
  8
0
 10
328.93314973730719
 20
167.407096208279
 30
0.0
 11
328.93314973730719
 21
132.907096083016
 31
0.0
  0
LINE
  5
3913
  8
0
 10
328.43315617460883
 20
132.4070960592673
 30
0.0
 11
328.93314973730719
 21
132.907096083016
 31
0.0
  0
LINE
  5
3915
  8
0
 10
310.3331478061167
 20
132.907096083016
 30
0.0
 11
311.23314813990271
 21
137.40709594750859
 31
0.0
  0
LINE
  5
3916
  8
0
 10
309.233158987948
 20
137.40709594750859
 30
0.0
 11
310.13315932173413
 21
132.907096083016
 31
0.0
  0
LINE
  5
3917
  8
0
 10
311.23314813990271
 20
137.40709594750859
 30
0.0
 11
309.233158987948
 21
137.40709594750859
 31
0.0
  0
ARC
  5
3918
  8
0
 10
309.23315297979991
 20
137.4070960592673
 30
0.0
 40
4.499999999999992
 50
90.0
 51
191.3099324740208
  0
ARC
  5
3919
  8
0
 10
311.2331529797998
 20
137.4070960592673
 30
0.0
 40
4.499999999999992
 50
348.69006752598068
 51
90.0
  0
LINE
  5
391A
  8
0
 10
311.23314813990271
 20
141.9070957537935
 30
0.0
 11
309.233158987948
 21
141.9070957537935
 31
0.0
  0
LINE
  5
391B
  8
0
 10
314.9222733201471
 20
132.907096083016
 30
0.0
 11
315.64576939959198
 21
136.5245732788191
 31
0.0
  0
LINE
  5
391C
  8
0
 10
304.82053772825873
 20
136.5245732788191
 30
0.0
 11
305.54403380770361
 21
132.907096083016
 31
0.0
  0
LINE
  5
3921
  8
0
 10
782.99542105619594
 20
132.4070960592673
 30
0.0
 11
685.99542005781791
 21
132.4070960592673
 31
0.0
  0
LINE
  5
3922
  8
0
 10
701.78453818757805
 20
132.4070960592673
 30
0.0
 11
701.8845380177047
 21
132.907096083016
 31
0.0
  0
LINE
  5
3925
  8
0
 10
783.4954220694749
 20
167.407096208279
 30
0.0
 11
783.4954220694749
 21
132.907096083016
 31
0.0
  0
LINE
  5
3926
  8
0
 10
782.99542105619594
 20
132.4070960592673
 30
0.0
 11
783.4954220694749
 21
132.907096083016
 31
0.0
  0
LINE
  5
3927
  8
0
 10
782.49542004291698
 20
168.4070945095466
 30
0.0
 11
783.4954220694749
 21
167.407096208279
 31
0.0
  0
LINE
  5
3929
  8
0
 10
698.19542052087149
 20
141.9070957537935
 30
0.0
 11
696.19542054229191
 21
141.9070957537935
 31
0.0
  0
ARC
  5
392A
  8
0
 10
696.19542051975395
 20
137.4070960592673
 30
0.0
 40
4.499999999999992
 50
90.0
 51
191.3099324740208
  0
LINE
  5
392B
  8
0
 10
691.78280754809055
 20
136.5245732788191
 30
0.0
 11
692.50630292904339
 21
132.907096083016
 31
0.0
  0
LINE
  5
392F
  8
0
 10
701.8845380177047
 20
132.907096083016
 30
0.0
 11
702.6080336314883
 21
136.5245732788191
 31
0.0
  0
ARC
  5
3930
  8
0
 10
698.19542051975395
 20
137.4070960592673
 30
0.0
 40
4.499999999999992
 50
348.69006752598068
 51
90.0
  0
LINE
  5
3932
  8
0
 10
686.4954201397743
 20
168.4070945095466
 30
0.0
 11
782.49542004291698
 21
168.4070945095466
 31
0.0
  0
LINE
  5
3935
  8
0
 10
692.50630292904339
 20
132.907096083016
 30
0.0
 11
692.60630299200079
 21
132.4070960592673
 31
0.0
  0
LINE
  5
3936
  8
0
 10
685.4954209071841
 20
167.407096208279
 30
0.0
 11
686.4954201397743
 21
168.4070945095466
 31
0.0
  0
LINE
  5
3938
  8
0
 10
685.4954209071841
 20
132.907096083016
 30
0.0
 11
685.4954209071841
 21
167.407096208279
 31
0.0
  0
LINE
  5
3939
  8
0
 10
685.4954209071841
 20
132.907096083016
 30
0.0
 11
685.99542005781791
 21
132.4070960592673
 31
0.0
  0
LINE
  5
393A
  8
0
 10
697.09542052683196
 20
132.907096083016
 30
0.0
 11
697.29542041991624
 21
132.907096083016
 31
0.0
  0
LINE
  5
393B
  8
0
 10
697.19542058978936
 20
132.4070960592673
 30
0.0
 11
697.29542041991624
 21
132.907096083016
 31
0.0
  0
LINE
  5
393C
  8
0
 10
697.09542052683196
 20
132.907096083016
 30
0.0
 11
697.19542058978936
 21
132.4070960592673
 31
0.0
  0
LINE
  5
393D
  8
0
 10
696.19542054229191
 20
137.40709594750859
 30
0.0
 11
697.09542052683196
 21
132.907096083016
 31
0.0
  0
LINE
  5
393E
  8
0
 10
697.29542041991624
 20
132.907096083016
 30
0.0
 11
698.19542052087149
 21
137.40709594750859
 31
0.0
  0
LINE
  5
393F
  8
0
 10
698.19542052087149
 20
137.40709594750859
 30
0.0
 11
696.19542054229191
 21
137.40709594750859
 31
0.0
  0
CIRCLE
  5
398C
  8
0
 10
853.49542051975391
 20
280.9070945095466
 30
0.0
 40
4.2999999999999972
  0
LINE
  5
398D
  8
0
 10
868.99542049600541
 20
218.4070945095466
 30
0.0
 11
834.49542037074252
 21
218.4070945095466
 31
0.0
  0
LINE
  5
3990
  8
0
 10
868.99542049600541
 20
218.4070945095466
 30
0.0
 11
869.49542051975413
 21
218.90709552282539
 31
0.0
  0
LINE
  5
3992
  8
0
 10
834.49542037074252
 20
343.4070945095466
 30
0.0
 11
868.99542049600541
 21
343.4070945095466
 31
0.0
  0
LINE
  5
3993
  8
0
 10
869.49542051975413
 20
342.90709349626758
 30
0.0
 11
868.99542049600541
 21
343.4070945095466
 31
0.0
  0
LINE
  5
3995
  8
0
 10
869.49542051975413
 20
342.90709349626758
 30
0.0
 11
869.49542051975413
 21
218.90709552282539
 31
0.0
  0
CIRCLE
  5
3996
  8
0
 10
853.49542051975391
 20
280.9070945095466
 30
0.0
 40
3.9999999999999849
  0
LINE
  5
3998
  8
0
 10
834.49542037074252
 20
218.4070945095466
 30
0.0
 11
833.4954220694749
 21
219.40709281081419
 31
0.0
  0
LINE
  5
3999
  8
0
 10
833.4954220694749
 20
342.40709620827897
 30
0.0
 11
834.49542037074252
 21
343.4070945095466
 31
0.0
  0
LINE
  5
399B
  8
0
 10
833.4954220694749
 20
219.40709281081419
 30
0.0
 11
833.4954220694749
 21
342.40709620827897
 31
0.0
  0
CIRCLE
  5
399C
  8
0
 10
853.49542051975391
 20
280.9070945095466
 30
0.0
 40
3.3999999999999631
  0
LINE
  5
39BF
  8
1
 10
139.93316130060799
 20
280.9070945095466
 30
0.0
 11
185.93315975088751
 21
280.9070945095466
 31
0.0
  0
LINE
  5
39C0
  8
1
 10
254.18315297979959
 20
312.4070945095466
 30
0.0
 11
231.68315297979959
 21
312.4070945095466
 31
0.0
  0
LINE
  5
39C1
  8
1
 10
242.93315297979959
 20
323.6570945095466
 30
0.0
 11
242.93315297979959
 21
301.1570945095466
 31
0.0
  0
LINE
  5
39C6
  8
1
 10
225.93315975088751
 20
280.9070945095466
 30
0.0
 11
333.93314973730719
 21
280.9070945095466
 31
0.0
  0
LINE
  5
39C8
  8
1
 10
274.93315297979979
 20
323.6570945095466
 30
0.0
 11
274.93315297979979
 21
301.1570945095466
 31
0.0
  0
LINE
  5
39C9
  8
1
 10
286.18315297979979
 20
312.4070945095466
 30
0.0
 11
263.68315297979979
 21
312.4070945095466
 31
0.0
  0
LINE
  5
39CA
  8
1
 10
242.93315297979959
 20
260.6570945095466
 30
0.0
 11
242.93315297979959
 21
238.1570945095466
 31
0.0
  0
LINE
  5
39CB
  8
1
 10
254.18315297979959
 20
249.4070945095466
 30
0.0
 11
231.68315297979959
 21
249.4070945095466
 31
0.0
  0
LINE
  5
39CC
  8
1
 10
274.93315297979979
 20
260.6570945095466
 30
0.0
 11
274.93315297979979
 21
238.1570945095466
 31
0.0
  0
LINE
  5
39CD
  8
1
 10
286.18315297979979
 20
249.4070945095466
 30
0.0
 11
263.68315297979979
 21
249.4070945095466
 31
0.0
  0
LINE
  5
39CE
  8
1
 10
305.9331529797999
 20
336.90709450954648
 30
0.0
 11
305.9331529797999
 21
224.9070945095466
 31
0.0
  0
LINE
  5
39CF
  8
1
 10
317.18315297979979
 20
305.9070945095466
 30
0.0
 11
294.68315297979979
 21
305.9070945095466
 31
0.0
  0
LINE
  5
39D0
  8
1
 10
317.18315297979979
 20
255.90709450954651
 30
0.0
 11
294.68315297979979
 21
255.90709450954651
 31
0.0
  0
LINE
  5
39D6
  8
1
 10
594.49542245690463
 20
280.9070945095466
 30
0.0
 11
640.49542090718421
 21
280.9070945095466
 31
0.0
  0
LINE
  5
39D7
  8
0
 10
599.79542247115364
 20
259.4070937793897
 30
0.0
 11
599.79542247115364
 21
239.4070960890696
 31
0.0
  0
CIRCLE
  5
39D8
  8
0
 10
615.49542245690463
 20
280.9070945095466
 30
0.0
 40
3.4000000000000341
  0
LINE
  5
39D9
  8
0
 10
634.49542260591647
 20
218.4070945095466
 30
0.0
 11
635.4954209071841
 21
219.40709281081419
 31
0.0
  0
LINE
  5
39DA
  8
0
 10
635.4954209071841
 20
342.40709620827897
 30
0.0
 11
635.4954209071841
 21
219.40709281081419
 31
0.0
  0
LINE
  5
39DB
  8
0
 10
635.4954209071841
 20
342.40709620827897
 30
0.0
 11
634.49542260591647
 21
343.4070945095466
 31
0.0
  0
CIRCLE
  5
39DC
  8
0
 10
615.49542245690463
 20
280.9070945095466
 30
0.0
 40
3.9999999999999849
  0
LINE
  5
39DD
  8
0
 10
599.49542245690463
 20
218.9070955228255
 30
0.0
 11
599.99542248065336
 21
218.4070945095466
 31
0.0
  0
LINE
  5
39DE
  8
0
 10
634.49542260591647
 20
218.4070945095466
 30
0.0
 11
599.99542248065336
 21
218.4070945095466
 31
0.0
  0
LINE
  5
39DF
  8
0
 10
599.745422468779
 20
259.45709462577548
 30
0.0
 11
599.79542247115387
 21
259.4070937793897
 31
0.0
  0
LINE
  5
39E0
  8
0
 10
605.4954225090587
 20
259.4070937793897
 30
0.0
 11
599.79542247115387
 21
259.4070937793897
 31
0.0
  0
LINE
  5
39E1
  8
0
 10
599.49542245690463
 20
218.90709552282539
 30
0.0
 11
599.49542245690463
 21
342.90709349626758
 31
0.0
  0
LINE
  5
39E2
  8
0
 10
599.745422468779
 20
259.45709462577548
 30
0.0
 11
599.49542245690463
 21
259.70709513241508
 31
0.0
  0
LINE
  5
39E3
  8
0
 10
605.4954225090587
 20
239.40709608906971
 30
0.0
 11
605.4954225090587
 21
259.4070937793897
 31
0.0
  0
LINE
  5
39E4
  8
0
 10
599.99542248065336
 20
343.4070945095466
 30
0.0
 11
599.49542245690463
 21
342.90709349626758
 31
0.0
  0
LINE
  5
39E5
  8
0
 10
599.99542248065336
 20
343.4070945095466
 30
0.0
 11
634.49542260591647
 21
343.4070945095466
 31
0.0
  0
LINE
  5
39E6
  8
0
 10
599.745422468779
 20
239.35709524268361
 30
0.0
 11
599.79542247115387
 21
239.40709608906971
 31
0.0
  0
LINE
  5
39E7
  8
0
 10
599.79542247115387
 20
239.40709608906971
 30
0.0
 11
605.4954225090587
 21
239.40709608906971
 31
0.0
  0
LINE
  5
39E8
  8
0
 10
599.49542245690463
 20
239.1070947360443
 30
0.0
 11
599.745422468779
 21
239.35709524268361
 31
0.0
  0
CIRCLE
  5
39E9
  8
0
 10
615.49542245690463
 20
280.9070945095466
 30
0.0
 40
4.2999999999999972
  0
LINE
  5
39EA
  8
1
 10
828.49542206947478
 20
280.9070945095466
 30
0.0
 11
874.49542051975436
 21
280.9070945095466
 31
0.0
  0
LINE
  5
39EB
  8
1
 10
373.93314973730719
 20
280.9070945095466
 30
0.0
 11
419.93314818758682
 21
280.9070945095466
 31
0.0
  0
CIRCLE
  5
39EC
  8
0
 10
398.9331481875862
 20
280.9070945095466
 30
0.0
 40
3.3999999999999631
  0
LINE
  5
39ED
  8
0
 10
378.93314973730719
 20
219.40709281081419
 30
0.0
 11
378.93314973730719
 21
342.40709620827897
 31
0.0
  0
LINE
  5
39EE
  8
0
 10
378.93314973730719
 20
342.40709620827897
 30
0.0
 11
379.93314803857481
 21
343.4070945095466
 31
0.0
  0
LINE
  5
39EF
  8
0
 10
379.93314803857481
 20
218.4070945095466
 30
0.0
 11
378.93314973730719
 21
219.40709281081419
 31
0.0
  0
CIRCLE
  5
39F0
  8
0
 10
398.9331481875862
 20
280.9070945095466
 30
0.0
 40
3.9999999999999849
  0
LINE
  5
39F1
  8
0
 10
414.93314818758643
 20
342.90709349626758
 30
0.0
 11
414.93314818758643
 21
218.90709552282539
 31
0.0
  0
LINE
  5
39F2
  8
0
 10
414.93314818758643
 20
342.90709349626758
 30
0.0
 11
414.4331481638377
 21
343.4070945095466
 31
0.0
  0
LINE
  5
39F3
  8
0
 10
379.93314803857481
 20
343.4070945095466
 30
0.0
 11
414.4331481638377
 21
343.4070945095466
 31
0.0
  0
LINE
  5
39F4
  8
0
 10
414.4331481638377
 20
218.4070945095466
 30
0.0
 11
414.93314818758643
 21
218.90709552282539
 31
0.0
  0
LINE
  5
39F5
  8
0
 10
414.4331481638377
 20
218.4070945095466
 30
0.0
 11
379.93314803857481
 21
218.4070945095466
 31
0.0
  0
CIRCLE
  5
39F6
  8
0
 10
398.9331481875862
 20
280.9070945095466
 30
0.0
 40
4.2999999999999972
  0
LINE
  5
39F8
  8
1
 10
697.49542051975413
 20
323.6570945095466
 30
0.0
 11
697.49542051975413
 21
301.1570945095466
 31
0.0
  0
LINE
  5
39F9
  8
1
 10
708.74542051975413
 20
312.4070945095466
 30
0.0
 11
686.24542051975413
 21
312.4070945095466
 31
0.0
  0
LINE
  5
39FA
  8
1
 10
749.49542051975413
 20
328.6570945095466
 30
0.0
 11
749.49542051975413
 21
306.1570945095466
 31
0.0
  0
LINE
  5
39FB
  8
1
 10
760.74542051975413
 20
317.4070945095466
 30
0.0
 11
738.24542051975413
 21
317.4070945095466
 31
0.0
  0
LINE
  5
39FC
  8
1
 10
771.49542051975391
 20
323.6570945095466
 30
0.0
 11
771.49542051975391
 21
301.1570945095466
 31
0.0
  0
LINE
  5
39FD
  8
1
 10
782.74542051975391
 20
312.4070945095466
 30
0.0
 11
760.24542051975379
 21
312.4070945095466
 31
0.0
  0
LINE
  5
39FE
  8
1
 10
771.49542051975391
 20
260.6570945095466
 30
0.0
 11
771.49542051975391
 21
238.1570945095466
 31
0.0
  0
LINE
  5
39FF
  8
1
 10
782.74542051975391
 20
249.4070945095466
 30
0.0
 11
760.24542051975379
 21
249.4070945095466
 31
0.0
  0
LINE
  5
3A00
  8
1
 10
749.49542051975413
 20
255.65709450954651
 30
0.0
 11
749.49542051975413
 21
233.1570945095466
 31
0.0
  0
LINE
  5
3A01
  8
1
 10
760.74542051975413
 20
244.40709450954651
 30
0.0
 11
738.24542051975413
 21
244.40709450954651
 31
0.0
  0
LINE
  5
3A02
  8
1
 10
697.49542051975413
 20
260.6570945095466
 30
0.0
 11
697.49542051975413
 21
238.1570945095466
 31
0.0
  0
LINE
  5
3A03
  8
1
 10
708.74542051975413
 20
249.4070945095466
 30
0.0
 11
686.24542051975413
 21
249.4070945095466
 31
0.0
  0
LINE
  5
3A04
  8
1
 10
709.49542051975402
 20
292.1570945095466
 30
0.0
 11
709.49542051975402
 21
269.6570945095466
 31
0.0
  0
LINE
  5
3A05
  8
1
 10
788.4954220694749
 20
280.9070945095466
 30
0.0
 11
680.49542090718421
 21
280.9070945095466
 31
0.0
  0
LINE
  5
3A09
  8
1
 10
694.49542051975391
 20
289.9070945095466
 30
0.0
 11
694.49542051975391
 21
271.9070945095466
 31
0.0
  0
LINE
  5
3A0A
  8
1
 10
725.49542051975391
 20
289.9070945095466
 30
0.0
 11
725.49542051975391
 21
271.9070945095466
 31
0.0
  0
LINE
  5
3A0B
  8
1
 10
749.49542051975413
 20
289.9070945095466
 30
0.0
 11
749.49542051975413
 21
271.9070945095466
 31
0.0
  0
LINE
  5
3A17
  8
1
 10
279.9331472935167
 20
173.4070945095466
 30
0.0
 11
279.9331472935167
 21
127.4070960592673
 31
0.0
  0
LINE
  5
3A1A
  8
1
 10
734.49542009134575
 20
173.4070945095466
 30
0.0
 11
734.49542009134575
 21
127.4070960592673
 31
0.0
  0
TEXT
  5
3AC8
  8
0
 62
     3
 10
0.0
 20
0.0
 30
0.0
 40
10.0
  1
SCS-BP125
  7
STANDARD1
  0
ENDSEC
  0
EOF
