  0
SECTION
  2
HEADER
  9
$ACADVER
  1
AC1009
  9
$INSBASE
 10
0.0
 20
0.0
 30
0.0
  9
$EXTMIN
 10
0.0
 20
-2.960436562073669
 30
0.0
  9
$EXTMAX
 10
731.82207528126992
 20
330.1441413682511
 30
0.0
  9
$LIMMIN
 10
0.0
 20
0.0
  9
$LIMMAX
 10
187.5
 20
135.0
  9
$ORTHOMODE
 70
     0
  9
$REGENMODE
 70
     1
  9
$FILLMODE
 70
     1
  9
$QTEXTMODE
 70
     0
  9
$MIRRTEXT
 70
     0
  9
$DRAGMODE
 70
     2
  9
$LTSCALE
 40
5.0
  9
$OSMODE
 70
    55
  9
$ATTMODE
 70
     1
  9
$TEXTSIZE
 40
4.0
  9
$TRACEWID
 40
0.05
  9
$TEXTSTYLE
  7
K80
  9
$CLAYER
  8
0
  9
$CELTYPE
  6
BYLAYER
  9
$CECOLOR
 62
   256
  9
$DIMSCALE
 40
1.0
  9
$DIMASZ
 40
3.0
  9
$DIMEXO
 40
2.0
  9
$DIMDLI
 40
10.0
  9
$DIMRND
 40
0.0
  9
$DIMDLE
 40
0.0
  9
$DIMEXE
 40
2.0
  9
$DIMTP
 40
0.0
  9
$DIMTM
 40
0.0
  9
$DIMTXT
 40
3.2000000000000002
  9
$DIMCEN
 40
0.0
  9
$DIMTSZ
 40
0.0
  9
$DIMTOL
 70
     0
  9
$DIMLIM
 70
     0
  9
$DIMTIH
 70
     0
  9
$DIMTOH
 70
     0
  9
$DIMSE1
 70
     0
  9
$DIMSE2
 70
     0
  9
$DIMTAD
 70
     1
  9
$DIMZIN
 70
     0
  9
$DIMBLK
  1

  9
$DIMASO
 70
     0
  9
$DIMSHO
 70
     0
  9
$DIMPOST
  1

  9
$DIMAPOST
  1

  9
$DIMALT
 70
     0
  9
$DIMALTD
 70
     2
  9
$DIMALTF
 40
25.399999999999999
  9
$DIMLFAC
 40
1.0
  9
$DIMTOFL
 70
     1
  9
$DIMTVP
 40
1.6000000000000001
  9
$DIMTIX
 70
     1
  9
$DIMSOXD
 70
     0
  9
$DIMSAH
 70
     0
  9
$DIMBLK1
  1

  9
$DIMBLK2
  1

  9
$DIMSTYLE
  2
STANDARD
  9
$DIMCLRD
 70
     0
  9
$DIMCLRE
 70
     0
  9
$DIMCLRT
 70
     0
  9
$DIMTFAC
 40
1.0
  9
$DIMGAP
 40
0.09
  9
$LUNITS
 70
     2
  9
$LUPREC
 70
     4
  9
$SKETCHINC
 40
0.1
  9
$FILLETRAD
 40
0.0
  9
$AUNITS
 70
     0
  9
$AUPREC
 70
     4
  9
$MENU
  1
E:\r13\win\SUPPORT\ACAD
  9
$ELEVATION
 40
0.0
  9
$PELEVATION
 40
0.0
  9
$THICKNESS
 40
0.0
  9
$LIMCHECK
 70
     0
  9
$BLIPMODE
 70
     0
  9
$CHAMFERA
 40
0.0
  9
$CHAMFERB
 40
0.0
  9
$SKPOLY
 70
     0
  9
$TDCREATE
 40
2455509.4487702549
  9
$TDUPDATE
 40
2456598.4826659029
  9
$TDINDWG
 40
0.0992036921
  9
$TDUSRTIMER
 40
0.0992036921
  9
$USRTIMER
 70
     1
  9
$ANGBASE
 50
0.0
  9
$ANGDIR
 70
     0
  9
$PDMODE
 70
    35
  9
$PDSIZE
 40
0.0
  9
$PLINEWID
 40
0.0
  9
$COORDS
 70
     1
  9
$SPLFRAME
 70
     0
  9
$SPLINETYPE
 70
     6
  9
$SPLINESEGS
 70
     8
  9
$ATTDIA
 70
     0
  9
$ATTREQ
 70
     1
  9
$HANDLING
 70
     1
  9
$HANDSEED
  5
3E93
  9
$SURFTAB1
 70
     6
  9
$SURFTAB2
 70
     6
  9
$SURFTYPE
 70
     6
  9
$SURFU
 70
     6
  9
$SURFV
 70
     6
  9
$UCSNAME
  2

  9
$UCSORG
 10
0.0
 20
0.0
 30
0.0
  9
$UCSXDIR
 10
1.0
 20
0.0
 30
0.0
  9
$UCSYDIR
 10
0.0
 20
1.0
 30
0.0
  9
$PUCSNAME
  2

  9
$PUCSORG
 10
0.0
 20
0.0
 30
0.0
  9
$PUCSXDIR
 10
1.0
 20
0.0
 30
0.0
  9
$PUCSYDIR
 10
0.0
 20
1.0
 30
0.0
  9
$USERI1
 70
     0
  9
$USERI2
 70
     1
  9
$USERI3
 70
     0
  9
$USERI4
 70
     0
  9
$USERI5
 70
     0
  9
$USERR1
 40
0.0
  9
$USERR2
 40
0.0
  9
$USERR3
 40
0.0
  9
$USERR4
 40
0.0
  9
$USERR5
 40
0.0
  9
$WORLDVIEW
 70
     1
  9
$SHADEDGE
 70
     3
  9
$SHADEDIF
 70
    70
  9
$TILEMODE
 70
     1
  9
$MAXACTVP
 70
    16
  9
$PLIMCHECK
 70
     0
  9
$PEXTMIN
 10
1.0000000000000000E+020
 20
1.0000000000000000E+020
 30
1.0000000000000000E+020
  9
$PEXTMAX
 10
-1.0000000000000000E+020
 20
-1.0000000000000000E+020
 30
-1.0000000000000000E+020
  9
$PLIMMIN
 10
0.0
 20
0.0
  9
$PLIMMAX
 10
12.0
 20
9.0
  9
$UNITMODE
 70
     0
  9
$VISRETAIN
 70
     0
  9
$PLINEGEN
 70
     0
  9
$PSLTSCALE
 70
     0
  0
ENDSEC
  0
SECTION
  2
TABLES
  0
TABLE
  2
VPORT
 70
     1
  0
VPORT
  2
*ACTIVE
 70
     0
 10
0.0
 20
0.0
 11
1.0
 21
1.0
 12
365.911039344541
 22
238.36259203545859
 13
0.0
 23
0.0
 14
5.0
 24
5.0
 15
5.0
 25
5.0
 16
0.0
 26
0.0
 36
1.0
 17
0.0
 27
0.0
 37
0.0
 40
487.35983822878831
 41
1.7807262569832401
 42
50.0
 43
0.0
 44
0.0
 50
0.0
 51
0.0
 71
     0
 72
   100
 73
     1
 74
     0
 75
     0
 76
     0
 77
     0
 78
     2
  0
ENDTAB
  0
TABLE
  2
LTYPE
 70
     3
  0
LTYPE
  2
CONTINUOUS
 70
     0
  3
Solid Line
 72
    65
 73
     0
 40
0.0
  0
LTYPE
  2
CENTER
 70
     0
  3
____ _ ____ _ ____ _ ____ _ ____ _ ____ _ ____
 72
    65
 73
     4
 40
2.0
 49
1.25
 49
-0.25
 49
0.25
 49
-0.25
  0
LTYPE
  2
PHANTOM2
 70
     0
  3
___ _ _ ___ _ _ ___ _ _ ___ _ _
 72
    65
 73
     6
 40
1.25
 49
0.625
 49
-0.125
 49
0.125
 49
-0.125
 49
0.125
 49
-0.125
  0
ENDTAB
  0
TABLE
  2
LAYER
 70
     2
  0
LAYER
  2
0
 70
     0
 62
     7
  6
CONTINUOUS
  0
LAYER
  2
1
 70
     0
 62
     1
  6
CENTER
  0
ENDTAB
  0
TABLE
  2
STYLE
 70
     3
  0
STYLE
  2
STANDARD
 70
     0
 40
0.0
 41
1.0
 50
0.0
 71
     0
 42
4.0
  3
ROMANS
  4

  0
STYLE
  2
K80
 70
     0
 40
0.0
 41
1.0
 50
0.0
 71
     0
 42
4.0
  3
romans.shx
  4

  0
STYLE
  2
STANDARD1
 70
     0
 40
0.0
 41
1.0
 50
0.0
 71
     0
 42
3.0
  3
txt
  4

  0
ENDTAB
  0
TABLE
  2
VIEW
 70
     2
  0
VIEW
  2
ALL
 70
     0
 40
175.0
 10
143.23529400000001
 20
87.5
 41
0.0
 11
0.0
 21
0.0
 31
1.0
 12
0.0
 22
0.0
 32
0.0
 42
0.0
 43
0.0
 44
0.0
 50
0.0
 71
     0
  0
VIEW
  2
OLE1
 70
     0
 40
700.0
 10
583.82663847780123
 20
350.0
 41
1167.653276955602
 11
0.0
 21
0.0
 31
1.0
 12
0.0
 22
0.0
 32
0.0
 42
50.0
 43
0.0
 44
0.0
 50
0.0
 71
     0
  0
ENDTAB
  0
TABLE
  2
UCS
 70
     0
  0
ENDTAB
  0
TABLE
  2
APPID
 70
     3
  0
APPID
  2
ACAD
 70
     0
  0
APPID
  2
ACAD_MLEADERVER
 70
     0
  0
APPID
  2
ACAD_NAV_VCDISPLAY
 70
     0
  0
ENDTAB
  0
TABLE
  2
DIMSTYLE
 70
     1
  0
DIMSTYLE
  2
STANDARD
 70
     0
  3

  4

  5

  6

  7

 40
1.0
 41
0.18
 42
0.0625
 43
0.38
 44
0.18
 45
0.0
 46
0.0
 47
0.0
 48
0.0
140
0.18
141
0.09
142
0.0
143
25.399999999999999
144
1.0
145
0.0
146
1.0
147
0.09
 71
     0
 72
     0
 73
     1
 74
     1
 75
     0
 76
     0
 77
     0
 78
     0
170
     0
171
     2
172
     0
173
     0
174
     0
175
     0
176
     0
177
     0
178
     0
  0
ENDTAB
  0
ENDSEC
  0
SECTION
  2
BLOCKS
  0
BLOCK
  8
0
  2
$MODEL_SPACE
 70
     0
 10
0.0
 20
0.0
 30
0.0
  3
$MODEL_SPACE
  1

  0
ENDBLK
  5
1EF
  8
0
  0
BLOCK
 67
     1
  8
0
  2
$PAPER_SPACE
 70
     0
 10
0.0
 20
0.0
 30
0.0
  3
$PAPER_SPACE
  1

  0
ENDBLK
  5
1ED
 67
     1
  8
0
  0
ENDSEC
  0
SECTION
  2
ENTITIES
  0
ARC
  5
3B9D
  8
0
 10
223.66905690478981
 20
187.1441331858575
 30
0.0
 40
3.0000001291434621
 50
185.73917047726789
 51
354.26082952273401
  0
CIRCLE
  5
3B9F
  8
0
 10
160.6690541927783
 20
315.14413869597598
 30
0.0
 40
6.2500002690487548
  0
ARC
  5
3BA2
  8
0
 10
228.66905712002881
 20
273.14413688796839
 30
0.0
 40
10.000000430478011
 50
0.0
 51
90.0
  0
CIRCLE
  5
3BA5
  8
0
 10
160.6690541927783
 20
298.14413796416352
 30
0.0
 40
6.2500002690487548
  0
CIRCLE
  5
3BA7
  8
0
 10
192.66905557030799
 20
155.14413180832781
 30
0.0
 40
6.2500002690487548
  0
ARC
  5
3BA8
  8
0
 10
223.66905690478981
 20
187.1441331858575
 30
0.0
 40
3.0000001291434621
 50
354.26082952273401
 51
0.0
  0
LINE
  5
3BA9
  8
0
 10
226.66905528155669
 20
187.14413276862501
 30
0.0
 11
228.66905942076821
 21
187.14413276862501
 31
0.0
  0
CIRCLE
  5
3BAD
  8
0
 10
160.6690541927783
 20
155.14413180832781
 30
0.0
 40
6.2500002690487548
  0
CIRCLE
  5
3BAF
  8
0
 10
192.66905557030799
 20
298.14413796416352
 30
0.0
 40
6.2500002690487548
  0
LINE
  5
3BB2
  8
0
 10
228.66905942076821
 20
283.1441377356789
 30
0.0
 11
226.66905528155669
 21
283.1441377356789
 31
0.0
  0
ARC
  5
3BB3
  8
0
 10
223.66905690478981
 20
283.1441373184465
 30
0.0
 40
3.0000001291434621
 50
0.0
 51
5.7391704772667644
  0
ARC
  5
3BB4
  8
0
 10
223.66905690478981
 20
283.1441373184465
 30
0.0
 40
3.0000001291433911
 50
174.26082952273279
 51
180.0
  0
LINE
  5
3BB5
  8
0
 10
220.66905776508361
 20
283.1441377356789
 30
0.0
 11
218.6690536258721
 21
283.1441377356789
 31
0.0
  0
CIRCLE
  5
3BBA
  8
0
 10
192.66905557030799
 20
315.14413869597598
 30
0.0
 40
6.2500002690487548
  0
LINE
  5
3BBC
  8
0
 10
148.6690503145025
 20
141.14413442430961
 30
0.0
 11
149.6690523841084
 21
140.1441323547038
 31
0.0
  0
CIRCLE
  5
3BBF
  8
0
 10
160.6690541927783
 20
172.1441325401405
 30
0.0
 40
6.2500002690487548
  0
LINE
  5
3BC0
  8
0
 10
148.6690503145025
 20
141.14413442430961
 30
0.0
 11
148.6690503145025
 21
329.14413607999433
 31
0.0
  0
LINE
  5
3BC4
  8
0
 10
245.66905735116239
 20
140.1441323547038
 30
0.0
 11
246.66905942076821
 21
141.14413442430961
 31
0.0
  0
LINE
  5
3BC7
  8
0
 10
149.6690523841084
 20
330.14413814960011
 30
0.0
 11
148.6690503145025
 21
329.14413607999433
 31
0.0
  0
LINE
  5
3BCA
  8
0
 10
246.66905942076821
 20
329.14413607999433
 30
0.0
 11
246.66905942076821
 21
141.14413442430961
 31
0.0
  0
LINE
  5
3BCB
  8
0
 10
245.66905735116239
 20
330.14413814960011
 30
0.0
 11
246.66905942076821
 21
329.14413607999433
 31
0.0
  0
LINE
  5
3BCD
  8
0
 10
218.6690536258721
 20
187.14413276862501
 30
0.0
 11
220.66905776508361
 21
187.14413276862501
 31
0.0
  0
ARC
  5
3BCE
  8
0
 10
223.66905690478981
 20
187.1441331858575
 30
0.0
 40
3.0000001291433911
 50
180.0
 51
185.73917047726789
  0
LINE
  5
3BD3
  8
0
 10
238.66905776508361
 20
197.14413483823091
 30
0.0
 11
238.66905776508361
 21
273.14413566607311
 31
0.0
  0
ARC
  5
3BD5
  8
0
 10
228.66905712002881
 20
197.14413361633561
 30
0.0
 40
10.000000430478011
 50
270.0
 51
0.0
  0
ARC
  5
3BDD
  8
0
 10
223.66905690478981
 20
283.1441373184465
 30
0.0
 40
3.0000001291434621
 50
5.7391704772667644
 51
174.26082952273279
  0
CIRCLE
  5
3BDE
  8
0
 10
192.66905557030799
 20
172.1441325401405
 30
0.0
 40
6.2500002690487548
  0
ARC
  5
3BDF
  8
0
 10
218.6690566895509
 20
273.14413688796839
 30
0.0
 40
10.000000430478011
 50
90.0
 51
180.0
  0
LINE
  5
3BE1
  8
0
 10
149.6690523841084
 20
330.14413814960011
 30
0.0
 11
245.66905735116239
 21
330.14413814960011
 31
0.0
  0
ARC
  5
3BE2
  8
0
 10
218.6690566895509
 20
197.14413361633561
 30
0.0
 40
10.000000430478011
 50
180.0
 51
270.0
  0
LINE
  5
3BE4
  8
0
 10
245.66905735116239
 20
140.1441323547038
 30
0.0
 11
149.6690523841084
 21
140.1441323547038
 31
0.0
  0
LINE
  5
3BE5
  8
0
 10
208.66905528155669
 20
273.14413566607311
 30
0.0
 11
208.66905528155669
 21
197.14413483823091
 31
0.0
  0
CIRCLE
  5
3BE6
  8
0
 10
223.66905690478981
 20
260.14413632834697
 30
0.0
 40
6.2500002690487548
  0
CIRCLE
  5
3BE7
  8
0
 10
223.66905690478981
 20
210.14413417595691
 30
0.0
 40
6.2500002690487548
  0
ARC
  5
3BE8
  8
0
 10
223.66905690478981
 20
187.1441331858575
 30
0.0
 40
3.0000001291434448
 50
0.0
 51
180.0
  0
ARC
  5
3BE9
  8
0
 10
223.66905690478981
 20
283.1441373184465
 30
0.0
 40
3.0000001291434448
 50
180.0
 51
0.0
  0
CIRCLE
  5
3BEA
  8
0
 10
566.82207295668866
 20
235.1441352521519
 30
0.0
 40
6.2500002690487548
  0
CIRCLE
  5
3BEC
  8
0
 10
606.82207467860098
 20
198.6441336809072
 30
0.0
 40
6.2500002690487548
  0
CIRCLE
  5
3BEE
  8
0
 10
606.82207467860098
 20
271.64413682339682
 30
0.0
 40
6.2500002690487548
  0
CIRCLE
  5
3BFF
  8
0
 10
554.82207244011533
 20
172.1441325401405
 30
0.0
 40
6.2500002690487548
  0
CIRCLE
  5
3C00
  8
0
 10
554.82207244011533
 20
298.14413796416352
 30
0.0
 40
6.2500002690487548
  0
CIRCLE
  5
3C01
  8
0
 10
551.82207231097186
 20
235.1441352521519
 30
0.0
 40
4.0000001721911183
  0
CIRCLE
  5
3C02
  8
0
 10
582.82207364545366
 20
235.1441352521519
 30
0.0
 40
4.0000001721911183
  0
LINE
  5
3C04
  8
0
 10
640.82207769194702
 20
329.14413607999433
 30
0.0
 11
639.82207562234112
 21
330.14413814960011
 31
0.0
  0
LINE
  5
3C06
  8
0
 10
640.82207769194702
 20
329.14413607999433
 30
0.0
 11
640.82207769194702
 21
141.14413442430961
 31
0.0
  0
LINE
  5
3C09
  8
0
 10
639.82207562234112
 20
140.1441323547038
 30
0.0
 11
640.82207769194702
 21
141.14413442430961
 31
0.0
  0
LINE
  5
3C0B
  8
0
 10
542.82207231097175
 20
141.14413442430961
 30
0.0
 11
542.82207231097175
 21
329.14413607999433
 31
0.0
  0
LINE
  5
3C0D
  8
0
 10
639.82207562234112
 20
140.1441323547038
 30
0.0
 11
543.82207158660981
 21
140.1441323547038
 31
0.0
  0
CIRCLE
  5
3C0F
  8
0
 10
628.82207562565281
 20
155.14413180832781
 30
0.0
 40
6.2500002690487548
  0
LINE
  5
3C11
  8
0
 10
543.82207158660981
 20
330.14413814960011
 30
0.0
 11
639.82207562234112
 21
330.14413814960011
 31
0.0
  0
LINE
  5
3C12
  8
0
 10
543.82207158660981
 20
140.1441323547038
 30
0.0
 11
542.82207231097175
 21
141.14413442430961
 31
0.0
  0
CIRCLE
  5
3C13
  8
0
 10
628.82207562565281
 20
315.14413869597598
 30
0.0
 40
6.2500002690487548
  0
LINE
  5
3C14
  8
0
 10
543.82207158660981
 20
330.14413814960011
 30
0.0
 11
542.82207231097175
 21
329.14413607999433
 31
0.0
  0
CIRCLE
  5
3C15
  8
0
 10
554.82207244011533
 20
315.14413869597598
 30
0.0
 40
6.2500002690487548
  0
CIRCLE
  5
3C16
  8
0
 10
554.82207244011533
 20
155.14413180832781
 30
0.0
 40
6.2500002690487548
  0
CIRCLE
  5
3C17
  8
0
 10
628.82207562565281
 20
172.1441325401405
 30
0.0
 40
6.2500002690487548
  0
CIRCLE
  5
3C18
  8
0
 10
628.82207562565281
 20
298.14413796416352
 30
0.0
 40
6.2500002690487548
  0
CIRCLE
  5
3C19
  8
0
 10
606.82207467860098
 20
235.1441352521519
 30
0.0
 40
4.0000001721911183
  0
CIRCLE
  5
3C1A
  8
0
 10
606.82207467860098
 20
235.1441352521519
 30
0.0
 40
3.9000001678864291
  0
CIRCLE
  5
3C1B
  8
0
 10
582.82207364545366
 20
235.1441352521519
 30
0.0
 40
3.9000001678864291
  0
CIRCLE
  5
3C1C
  8
0
 10
551.82207231097186
 20
235.1441352521519
 30
0.0
 40
3.9000001678864291
  0
LINE
  5
3C1D
  8
0
 10
246.66905789488919
 20
329.1441392986452
 30
0.0
 11
246.66905789488919
 21
141.14413120565871
 31
0.0
  0
LINE
  5
3C62
  8
0
 10
246.1690583859654
 20
54.144132354703913
 30
0.0
 11
149.16905879988639
 21
54.144132354703913
 31
0.0
  0
LINE
  5
3C65
  8
0
 10
224.47994049749309
 20
54.64413239997657
 30
0.0
 11
224.5799421945699
 21
54.144132354703913
 31
0.0
  0
LINE
  5
3C69
  8
0
 10
231.3581752396349
 20
54.144132354703913
 30
0.0
 11
231.4581769367114
 21
54.64413239997657
 31
0.0
  0
LINE
  5
3C6A
  8
0
 10
148.6690503145025
 20
54.64413239997657
 30
0.0
 11
148.6690503145025
 21
89.144134010388598
 31
0.0
  0
LINE
  5
3C6D
  8
0
 10
148.6690503145025
 20
54.64413239997657
 30
0.0
 11
149.16905879988639
 21
54.144132354703913
 31
0.0
  0
LINE
  5
3C6E
  8
0
 10
222.55644637372481
 20
64.261610527606194
 30
0.0
 11
224.47994049749309
 21
54.64413239997657
 31
0.0
  0
LINE
  5
3C71
  8
0
 10
231.4581769367114
 20
54.64413239997657
 30
0.0
 11
233.3816710604797
 21
64.261610527606194
 31
0.0
  0
ARC
  5
3C72
  8
0
 10
228.96905713294311
 20
65.144132828229772
 30
0.0
 40
4.5000001937151293
 50
348.69006752598028
 51
90.0
  0
LINE
  5
3C73
  8
0
 10
228.96905706141749
 20
69.64413276862507
 30
0.0
 11
226.9690603727868
 21
69.64413276862507
 31
0.0
  0
ARC
  5
3C74
  8
0
 10
226.96905704684761
 20
65.144132828229772
 30
0.0
 40
4.5000001937151293
 50
90.0
 51
191.30993247402159
  0
LINE
  5
3C76
  8
0
 10
246.66905942076821
 20
89.144134010388598
 30
0.0
 11
246.66905942076821
 21
54.64413239997657
 31
0.0
  0
LINE
  5
3C77
  8
0
 10
246.1690583859654
 20
54.144132354703913
 30
0.0
 11
246.66905942076821
 21
54.64413239997657
 31
0.0
  0
LINE
  5
3C78
  8
0
 10
149.6690523841084
 20
90.144132354703899
 30
0.0
 11
245.66905735116239
 21
90.144132354703899
 31
0.0
  0
LINE
  5
3C7B
  8
0
 10
148.6690503145025
 20
89.144134010388598
 30
0.0
 11
149.6690523841084
 21
90.144132354703899
 31
0.0
  0
LINE
  5
3C7C
  8
0
 10
226.9690603727868
 20
65.14413276862507
 30
0.0
 11
227.9690549918119
 21
60.144132665144753
 31
0.0
  0
LINE
  5
3C7D
  8
0
 10
228.96905706141749
 20
65.14413276862507
 30
0.0
 11
226.9690603727868
 21
65.14413276862507
 31
0.0
  0
LINE
  5
3C7E
  8
0
 10
227.9690549918119
 20
60.144132665144753
 30
0.0
 11
228.96905706141749
 21
65.14413276862507
 31
0.0
  0
LINE
  5
3C7F
  8
0
 10
245.66905735116239
 20
90.144132354703899
 30
0.0
 11
246.66905942076821
 21
89.144134010388598
 31
0.0
  0
LINE
  5
3C82
  8
0
 10
640.82207769194702
 20
89.144134010388598
 30
0.0
 11
639.82207562234112
 21
90.144132354703899
 31
0.0
  0
LINE
  5
3C87
  8
0
 10
551.03295474328843
 20
54.64413239997657
 30
0.0
 11
551.13295469413526
 21
54.144132354703913
 31
0.0
  0
LINE
  5
3C8A
  8
0
 10
640.32207665714395
 20
54.144132354703913
 30
0.0
 11
543.32207148313
 21
54.144132354703913
 31
0.0
  0
LINE
  5
3C8B
  8
0
 10
557.91118995109127
 20
54.144132354703913
 30
0.0
 11
558.01119025118408
 21
54.64413239997657
 31
0.0
  0
ARC
  5
3C8F
  8
0
 10
555.52207247024865
 20
65.144132828229772
 30
0.0
 40
4.5000001937151293
 50
348.69006752598028
 51
90.0
  0
LINE
  5
3C90
  8
0
 10
555.52207247136619
 20
69.64413276862507
 30
0.0
 11
553.52207240669122
 21
69.64413276862507
 31
0.0
  0
ARC
  5
3C91
  8
0
 10
553.52207238415303
 20
65.144132828229772
 30
0.0
 40
4.5000001937151293
 50
90.0
 51
191.30993247402159
  0
LINE
  5
3C92
  8
0
 10
549.10945922253632
 20
64.261610527606194
 30
0.0
 11
551.03295474328843
 21
54.64413239997657
 31
0.0
  0
LINE
  5
3C93
  8
0
 10
558.01119025118408
 20
54.64413239997657
 30
0.0
 11
559.93468577193653
 21
64.261610527606194
 31
0.0
  0
LINE
  5
3C94
  8
0
 10
640.82207769194702
 20
89.144134010388598
 30
0.0
 11
640.82207769194702
 21
54.64413239997657
 31
0.0
  0
LINE
  5
3C95
  8
0
 10
640.32207665714395
 20
54.144132354703913
 30
0.0
 11
640.82207769194702
 21
54.64413239997657
 31
0.0
  0
LINE
  5
3C97
  8
0
 10
542.82207231097175
 20
54.64413239997657
 30
0.0
 11
543.32207148312955
 21
54.144132354703913
 31
0.0
  0
LINE
  5
3C98
  8
0
 10
542.82207231097175
 20
54.64413239997657
 30
0.0
 11
542.82207231097175
 21
89.144134010388598
 31
0.0
  0
LINE
  5
3C9A
  8
0
 10
543.82207158660981
 20
90.144132354703899
 30
0.0
 11
639.82207562234112
 21
90.144132354703899
 31
0.0
  0
LINE
  5
3C9B
  8
0
 10
543.82207158660981
 20
90.144132354703899
 30
0.0
 11
542.82207231097175
 21
89.144134010388598
 31
0.0
  0
LINE
  5
3C9C
  8
0
 10
554.52207249723642
 20
60.144132665144753
 30
0.0
 11
555.52207247136619
 21
65.14413276862507
 31
0.0
  0
LINE
  5
3C9D
  8
0
 10
553.52207240669122
 20
65.14413276862507
 30
0.0
 11
554.52207249723642
 21
60.144132665144753
 31
0.0
  0
LINE
  5
3C9E
  8
0
 10
555.52207247136619
 20
65.14413276862507
 30
0.0
 11
553.52207240669122
 21
65.14413276862507
 31
0.0
  0
LINE
  5
3CA0
  8
0
 10
62.969050341666389
 20
225.1441350451914
 30
0.0
 11
68.669050624943566
 21
225.1441350451914
 31
0.0
  0
LINE
  5
3CA4
  8
0
 10
62.91905033713897
 20
225.09413512797559
 30
0.0
 11
62.969050341666389
 21
225.1441350451914
 31
0.0
  0
LINE
  5
3CA5
  8
0
 10
63.169050359775383
 20
330.14413814960011
 30
0.0
 11
97.669051970187425
 21
330.14413814960011
 31
0.0
  0
LINE
  5
3CA9
  8
0
 10
63.169050359775383
 20
330.14413814960011
 30
0.0
 11
62.669050314502783
 21
329.64413711479722
 31
0.0
  0
LINE
  5
3CAD
  8
0
 10
62.669050314502783
 20
224.8441346105742
 30
0.0
 11
62.91905033713897
 21
225.09413512797559
 31
0.0
  0
LINE
  5
3CB0
  8
0
 10
62.91905033713897
 20
245.19413537632829
 30
0.0
 11
62.669050314502783
 21
245.44413589372979
 31
0.0
  0
LINE
  5
3CB1
  8
0
 10
62.669050314503011
 20
140.64413338950689
 30
0.0
 11
62.669050314502783
 21
329.64413711479722
 31
0.0
  0
CIRCLE
  5
3CB6
  8
0
 10
78.669051003267441
 20
235.1441352521519
 30
0.0
 40
4.3000001851055396
  0
LINE
  5
3CB8
  8
0
 10
97.669051970187425
 20
140.1441323547038
 30
0.0
 11
63.169050359775383
 21
140.1441323547038
 31
0.0
  0
LINE
  5
3CB9
  8
0
 10
62.669050314502783
 20
140.64413338950669
 30
0.0
 11
63.169050359775383
 21
140.1441323547038
 31
0.0
  0
LINE
  5
3CBB
  8
0
 10
68.669050624943566
 20
245.1441354591125
 30
0.0
 11
62.969050341666389
 21
245.1441354591125
 31
0.0
  0
LINE
  5
3CBC
  8
0
 10
62.969050341666389
 20
245.1441354591125
 30
0.0
 11
62.91905033713897
 21
245.19413537632829
 31
0.0
  0
LINE
  5
3CBD
  8
0
 10
68.669050624943566
 20
225.1441350451914
 30
0.0
 11
68.669050624943566
 21
245.1441354591125
 31
0.0
  0
CIRCLE
  5
3CBE
  8
0
 10
78.669051003267441
 20
235.1441352521519
 30
0.0
 40
4.0000001721911893
  0
LINE
  5
3CC0
  8
0
 10
98.669050314502783
 20
329.14413607999433
 30
0.0
 11
98.669050314502783
 21
141.14413442430961
 31
0.0
  0
LINE
  5
3CC2
  8
0
 10
98.669050314502783
 20
141.14413442430961
 30
0.0
 11
97.669051970187425
 21
140.1441323547038
 31
0.0
  0
LINE
  5
3CC3
  8
0
 10
97.669051970187425
 20
330.14413814960011
 30
0.0
 11
98.669050314502783
 21
329.14413607999433
 31
0.0
  0
CIRCLE
  5
3CC4
  8
0
 10
78.669051003267441
 20
235.1441352521519
 30
0.0
 40
3.400000146362486
  0
LINE
  5
3CC5
  8
0
 10
62.969050341665927
 20
245.1441354591125
 30
0.0
 11
62.969050341665927
 21
225.1441350451914
 31
0.0
  0
LINE
  5
3CC9
  8
0
 10
726.5720776693106
 20
225.09413512797559
 30
0.0
 11
726.82207769194702
 21
224.8441346105742
 31
0.0
  0
LINE
  5
3CCD
  8
0
 10
691.82207603626193
 20
330.14413814960011
 30
0.0
 11
726.32207764667419
 21
330.14413814960011
 31
0.0
  0
LINE
  5
3CCE
  8
0
 10
726.82207769194702
 20
329.64413711479722
 30
0.0
 11
726.32207764667419
 21
330.14413814960011
 31
0.0
  0
CIRCLE
  5
3CD7
  8
0
 10
710.82207700318213
 20
235.1441352521519
 30
0.0
 40
4.3000001851055396
  0
LINE
  5
3CD9
  8
0
 10
726.32207764667419
 20
140.1441323547038
 30
0.0
 11
726.82207769194702
 21
140.64413338950669
 31
0.0
  0
LINE
  5
3CDA
  8
0
 10
726.32207764667419
 20
140.1441323547038
 30
0.0
 11
691.82207603626193
 21
140.1441323547038
 31
0.0
  0
LINE
  5
3CDC
  8
0
 10
720.82207738150589
 20
225.1441350451914
 30
0.0
 11
726.52207766478341
 21
225.1441350451914
 31
0.0
  0
LINE
  5
3CDD
  8
0
 10
726.52207766478341
 20
225.1441350451914
 30
0.0
 11
726.5720776693106
 21
225.09413512797559
 31
0.0
  0
LINE
  5
3CDE
  8
0
 10
726.52207766478341
 20
245.1441354591125
 30
0.0
 11
720.82207738150589
 21
245.1441354591125
 31
0.0
  0
LINE
  5
3CE1
  8
0
 10
726.52207766478341
 20
245.1441354591125
 30
0.0
 11
726.5720776693106
 21
245.19413537632829
 31
0.0
  0
LINE
  5
3CE2
  8
0
 10
726.82207769194702
 20
329.64413711479722
 30
0.0
 11
726.82207769194702
 21
140.64413338950661
 31
0.0
  0
LINE
  5
3CE3
  8
0
 10
726.82207769194702
 20
245.44413589372979
 30
0.0
 11
726.5720776693106
 21
245.19413537632829
 31
0.0
  0
LINE
  5
3CE4
  8
0
 10
720.82207738150589
 20
245.1441354591125
 30
0.0
 11
720.82207738150589
 21
225.1441350451914
 31
0.0
  0
CIRCLE
  5
3CE5
  8
0
 10
710.82207700318213
 20
235.1441352521519
 30
0.0
 40
4.0000001721911183
  0
LINE
  5
3CE6
  8
0
 10
690.82207769194702
 20
329.14413607999433
 30
0.0
 11
691.82207603626193
 21
330.14413814960011
 31
0.0
  0
LINE
  5
3CE8
  8
0
 10
691.82207603626193
 20
140.1441323547038
 30
0.0
 11
690.82207769194702
 21
141.14413442430961
 31
0.0
  0
LINE
  5
3CEA
  8
0
 10
690.82207769194702
 20
141.14413442430961
 30
0.0
 11
690.82207769194702
 21
329.14413607999433
 31
0.0
  0
CIRCLE
  5
3CEB
  8
0
 10
710.82207700318213
 20
235.1441352521519
 30
0.0
 40
3.4000001463625571
  0
LINE
  5
3CEC
  8
0
 10
726.52207766478341
 20
225.1441350451914
 30
0.0
 11
726.52207766478341
 21
245.1441354591125
 31
0.0
  0
CIRCLE
  5
3CF1
  8
0
 10
316.66905875584553
 20
235.1441352521519
 30
0.0
 40
4.3000001851056124
  0
CIRCLE
  5
3CF6
  8
0
 10
316.66905875584553
 20
235.1441352521519
 30
0.0
 40
4.0000001721911183
  0
LINE
  5
3CF7
  8
0
 10
296.66905789488942
 20
141.14413120565871
 30
0.0
 11
296.66905789488942
 21
329.1441392986452
 31
0.0
  0
CIRCLE
  5
3CFA
  8
0
 10
316.66905875584553
 20
235.1441352521519
 30
0.0
 40
3.4000001463625571
  0
LINE
  5
3D04
  8
0
 10
331.66905735116262
 20
330.14413814960011
 30
0.0
 11
297.66905674584399
 21
330.14413814960011
 31
0.0
  0
LINE
  5
3D05
  8
0
 10
332.66905789488942
 20
141.14413120565871
 30
0.0
 11
332.66905789488942
 21
329.1441392986452
 31
0.0
  0
LINE
  5
3D06
  8
0
 10
331.66905735116262
 20
330.14413814960011
 30
0.0
 11
332.66905942076841
 21
329.14413607999433
 31
0.0
  0
LINE
  5
3D07
  8
0
 10
297.66905996449509
 20
330.1441413682511
 30
0.0
 11
296.66905789488919
 21
329.1441392986452
 31
0.0
  0
LINE
  5
3D08
  8
0
 10
297.66905996449509
 20
140.14412913605281
 30
0.0
 11
296.66905789488919
 21
141.14413120565871
 31
0.0
  0
LINE
  5
3D09
  8
0
 10
331.66905735116262
 20
140.14413235470369
 30
0.0
 11
332.66905942076841
 21
141.14413442430961
 31
0.0
  0
LINE
  5
3D0A
  8
0
 10
331.66905735116262
 20
140.14413235470369
 30
0.0
 11
297.66905674584399
 21
140.14413235470369
 31
0.0
  0
LINE
  5
3D0B
  8
1
 10
291.66906030556652
 20
235.1441352521519
 30
0.0
 11
337.66905875584598
 21
235.1441352521519
 31
0.0
  0
LINE
  5
3D0C
  8
1
 10
497.8220699002942
 20
235.1441352521519
 30
0.0
 11
451.82207145001479
 21
235.1441352521519
 31
0.0
  0
LINE
  5
3D0D
  8
0
 10
457.82207285469821
 20
140.14413235470369
 30
0.0
 11
491.82207346001678
 21
140.14413235470369
 31
0.0
  0
LINE
  5
3D0E
  8
0
 10
457.82207285469821
 20
140.14413235470369
 30
0.0
 11
456.82207078509231
 21
141.14413442430961
 31
0.0
  0
LINE
  5
3D0F
  8
0
 10
491.82207024136568
 20
140.14412913605281
 30
0.0
 11
492.82207231097158
 21
141.14413120565871
 31
0.0
  0
LINE
  5
3D10
  8
0
 10
491.82207024136568
 20
330.1441413682511
 30
0.0
 11
492.82207231097158
 21
329.1441392986452
 31
0.0
  0
LINE
  5
3D11
  8
0
 10
457.82207285469821
 20
330.14413814960011
 30
0.0
 11
456.82207078509231
 21
329.14413607999433
 31
0.0
  0
LINE
  5
3D12
  8
0
 10
456.82207231097141
 20
141.14413120565871
 30
0.0
 11
456.82207231097141
 21
329.1441392986452
 31
0.0
  0
LINE
  5
3D13
  8
0
 10
457.82207285469821
 20
330.14413814960011
 30
0.0
 11
491.82207346001678
 21
330.14413814960011
 31
0.0
  0
CIRCLE
  5
3D14
  8
0
 10
472.82207145001519
 20
235.1441352521519
 30
0.0
 40
3.4000001463625571
  0
LINE
  5
3D15
  8
0
 10
492.82207231097129
 20
141.14413120565871
 30
0.0
 11
492.82207231097129
 21
329.1441392986452
 31
0.0
  0
CIRCLE
  5
3D16
  8
0
 10
472.82207145001519
 20
235.1441352521519
 30
0.0
 40
4.0000001721911183
  0
CIRCLE
  5
3D17
  8
0
 10
472.82207145001519
 20
235.1441352521519
 30
0.0
 40
4.3000001851056124
  0
LINE
  5
3D1C
  8
1
 10
57.669052725179881
 20
235.1441352521519
 30
0.0
 11
103.6690511754593
 21
235.1441352521519
 31
0.0
  0
LINE
  5
3D1D
  8
1
 10
731.82207528126992
 20
235.1441352521519
 30
0.0
 11
685.82207683099023
 21
235.1441352521519
 31
0.0
  0
LINE
  5
3D1E
  8
1
 10
197.6690548676354
 20
95.144132354703899
 30
0.0
 11
197.6690548676354
 21
49.144133904424621
 31
0.0
  0
LINE
  5
3D20
  8
1
 10
591.82207360447535
 20
95.144132354703899
 30
0.0
 11
591.82207360447535
 21
49.144133904424621
 31
0.0
  0
LINE
  5
3D29
  8
1
 10
566.07207244011533
 20
315.14413869597598
 30
0.0
 11
543.57207244011533
 21
315.14413869597598
 31
0.0
  0
LINE
  5
3D2A
  8
1
 10
554.82207244011533
 20
326.3941386959761
 30
0.0
 11
554.82207244011533
 21
286.89413796416352
 31
0.0
  0
LINE
  5
3D2B
  8
1
 10
566.07207244011533
 20
298.14413796416352
 30
0.0
 11
543.57207244011533
 21
298.14413796416352
 31
0.0
  0
LINE
  5
3D2F
  8
1
 10
640.07207562565281
 20
298.14413796416352
 30
0.0
 11
617.57207562565281
 21
298.14413796416352
 31
0.0
  0
LINE
  5
3D30
  8
1
 10
628.82207562565281
 20
326.3941386959761
 30
0.0
 11
628.82207562565281
 21
286.89413796416352
 31
0.0
  0
LINE
  5
3D31
  8
1
 10
640.07207562565281
 20
315.14413869597598
 30
0.0
 11
617.57207562565281
 21
315.14413869597598
 31
0.0
  0
LINE
  5
3D34
  8
1
 10
640.07207562565281
 20
155.14413180832781
 30
0.0
 11
617.57207562565281
 21
155.14413180832781
 31
0.0
  0
LINE
  5
3D35
  8
1
 10
640.07207562565281
 20
172.14413254014039
 30
0.0
 11
617.57207562565281
 21
172.14413254014039
 31
0.0
  0
LINE
  5
3D36
  8
1
 10
566.07207244011533
 20
172.14413254014039
 30
0.0
 11
543.57207244011533
 21
172.14413254014039
 31
0.0
  0
LINE
  5
3D37
  8
1
 10
566.07207244011533
 20
155.14413180832781
 30
0.0
 11
543.57207244011533
 21
155.14413180832781
 31
0.0
  0
LINE
  5
3D38
  8
1
 10
628.82207562565281
 20
143.89413180832781
 30
0.0
 11
628.82207562565281
 21
183.39413254014039
 31
0.0
  0
LINE
  5
3D39
  8
1
 10
554.82207244011533
 20
143.89413180832781
 30
0.0
 11
554.82207244011533
 21
183.39413254014039
 31
0.0
  0
LINE
  5
3D3A
  8
1
 10
618.07207467860087
 20
271.64413682339682
 30
0.0
 11
595.57207467860098
 21
271.64413682339682
 31
0.0
  0
LINE
  5
3D3B
  8
1
 10
606.82207467860098
 20
282.89413682339682
 30
0.0
 11
606.82207467860098
 21
260.39413682339682
 31
0.0
  0
LINE
  5
3D3C
  8
1
 10
618.07207467860087
 20
198.6441336809072
 30
0.0
 11
595.57207467860098
 21
198.6441336809072
 31
0.0
  0
LINE
  5
3D3D
  8
1
 10
606.82207467860098
 20
209.8941336809072
 30
0.0
 11
606.82207467860098
 21
187.3941336809072
 31
0.0
  0
LINE
  5
3D3E
  8
1
 10
606.82207295668866
 20
244.14413525215201
 30
0.0
 11
606.82207295668866
 21
226.14413525215201
 31
0.0
  0
LINE
  5
3D3F
  8
1
 10
582.82207295668854
 20
244.14413525215201
 30
0.0
 11
582.82207295668854
 21
226.14413525215201
 31
0.0
  0
LINE
  5
3D40
  8
1
 10
551.82207295668877
 20
244.14413525215201
 30
0.0
 11
551.82207295668877
 21
226.14413525215201
 31
0.0
  0
LINE
  5
3D41
  8
1
 10
566.82207295668866
 20
246.39413525215201
 30
0.0
 11
566.82207295668866
 21
223.89413525215201
 31
0.0
  0
LINE
  5
3D43
  8
1
 10
645.82207769194724
 20
235.14413525215201
 30
0.0
 11
537.82207231097175
 21
235.1441352521519
 31
0.0
  0
LINE
  5
3D46
  8
1
 10
143.6690503145025
 20
235.1441352521519
 30
0.0
 11
251.66904030092221
 21
235.1441352521519
 31
0.0
  0
LINE
  5
3D47
  8
1
 10
160.6690541927783
 20
326.3941386959761
 30
0.0
 11
160.6690541927783
 21
286.89413796416352
 31
0.0
  0
LINE
  5
3D48
  8
1
 10
171.9190541927783
 20
315.14413869597598
 30
0.0
 11
149.4190541927783
 21
315.14413869597598
 31
0.0
  0
LINE
  5
3D4A
  8
1
 10
171.9190541927783
 20
298.14413796416352
 30
0.0
 11
149.4190541927783
 21
298.14413796416352
 31
0.0
  0
LINE
  5
3D4B
  8
1
 10
203.91905557030799
 20
298.14413796416352
 30
0.0
 11
181.41905557030799
 21
298.14413796416352
 31
0.0
  0
LINE
  5
3D4C
  8
1
 10
203.91905557030799
 20
315.14413869597598
 30
0.0
 11
181.41905557030799
 21
315.14413869597598
 31
0.0
  0
LINE
  5
3D4D
  8
1
 10
192.66905557030799
 20
326.3941386959761
 30
0.0
 11
192.66905557030799
 21
286.89413796416352
 31
0.0
  0
LINE
  5
3D4E
  8
1
 10
171.9190541927783
 20
155.14413180832801
 30
0.0
 11
149.4190541927783
 21
155.14413180832801
 31
0.0
  0
LINE
  5
3D4F
  8
1
 10
171.9190541927783
 20
172.1441325401405
 30
0.0
 11
149.4190541927783
 21
172.1441325401405
 31
0.0
  0
LINE
  5
3D50
  8
1
 10
160.6690541927783
 20
183.3941325401405
 30
0.0
 11
160.6690541927783
 21
143.89413180832801
 31
0.0
  0
LINE
  5
3D51
  8
1
 10
203.91905557030799
 20
155.14413180832801
 30
0.0
 11
181.41905557030799
 21
155.14413180832801
 31
0.0
  0
LINE
  5
3D52
  8
1
 10
203.91905557030799
 20
172.1441325401405
 30
0.0
 11
181.41905557030799
 21
172.1441325401405
 31
0.0
  0
LINE
  5
3D53
  8
1
 10
192.66905557030799
 20
183.3941325401405
 30
0.0
 11
192.66905557030799
 21
143.89413180832801
 31
0.0
  0
LINE
  5
3D54
  8
1
 10
223.66905690478981
 20
291.14413632834692
 30
0.0
 11
223.66905690478981
 21
179.144136328347
 31
0.0
  0
LINE
  5
3D55
  8
1
 10
234.91905690478981
 20
260.14413632834697
 30
0.0
 11
212.4190569047899
 21
260.14413632834697
 31
0.0
  0
LINE
  5
3D56
  8
1
 10
234.91905690478981
 20
210.14413632834689
 30
0.0
 11
212.4190569047899
 21
210.14413632834689
 31
0.0
  0
TEXT
  5
3DFD
  8
0
 62
     3
 10
0.0
 20
0.0
 30
0.0
 40
10.0
  1
SCS-BP190
  7
STANDARD1
  0
ENDSEC
  0
EOF
