  0
SECTION
  2
HEADER
  9
$ACADVER
  1
AC1009
  9
$INSBASE
 10
0.0
 20
0.0
 30
0.0
  9
$EXTMIN
 10
0.0
 20
-1.4802182810368341
 30
0.0
  9
$EXTMAX
 10
296.73571970139938
 20
219.26412228619839
 30
0.0
  9
$LIMMIN
 10
0.0
 20
0.0
  9
$LIMMAX
 10
385.0
 20
270.0
  9
$ORTHOMODE
 70
     1
  9
$REGENMODE
 70
     1
  9
$FILLMODE
 70
     1
  9
$QTEXTMODE
 70
     0
  9
$MIRRTEXT
 70
     0
  9
$DRAGMODE
 70
     2
  9
$LTSCALE
 40
10.0
  9
$OSMODE
 70
    55
  9
$ATTMODE
 70
     1
  9
$TEXTSIZE
 40
4.000000000000048
  9
$TRACEWID
 40
0.05
  9
$TEXTSTYLE
  7
STANDARD
  9
$CLAYER
  8
0
  9
$CELTYPE
  6
BYLAYER
  9
$CECOLOR
 62
   256
  9
$DIMSCALE
 40
1.0
  9
$DIMASZ
 40
3.0
  9
$DIMEXO
 40
2.0
  9
$DIMDLI
 40
0.38
  9
$DIMRND
 40
0.0
  9
$DIMDLE
 40
0.0
  9
$DIMEXE
 40
2.0
  9
$DIMTP
 40
0.0
  9
$DIMTM
 40
0.0
  9
$DIMTXT
 40
3.0
  9
$DIMCEN
 40
0.0
  9
$DIMTSZ
 40
0.0
  9
$DIMTOL
 70
     0
  9
$DIMLIM
 70
     0
  9
$DIMTIH
 70
     0
  9
$DIMTOH
 70
     0
  9
$DIMSE1
 70
     0
  9
$DIMSE2
 70
     0
  9
$DIMTAD
 70
     1
  9
$DIMZIN
 70
     0
  9
$DIMBLK
  1

  9
$DIMASO
 70
     1
  9
$DIMSHO
 70
     0
  9
$DIMPOST
  1

  9
$DIMAPOST
  1

  9
$DIMALT
 70
     0
  9
$DIMALTD
 70
     2
  9
$DIMALTF
 40
25.399999999999999
  9
$DIMLFAC
 40
1.0
  9
$DIMTOFL
 70
     1
  9
$DIMTVP
 40
1.6000000000000001
  9
$DIMTIX
 70
     1
  9
$DIMSOXD
 70
     0
  9
$DIMSAH
 70
     0
  9
$DIMBLK1
  1

  9
$DIMBLK2
  1

  9
$DIMSTYLE
  2
STANDARD
  9
$DIMCLRD
 70
     0
  9
$DIMCLRE
 70
     0
  9
$DIMCLRT
 70
     0
  9
$DIMTFAC
 40
1.0
  9
$DIMGAP
 40
1.0
  9
$LUNITS
 70
     2
  9
$LUPREC
 70
     4
  9
$SKETCHINC
 40
0.1
  9
$FILLETRAD
 40
0.0
  9
$AUNITS
 70
     0
  9
$AUPREC
 70
     4
  9
$MENU
  1
E:\r13\win\SUPPORT\ACAD
  9
$ELEVATION
 40
0.0
  9
$PELEVATION
 40
0.0
  9
$THICKNESS
 40
0.0
  9
$LIMCHECK
 70
     0
  9
$BLIPMODE
 70
     0
  9
$CHAMFERA
 40
0.0
  9
$CHAMFERB
 40
0.0
  9
$SKPOLY
 70
     0
  9
$TDCREATE
 40
2450280.598206134
  9
$TDUPDATE
 40
2456598.4896377199
  9
$TDINDWG
 40
0.0813584954
  9
$TDUSRTIMER
 40
0.0813584954
  9
$USRTIMER
 70
     1
  9
$ANGBASE
 50
0.0
  9
$ANGDIR
 70
     0
  9
$PDMODE
 70
     0
  9
$PDSIZE
 40
0.0
  9
$PLINEWID
 40
0.0
  9
$COORDS
 70
     1
  9
$SPLFRAME
 70
     0
  9
$SPLINETYPE
 70
     6
  9
$SPLINESEGS
 70
     8
  9
$ATTDIA
 70
     0
  9
$ATTREQ
 70
     1
  9
$HANDLING
 70
     1
  9
$HANDSEED
  5
1A90
  9
$SURFTAB1
 70
     6
  9
$SURFTAB2
 70
     6
  9
$SURFTYPE
 70
     6
  9
$SURFU
 70
     6
  9
$SURFV
 70
     6
  9
$UCSNAME
  2

  9
$UCSORG
 10
0.0
 20
0.0
 30
0.0
  9
$UCSXDIR
 10
1.0
 20
0.0
 30
0.0
  9
$UCSYDIR
 10
0.0
 20
1.0
 30
0.0
  9
$PUCSNAME
  2

  9
$PUCSORG
 10
0.0
 20
0.0
 30
0.0
  9
$PUCSXDIR
 10
1.0
 20
0.0
 30
0.0
  9
$PUCSYDIR
 10
0.0
 20
1.0
 30
0.0
  9
$USERI1
 70
     3
  9
$USERI2
 70
     1
  9
$USERI3
 70
     1
  9
$USERI4
 70
     0
  9
$USERI5
 70
     0
  9
$USERR1
 40
1.0
  9
$USERR2
 40
3.0
  9
$USERR3
 40
3.0
  9
$USERR4
 40
3.0
  9
$USERR5
 40
10.0
  9
$WORLDVIEW
 70
     1
  9
$SHADEDGE
 70
     3
  9
$SHADEDIF
 70
    70
  9
$TILEMODE
 70
     1
  9
$MAXACTVP
 70
    16
  9
$PLIMCHECK
 70
     0
  9
$PEXTMIN
 10
1.0000000000000000E+020
 20
1.0000000000000000E+020
 30
1.0000000000000000E+020
  9
$PEXTMAX
 10
-1.0000000000000000E+020
 20
-1.0000000000000000E+020
 30
-1.0000000000000000E+020
  9
$PLIMMIN
 10
0.0
 20
0.0
  9
$PLIMMAX
 10
12.0
 20
9.0
  9
$UNITMODE
 70
     0
  9
$VISRETAIN
 70
     0
  9
$PLINEGEN
 70
     0
  9
$PSLTSCALE
 70
     0
  0
ENDSEC
  0
SECTION
  2
TABLES
  0
TABLE
  2
VPORT
 70
     1
  0
VPORT
  2
*ACTIVE
 70
     0
 10
0.0
 20
0.0
 11
1.0
 21
1.0
 12
192.49412581440311
 22
175.433388831352
 13
0.0
 23
0.0
 14
5.0
 24
5.0
 15
10.0
 25
10.0
 16
0.0
 26
0.0
 36
1.0
 17
0.0
 27
0.0
 37
0.0
 40
356.9701552237488
 41
1.7807262569832401
 42
50.0
 43
0.0
 44
0.0
 50
0.0
 51
0.0
 71
     0
 72
   500
 73
     1
 74
     0
 75
     0
 76
     0
 77
     0
 78
     2
  0
ENDTAB
  0
TABLE
  2
LTYPE
 70
     3
  0
LTYPE
  2
CONTINUOUS
 70
     0
  3
Solid Line
 72
    65
 73
     0
 40
0.0
  0
LTYPE
  2
CENTER
 70
     0
  3
____ _ ____ _ ____ _ ____ _ ____ _ ____ _ ____
 72
    65
 73
     4
 40
2.0
 49
1.25
 49
-0.25
 49
0.25
 49
-0.25
  0
LTYPE
  2
PHANTOM2
 70
     0
  3
___ _ _ ___ _ _ ___ _ _ ___ _ _
 72
    65
 73
     6
 40
1.25
 49
0.625
 49
-0.125
 49
0.125
 49
-0.125
 49
0.125
 49
-0.125
  0
ENDTAB
  0
TABLE
  2
LAYER
 70
     3
  0
LAYER
  2
0
 70
     0
 62
     7
  6
CONTINUOUS
  0
LAYER
  2
1
 70
     0
 62
     1
  6
CENTER
  0
LAYER
  2
3
 70
     0
 62
     3
  6
CONTINUOUS
  0
ENDTAB
  0
TABLE
  2
STYLE
 70
     2
  0
STYLE
  2
STANDARD
 70
     0
 40
0.0
 41
1.0
 50
0.0
 71
     0
 42
4.000000000000048
  3
SIMPLEX
  4
BIGFONT
  0
STYLE
  2
STANDARD1
 70
     0
 40
0.0
 41
1.0
 50
0.0
 71
     0
 42
3.0
  3
txt
  4

  0
ENDTAB
  0
TABLE
  2
VIEW
 70
     0
  0
ENDTAB
  0
TABLE
  2
UCS
 70
     0
  0
ENDTAB
  0
TABLE
  2
APPID
 70
     3
  0
APPID
  2
ACAD
 70
     0
  0
APPID
  2
ACAD_MLEADERVER
 70
     0
  0
APPID
  2
ACAD_NAV_VCDISPLAY
 70
     0
  0
ENDTAB
  0
TABLE
  2
DIMSTYLE
 70
     1
  0
DIMSTYLE
  2
STANDARD
 70
     0
  3

  4

  5

  6

  7

 40
1.0
 41
0.18
 42
0.0625
 43
0.38
 44
0.18
 45
0.0
 46
0.0
 47
0.0
 48
0.0
140
0.18
141
0.09
142
0.0
143
25.399999999999999
144
1.0
145
0.0
146
1.0
147
0.09
 71
     0
 72
     0
 73
     1
 74
     1
 75
     0
 76
     0
 77
     0
 78
     0
170
     0
171
     2
172
     0
173
     0
174
     0
175
     0
176
     0
177
     0
178
     0
  0
ENDTAB
  0
ENDSEC
  0
SECTION
  2
BLOCKS
  0
BLOCK
  8
0
  2
$MODEL_SPACE
 70
     0
 10
0.0
 20
0.0
 30
0.0
  3
$MODEL_SPACE
  1

  0
ENDBLK
  5
191E
  8
0
  0
BLOCK
 67
     1
  8
0
  2
$PAPER_SPACE
 70
     0
 10
0.0
 20
0.0
 30
0.0
  3
$PAPER_SPACE
  1

  0
ENDBLK
  5
191C
 67
     1
  8
0
  0
BLOCK
  8
0
  2
STDGX5
 70
     0
 10
0.0
 20
0.0
 30
0.0
  3
STDGX5
  1

  0
ENDBLK
  5
100F
  8
0
  0
ENDSEC
  0
SECTION
  2
ENTITIES
  0
INSERT
  5
1039
  8
0
  2
STDGX5
 10
0.0
 20
0.0
 30
0.0
 41
0.25
 42
0.25
 43
0.25
  0
INSERT
  5
103A
  8
0
  2
STDGX5
 10
0.0
 20
0.0
 30
0.0
 41
0.25
 42
0.25
 43
0.25
  0
INSERT
  5
103B
  8
0
  2
STDGX5
 10
68.75
 20
0.0
 30
0.0
 41
0.25
 42
0.25
 43
0.25
  0
INSERT
  5
103C
  8
0
  2
STDGX5
 10
68.75
 20
0.0
 30
0.0
 41
0.25
 42
0.25
 43
0.25
  0
INSERT
  5
103D
  8
0
  2
STDGX5
 10
0.0
 20
0.0
 30
0.0
 41
0.5
 42
0.5
 43
0.5
  0
INSERT
  5
103E
  8
0
  2
STDGX5
 10
0.0
 20
0.0
 30
0.0
 41
0.5
 42
0.5
 43
0.5
  0
INSERT
  5
103F
  8
0
  2
STDGX5
 10
137.5
 20
0.0
 30
0.0
 41
0.5
 42
0.5
 43
0.5
  0
INSERT
  5
1040
  8
0
  2
STDGX5
 10
137.5
 20
0.0
 30
0.0
 41
0.5
 42
0.5
 43
0.5
  0
INSERT
  5
1042
  8
0
  2
STDGX5
 10
-35.0
 20
-100.0
 30
0.0
 41
0.3333333333333333
 42
0.3333333333333333
 43
0.3333333333333333
  0
INSERT
  5
1043
  8
0
  2
STDGX5
 10
-35.0
 20
-100.0
 30
0.0
 41
0.3333333333333333
 42
0.3333333333333333
 43
0.3333333333333333
  0
INSERT
  5
1044
  8
0
  2
STDGX5
 10
56.666666666666643
 20
-100.0
 30
0.0
 41
0.3333333333333333
 42
0.3333333333333333
 43
0.3333333333333333
  0
INSERT
  5
1045
  8
0
  2
STDGX5
 10
56.666666666666643
 20
-100.0
 30
0.0
 41
0.3333333333333333
 42
0.3333333333333333
 43
0.3333333333333333
  0
INSERT
  5
1047
  8
0
  2
STDGX5
 10
-35.0
 20
-100.0
 30
0.0
 41
0.3333333333333333
 42
0.3333333333333333
 43
0.3333333333333333
  0
INSERT
  5
1048
  8
0
  2
STDGX5
 10
-35.0
 20
-100.0
 30
0.0
 41
0.3333333333333333
 42
0.3333333333333333
 43
0.3333333333333333
  0
INSERT
  5
1049
  8
0
  2
STDGX5
 10
56.666666666666657
 20
-100.0
 30
0.0
 41
0.3333333333333333
 42
0.3333333333333333
 43
0.3333333333333333
  0
INSERT
  5
104A
  8
0
  2
STDGX5
 10
56.666666666666657
 20
-100.0
 30
0.0
 41
0.3333333333333333
 42
0.3333333333333333
 43
0.3333333333333333
  0
INSERT
  5
104B
  8
0
  2
STDGX5
 10
0.0
 20
0.0
 30
0.0
  0
INSERT
  5
104C
  8
0
  2
STDGX5
 10
0.0
 20
0.0
 30
0.0
  0
INSERT
  5
104D
  8
0
  2
STDGX5
 10
275.0
 20
0.0
 30
0.0
  0
INSERT
  5
104E
  8
0
  2
STDGX5
 10
275.0
 20
0.0
 30
0.0
  0
INSERT
  5
1263
  8
0
  2
STDGX5
 10
0.0
 20
0.0
 30
0.0
 41
0.25
 42
0.25
 43
0.25
  0
INSERT
  5
1264
  8
0
  2
STDGX5
 10
0.0
 20
0.0
 30
0.0
 41
0.25
 42
0.25
 43
0.25
  0
INSERT
  5
1265
  8
0
  2
STDGX5
 10
68.75
 20
0.0
 30
0.0
 41
0.25
 42
0.25
 43
0.25
  0
INSERT
  5
1266
  8
0
  2
STDGX5
 10
68.75
 20
0.0
 30
0.0
 41
0.25
 42
0.25
 43
0.25
  0
INSERT
  5
1267
  8
0
  2
STDGX5
 10
0.0
 20
0.0
 30
0.0
 41
0.5
 42
0.5
 43
0.5
  0
INSERT
  5
1268
  8
0
  2
STDGX5
 10
0.0
 20
0.0
 30
0.0
 41
0.5
 42
0.5
 43
0.5
  0
INSERT
  5
1269
  8
0
  2
STDGX5
 10
137.5
 20
0.0
 30
0.0
 41
0.5
 42
0.5
 43
0.5
  0
INSERT
  5
126A
  8
0
  2
STDGX5
 10
137.5
 20
0.0
 30
0.0
 41
0.5
 42
0.5
 43
0.5
  0
INSERT
  5
126C
  8
0
  2
STDGX5
 10
-35.0
 20
-100.0
 30
0.0
 41
0.3333333333333333
 42
0.3333333333333333
 43
0.3333333333333333
  0
INSERT
  5
126D
  8
0
  2
STDGX5
 10
-35.0
 20
-100.0
 30
0.0
 41
0.3333333333333333
 42
0.3333333333333333
 43
0.3333333333333333
  0
INSERT
  5
126E
  8
0
  2
STDGX5
 10
56.666666666666643
 20
-100.0
 30
0.0
 41
0.3333333333333333
 42
0.3333333333333333
 43
0.3333333333333333
  0
INSERT
  5
126F
  8
0
  2
STDGX5
 10
56.666666666666643
 20
-100.0
 30
0.0
 41
0.3333333333333333
 42
0.3333333333333333
 43
0.3333333333333333
  0
INSERT
  5
1271
  8
0
  2
STDGX5
 10
-35.0
 20
-100.0
 30
0.0
 41
0.3333333333333333
 42
0.3333333333333333
 43
0.3333333333333333
  0
INSERT
  5
1272
  8
0
  2
STDGX5
 10
-35.0
 20
-100.0
 30
0.0
 41
0.3333333333333333
 42
0.3333333333333333
 43
0.3333333333333333
  0
INSERT
  5
1273
  8
0
  2
STDGX5
 10
56.666666666666657
 20
-100.0
 30
0.0
 41
0.3333333333333333
 42
0.3333333333333333
 43
0.3333333333333333
  0
INSERT
  5
1274
  8
0
  2
STDGX5
 10
56.666666666666657
 20
-100.0
 30
0.0
 41
0.3333333333333333
 42
0.3333333333333333
 43
0.3333333333333333
  0
INSERT
  5
1275
  8
0
  2
STDGX5
 10
0.0
 20
0.0
 30
0.0
  0
INSERT
  5
1276
  8
0
  2
STDGX5
 10
0.0
 20
0.0
 30
0.0
  0
INSERT
  5
1277
  8
0
  2
STDGX5
 10
275.0
 20
0.0
 30
0.0
  0
INSERT
  5
1278
  8
0
  2
STDGX5
 10
275.0
 20
0.0
 30
0.0
  0
INSERT
  5
1487
  8
0
  2
STDGX5
 10
0.0
 20
0.0
 30
0.0
 41
0.25
 42
0.25
 43
0.25
  0
INSERT
  5
1488
  8
0
  2
STDGX5
 10
0.0
 20
0.0
 30
0.0
 41
0.25
 42
0.25
 43
0.25
  0
INSERT
  5
1489
  8
0
  2
STDGX5
 10
68.75
 20
0.0
 30
0.0
 41
0.25
 42
0.25
 43
0.25
  0
INSERT
  5
148A
  8
0
  2
STDGX5
 10
68.75
 20
0.0
 30
0.0
 41
0.25
 42
0.25
 43
0.25
  0
INSERT
  5
148B
  8
0
  2
STDGX5
 10
0.0
 20
0.0
 30
0.0
 41
0.5
 42
0.5
 43
0.5
  0
INSERT
  5
148C
  8
0
  2
STDGX5
 10
0.0
 20
0.0
 30
0.0
 41
0.5
 42
0.5
 43
0.5
  0
INSERT
  5
148D
  8
0
  2
STDGX5
 10
137.5
 20
0.0
 30
0.0
 41
0.5
 42
0.5
 43
0.5
  0
INSERT
  5
148E
  8
0
  2
STDGX5
 10
137.5
 20
0.0
 30
0.0
 41
0.5
 42
0.5
 43
0.5
  0
INSERT
  5
1490
  8
0
  2
STDGX5
 10
-35.0
 20
-100.0
 30
0.0
 41
0.3333333333333333
 42
0.3333333333333333
 43
0.3333333333333333
  0
INSERT
  5
1491
  8
0
  2
STDGX5
 10
-35.0
 20
-100.0
 30
0.0
 41
0.3333333333333333
 42
0.3333333333333333
 43
0.3333333333333333
  0
INSERT
  5
1492
  8
0
  2
STDGX5
 10
56.666666666666643
 20
-100.0
 30
0.0
 41
0.3333333333333333
 42
0.3333333333333333
 43
0.3333333333333333
  0
INSERT
  5
1493
  8
0
  2
STDGX5
 10
56.666666666666643
 20
-100.0
 30
0.0
 41
0.3333333333333333
 42
0.3333333333333333
 43
0.3333333333333333
  0
INSERT
  5
1495
  8
0
  2
STDGX5
 10
-35.0
 20
-100.0
 30
0.0
 41
0.3333333333333333
 42
0.3333333333333333
 43
0.3333333333333333
  0
INSERT
  5
1496
  8
0
  2
STDGX5
 10
-35.0
 20
-100.0
 30
0.0
 41
0.3333333333333333
 42
0.3333333333333333
 43
0.3333333333333333
  0
INSERT
  5
1497
  8
0
  2
STDGX5
 10
56.666666666666657
 20
-100.0
 30
0.0
 41
0.3333333333333333
 42
0.3333333333333333
 43
0.3333333333333333
  0
INSERT
  5
1498
  8
0
  2
STDGX5
 10
56.666666666666657
 20
-100.0
 30
0.0
 41
0.3333333333333333
 42
0.3333333333333333
 43
0.3333333333333333
  0
INSERT
  5
1499
  8
0
  2
STDGX5
 10
0.0
 20
0.0
 30
0.0
  0
INSERT
  5
149A
  8
0
  2
STDGX5
 10
0.0
 20
0.0
 30
0.0
  0
INSERT
  5
149B
  8
0
  2
STDGX5
 10
275.0
 20
0.0
 30
0.0
  0
INSERT
  5
149C
  8
0
  2
STDGX5
 10
275.0
 20
0.0
 30
0.0
  0
INSERT
  5
169F
  8
0
  2
STDGX5
 10
0.0
 20
0.0
 30
0.0
 41
0.25
 42
0.25
 43
0.25
  0
INSERT
  5
16A0
  8
0
  2
STDGX5
 10
0.0
 20
0.0
 30
0.0
 41
0.25
 42
0.25
 43
0.25
  0
INSERT
  5
16A1
  8
0
  2
STDGX5
 10
68.75
 20
0.0
 30
0.0
 41
0.25
 42
0.25
 43
0.25
  0
INSERT
  5
16A2
  8
0
  2
STDGX5
 10
68.75
 20
0.0
 30
0.0
 41
0.25
 42
0.25
 43
0.25
  0
INSERT
  5
16A3
  8
0
  2
STDGX5
 10
0.0
 20
0.0
 30
0.0
 41
0.5
 42
0.5
 43
0.5
  0
INSERT
  5
16A4
  8
0
  2
STDGX5
 10
0.0
 20
0.0
 30
0.0
 41
0.5
 42
0.5
 43
0.5
  0
INSERT
  5
16A5
  8
0
  2
STDGX5
 10
137.5
 20
0.0
 30
0.0
 41
0.5
 42
0.5
 43
0.5
  0
INSERT
  5
16A6
  8
0
  2
STDGX5
 10
137.5
 20
0.0
 30
0.0
 41
0.5
 42
0.5
 43
0.5
  0
INSERT
  5
16A8
  8
0
  2
STDGX5
 10
-35.0
 20
-100.0
 30
0.0
 41
0.3333333333333333
 42
0.3333333333333333
 43
0.3333333333333333
  0
INSERT
  5
16A9
  8
0
  2
STDGX5
 10
-35.0
 20
-100.0
 30
0.0
 41
0.3333333333333333
 42
0.3333333333333333
 43
0.3333333333333333
  0
INSERT
  5
16AA
  8
0
  2
STDGX5
 10
56.666666666666643
 20
-100.0
 30
0.0
 41
0.3333333333333333
 42
0.3333333333333333
 43
0.3333333333333333
  0
INSERT
  5
16AB
  8
0
  2
STDGX5
 10
56.666666666666643
 20
-100.0
 30
0.0
 41
0.3333333333333333
 42
0.3333333333333333
 43
0.3333333333333333
  0
INSERT
  5
16AD
  8
0
  2
STDGX5
 10
-35.0
 20
-100.0
 30
0.0
 41
0.3333333333333333
 42
0.3333333333333333
 43
0.3333333333333333
  0
INSERT
  5
16AE
  8
0
  2
STDGX5
 10
-35.0
 20
-100.0
 30
0.0
 41
0.3333333333333333
 42
0.3333333333333333
 43
0.3333333333333333
  0
INSERT
  5
16AF
  8
0
  2
STDGX5
 10
56.666666666666657
 20
-100.0
 30
0.0
 41
0.3333333333333333
 42
0.3333333333333333
 43
0.3333333333333333
  0
INSERT
  5
16B0
  8
0
  2
STDGX5
 10
56.666666666666657
 20
-100.0
 30
0.0
 41
0.3333333333333333
 42
0.3333333333333333
 43
0.3333333333333333
  0
INSERT
  5
16B1
  8
0
  2
STDGX5
 10
0.0
 20
0.0
 30
0.0
  0
INSERT
  5
16B2
  8
0
  2
STDGX5
 10
0.0
 20
0.0
 30
0.0
  0
INSERT
  5
16B3
  8
0
  2
STDGX5
 10
275.0
 20
0.0
 30
0.0
  0
INSERT
  5
16B4
  8
0
  2
STDGX5
 10
275.0
 20
0.0
 30
0.0
  0
LINE
  5
17DD
  8
0
 10
260.26074056952558
 20
136.1644520224138
 30
0.0
 11
290.21069883327328
 21
136.1644520224138
 31
0.0
  0
LINE
  5
17DE
  8
0
 10
260.94411377344608
 20
134.16445202239919
 30
0.0
 11
289.52732562935262
 21
134.16445202239919
 31
0.0
  0
LINE
  5
17DF
  8
0
 10
259.76801140314211
 20
139.1644520223974
 30
0.0
 11
290.7034279996567
 21
139.1644520223974
 31
0.0
  0
LINE
  5
17E0
  8
0
 10
259.76801140314137
 20
141.16445202240649
 30
0.0
 11
290.70342799965738
 21
141.16445202240649
 31
0.0
  0
LINE
  5
17E1
  8
0
 10
260.26074056952558
 20
144.1644520223993
 30
0.0
 11
290.21069883327328
 21
144.1644520223993
 31
0.0
  0
LINE
  5
17E2
  8
0
 10
260.9441137734425
 20
146.1644520224047
 30
0.0
 11
289.52732562935671
 21
146.1644520224047
 31
0.0
  0
CIRCLE
  5
17E3
  8
0
 10
275.23571970139938
 20
140.16445202240649
 30
0.0
 40
15.500000000000069
  0
LINE
  5
17E4
  8
1
 10
275.23571970139938
 20
161.66445202240661
 30
0.0
 11
275.23571970139938
 21
118.66445202240661
 31
0.0
  0
LINE
  5
17E5
  8
1
 10
296.73571970139938
 20
140.16445202240649
 30
0.0
 11
253.7357197013994
 21
140.16445202240649
 31
0.0
  0
CIRCLE
  5
17E6
  8
0
 10
275.23571970139938
 20
140.16445202240649
 30
0.0
 40
16.5
  0
LINE
  5
17E7
  8
0
 10
134.82394362596389
 20
143.98611797286409
 30
0.0
 11
134.82394362596401
 21
136.34278607194889
 31
0.0
  0
ARC
  5
17E8
  8
0
 10
144.06487806805981
 20
140.16445202240649
 30
0.0
 40
10.0
 50
157.53204873306441
 51
202.46795126693621
  0
LINE
  5
17E9
  8
0
 10
136.86487806805971
 20
135.16445202240661
 30
0.0
 11
134.82394362596409
 21
136.34278607194889
 31
0.0
  0
LINE
  5
17EA
  8
0
 10
136.86487806805971
 20
145.16445202240649
 30
0.0
 11
134.82394362596409
 21
143.98611797286421
 31
0.0
  0
LINE
  5
17EB
  8
0
 10
214.06487806805981
 20
146.16445202240661
 30
0.0
 11
214.06487806805981
 21
154.66445202240661
 31
0.0
  0
LINE
  5
17EC
  8
0
 10
214.0648780680599
 20
136.16445202240661
 30
0.0
 11
214.06487806805981
 21
139.16445202240661
 31
0.0
  0
LINE
  5
17ED
  8
0
 10
214.06487806805981
 20
141.16445202240649
 30
0.0
 11
214.06487806805981
 21
144.16445202240661
 31
0.0
  0
ARC
  5
17EE
  8
0
 10
214.06487806805981
 20
145.1644520224047
 30
0.0
 40
1.000000000001833
 50
90.000000000149811
 51
269.99999999985351
  0
ARC
  5
17EF
  8
0
 10
214.0648780680624
 20
135.1644520224047
 30
0.0
 40
1.000000000001833
 50
90.000000000149811
 51
269.99999999985351
  0
ARC
  5
17F0
  8
0
 10
214.0648780680624
 20
140.1644520224047
 30
0.0
 40
1.000000000001833
 50
90.000000000149811
 51
269.99999999985351
  0
ARC
  5
17F1
  8
0
 10
213.06487806805981
 20
125.66445202240661
 30
0.0
 40
1.0
 50
270.0
 51
0.0
  0
ARC
  5
17F2
  8
0
 10
213.06487806805981
 20
154.66445202240661
 30
0.0
 40
1.0
 50
0.0
 51
89.999999999999986
  0
LINE
  5
17F3
  8
0
 10
212.56487806805981
 20
155.66445202240661
 30
0.0
 11
207.56487806805981
 21
155.66445202240661
 31
0.0
  0
LINE
  5
17F4
  8
0
 10
212.56487806805981
 20
124.66445202240661
 30
0.0
 11
207.56487806805981
 21
124.66445202240661
 31
0.0
  0
LINE
  5
17F5
  8
0
 10
214.06487806805981
 20
125.66445202240661
 30
0.0
 11
214.06487806805981
 21
134.16445202240661
 31
0.0
  0
LINE
  5
17F6
  8
0
 10
184.0648780680599
 20
149.16445202240649
 30
0.0
 11
184.0648780680597
 21
131.16445202240661
 31
0.0
  0
LINE
  5
17F7
  8
0
 10
145.06487806805961
 20
130.16445202240661
 30
0.0
 11
145.06487806805961
 21
150.16445202240649
 31
0.0
  0
LINE
  5
17F8
  8
0
 10
144.0648780680599
 20
149.16445202240649
 30
0.0
 11
145.0648780680599
 21
150.16445202240649
 31
0.0
  0
LINE
  5
17F9
  8
0
 10
145.06487806805961
 20
130.16445202240661
 30
0.0
 11
144.06487806805961
 21
131.16445202240661
 31
0.0
  0
LINE
  5
17FA
  8
0
 10
183.0648780680597
 20
130.16445202240661
 30
0.0
 11
145.06487806805961
 21
130.16445202240661
 31
0.0
  0
LINE
  5
17FB
  8
3
 10
184.0648780680597
 20
131.51745202240659
 30
0.0
 11
144.06487806805961
 21
131.51745202240659
 31
0.0
  0
LINE
  5
17FC
  8
3
 10
184.0648780680599
 20
148.81145202240651
 30
0.0
 11
144.0648780680599
 21
148.8114520224064
 31
0.0
  0
LINE
  5
17FD
  8
0
 10
183.0648780680599
 20
150.16445202240649
 30
0.0
 11
145.0648780680599
 21
150.16445202240649
 31
0.0
  0
LINE
  5
17FE
  8
0
 10
144.06487806805961
 20
131.16445202240661
 30
0.0
 11
144.0648780680599
 21
149.16445202240649
 31
0.0
  0
LINE
  5
17FF
  8
0
 10
136.86487806805971
 20
145.16445202240649
 30
0.0
 11
136.86487806805971
 21
135.16445202240661
 31
0.0
  0
LINE
  5
1800
  8
0
 10
144.06487806805961
 20
135.16445202240661
 30
0.0
 11
136.86487806805971
 21
135.16445202240661
 31
0.0
  0
LINE
  5
1801
  8
0
 10
144.06487806805981
 20
145.16445202240649
 30
0.0
 11
136.86487806805971
 21
145.16445202240649
 31
0.0
  0
LINE
  5
1802
  8
0
 10
205.31771423021291
 20
156.66445202240661
 30
0.0
 11
205.31771423021291
 21
123.66445202240649
 31
0.0
  0
ARC
  5
1803
  8
0
 10
205.56487806806109
 20
126.1644520223997
 30
0.0
 40
2.4999999999958362
 50
270.0
 51
323.13010235428231
  0
ARC
  5
1804
  8
0
 10
205.56487806806109
 20
154.1644520224134
 30
0.0
 40
2.4999999999958362
 50
36.86989764571765
 51
89.999999999999986
  0
LINE
  5
1805
  8
0
 10
184.76487806805969
 20
149.16445202240661
 30
0.0
 11
184.76487806805969
 21
131.16445202240661
 31
0.0
  0
LINE
  5
1806
  8
0
 10
184.06487806805981
 20
148.46445202240659
 30
0.0
 11
184.76487806805969
 21
149.16445202240661
 31
0.0
  0
LINE
  5
1807
  8
0
 10
184.76487806805969
 20
131.16445202240661
 30
0.0
 11
184.06487806805981
 21
131.8644520224066
 31
0.0
  0
LINE
  5
1808
  8
0
 10
196.56487806805981
 20
131.16445202240661
 30
0.0
 11
184.76487806805969
 21
131.16445202240661
 31
0.0
  0
LINE
  5
1809
  8
0
 10
196.56487806805981
 20
149.16445202240661
 30
0.0
 11
184.76487806805969
 21
149.16445202240661
 31
0.0
  0
LINE
  5
180A
  8
0
 10
196.56487806805981
 20
149.16445202240661
 30
0.0
 11
196.56487806805981
 21
131.16445202240661
 31
0.0
  0
LINE
  5
180B
  8
1
 10
219.06487806805981
 20
140.16445202240649
 30
0.0
 11
129.06487806805981
 21
140.16445202240661
 31
0.0
  0
LINE
  5
180C
  8
0
 10
205.5648813716858
 20
123.66445202240661
 30
0.0
 11
205.31771423021291
 21
123.66445202240661
 31
0.0
  0
LINE
  5
180D
  8
0
 10
205.5648813716858
 20
156.66445202240649
 30
0.0
 11
205.31771423021291
 21
156.66445202240649
 31
0.0
  0
LINE
  5
180E
  8
0
 10
207.56487806805981
 20
155.664452022408
 30
0.0
 11
207.56487806805981
 21
124.664452022407
 31
0.0
  0
LINE
  5
180F
  8
0
 10
183.0648780680599
 20
150.16445202240649
 30
0.0
 11
184.0648780680599
 21
149.16445202240649
 31
0.0
  0
LINE
  5
1810
  8
0
 10
184.0648780680597
 20
131.16445202240661
 30
0.0
 11
183.0648780680597
 21
130.16445202240661
 31
0.0
  0
LINE
  5
1811
  8
0
 10
183.0648780680599
 20
150.16445202240649
 30
0.0
 11
183.06487806805981
 21
141.41445202240661
 31
0.0
  0
LINE
  5
1812
  8
0
 10
178.56487806805981
 20
141.41445202240661
 30
0.0
 11
178.56487806805981
 21
138.91445202240661
 31
0.0
  0
LINE
  5
1813
  8
0
 10
184.06487806805981
 20
141.41445202240661
 30
0.0
 11
178.56487806805981
 21
141.41445202240661
 31
0.0
  0
LINE
  5
1814
  8
0
 10
184.06487806805981
 20
138.91445202240661
 30
0.0
 11
178.56487806805981
 21
138.91445202240649
 31
0.0
  0
LINE
  5
1815
  8
0
 10
183.06487806805981
 20
138.91445202240661
 30
0.0
 11
183.0648780680597
 21
130.16445202240661
 31
0.0
  0
CIRCLE
  5
1816
  8
0
 10
75.258572829710545
 20
140.16445202240649
 30
0.0
 40
16.5
  0
LINE
  5
1817
  8
1
 10
75.258572829710545
 20
161.66445202240661
 30
0.0
 11
75.258572829710545
 21
118.66445202240661
 31
0.0
  0
LINE
  5
1818
  8
1
 10
96.758572829710545
 20
140.16445202240649
 30
0.0
 11
53.758572829710538
 21
140.16445202240649
 31
0.0
  0
CIRCLE
  5
1819
  8
3
 10
75.258572829710545
 20
140.16445202240649
 30
0.0
 40
8.6470000000000002
  0
CIRCLE
  5
181A
  8
0
 10
75.258572829710545
 20
140.16445202240649
 30
0.0
 40
10.0
  0
CIRCLE
  5
181B
  8
0
 10
75.258572829710545
 20
140.16445202240649
 30
0.0
 40
5.0
  0
CIRCLE
  5
181C
  8
0
 10
75.258572829710545
 20
140.16445202240649
 30
0.0
 40
3.8216659504575001
  0
LINE
  5
181D
  8
0
 10
183.06487806806001
 20
212.76412228619549
 30
0.0
 11
183.0648780680597
 21
192.7641222861956
 31
0.0
  0
LINE
  5
181E
  8
0
 10
184.0648780680597
 20
193.7641222861956
 30
0.0
 11
183.0648780680597
 21
192.7641222861956
 31
0.0
  0
LINE
  5
181F
  8
0
 10
183.0648780680599
 20
212.76412228619549
 30
0.0
 11
184.0648780680599
 21
211.76412228619549
 31
0.0
  0
LINE
  5
1820
  8
0
 10
207.56487806805981
 20
218.26412228619699
 30
0.0
 11
207.56487806805981
 21
187.264122286196
 31
0.0
  0
LINE
  5
1821
  8
0
 10
205.5648813716858
 20
219.2641222861956
 30
0.0
 11
205.31771423021291
 21
219.2641222861956
 31
0.0
  0
LINE
  5
1822
  8
0
 10
205.5648813716858
 20
186.2641222861956
 30
0.0
 11
205.31771423021291
 21
186.2641222861956
 31
0.0
  0
LINE
  5
1823
  8
1
 10
219.06487806805981
 20
202.7641222861956
 30
0.0
 11
129.06487806805981
 21
202.7641222861956
 31
0.0
  0
LINE
  5
1824
  8
0
 10
196.56487806805981
 20
211.7641222861956
 30
0.0
 11
196.56487806805981
 21
193.76412228619569
 31
0.0
  0
LINE
  5
1825
  8
0
 10
196.56487806805981
 20
211.7641222861956
 30
0.0
 11
184.76487806805969
 21
211.7641222861956
 31
0.0
  0
LINE
  5
1826
  8
0
 10
196.56487806805981
 20
193.76412228619549
 30
0.0
 11
184.76487806805969
 21
193.7641222861956
 31
0.0
  0
LINE
  5
1827
  8
0
 10
184.76487806805969
 20
193.7641222861956
 30
0.0
 11
184.06487806805981
 21
194.46412228619559
 31
0.0
  0
LINE
  5
1828
  8
0
 10
184.06487806805981
 20
211.06412228619561
 30
0.0
 11
184.76487806805969
 21
211.7641222861956
 31
0.0
  0
LINE
  5
1829
  8
0
 10
184.76487806805969
 20
211.7641222861956
 30
0.0
 11
184.76487806805969
 21
193.7641222861956
 31
0.0
  0
ARC
  5
182A
  8
0
 10
205.56487806806109
 20
216.76412228620251
 30
0.0
 40
2.4999999999958362
 50
36.86989764571765
 51
89.999999999999986
  0
ARC
  5
182B
  8
0
 10
205.56487806806109
 20
188.76412228618869
 30
0.0
 40
2.4999999999958362
 50
270.0
 51
323.13010235428231
  0
LINE
  5
182C
  8
0
 10
205.31771423021291
 20
219.26412228619569
 30
0.0
 11
205.31771423021291
 21
186.2641222861956
 31
0.0
  0
LINE
  5
182D
  8
0
 10
144.06487806805981
 20
207.76412228619549
 30
0.0
 11
136.86487806805971
 21
207.76412228619549
 31
0.0
  0
LINE
  5
182E
  8
0
 10
144.06487806805961
 20
197.7641222861956
 30
0.0
 11
136.86487806805971
 21
197.7641222861956
 31
0.0
  0
LINE
  5
182F
  8
0
 10
136.86487806805971
 20
207.76412228619549
 30
0.0
 11
136.86487806805971
 21
197.7641222861956
 31
0.0
  0
LINE
  5
1830
  8
0
 10
144.06487806805961
 20
193.7641222861956
 30
0.0
 11
144.0648780680599
 21
211.76412228619549
 31
0.0
  0
LINE
  5
1831
  8
0
 10
183.0648780680599
 20
212.76412228619549
 30
0.0
 11
145.0648780680599
 21
212.76412228619549
 31
0.0
  0
LINE
  5
1832
  8
3
 10
184.0648780680599
 20
211.41112228619551
 30
0.0
 11
144.0648780680599
 21
211.41112228619539
 31
0.0
  0
LINE
  5
1833
  8
3
 10
184.0648780680597
 20
194.11712228619561
 30
0.0
 11
144.06487806805961
 21
194.11712228619561
 31
0.0
  0
LINE
  5
1834
  8
0
 10
183.0648780680597
 20
192.7641222861956
 30
0.0
 11
145.06487806805961
 21
192.7641222861956
 31
0.0
  0
LINE
  5
1835
  8
0
 10
145.06487806805961
 20
192.7641222861956
 30
0.0
 11
144.06487806805961
 21
193.7641222861956
 31
0.0
  0
LINE
  5
1836
  8
0
 10
144.0648780680599
 20
211.76412228619549
 30
0.0
 11
145.0648780680599
 21
212.76412228619549
 31
0.0
  0
LINE
  5
1837
  8
0
 10
145.06487806805961
 20
192.7641222861956
 30
0.0
 11
145.06487806805961
 21
212.76412228619549
 31
0.0
  0
LINE
  5
1838
  8
0
 10
184.0648780680599
 20
211.76412228619549
 30
0.0
 11
184.0648780680597
 21
193.7641222861956
 31
0.0
  0
LINE
  5
1839
  8
0
 10
136.86487806805971
 20
207.76412228619549
 30
0.0
 11
134.82394362596409
 21
206.5857882366532
 31
0.0
  0
LINE
  5
183A
  8
0
 10
136.86487806805971
 20
197.7641222861956
 30
0.0
 11
134.82394362596409
 21
198.94245633573789
 31
0.0
  0
ARC
  5
183B
  8
0
 10
144.06487806805981
 20
202.7641222861956
 30
0.0
 40
10.0
 50
157.53204873306441
 51
202.46795126693621
  0
LINE
  5
183C
  8
0
 10
134.82394362596389
 20
206.58578823665309
 30
0.0
 11
134.82394362596401
 21
198.94245633573789
 31
0.0
  0
POLYLINE
  5
183D
  8
0
 66
     1
 10
0.0
 20
0.0
 30
0.0
  0
VERTEX
  5
183E
  8
0
 10
213.9458391907649
 20
187.7909336343007
 30
0.0
 42
-0.0075320202698029
  0
VERTEX
  5
183F
  8
0
 10
213.85330538972951
 20
187.79548899364929
 30
0.0
 42
-0.0152669523831175
  0
VERTEX
  5
1840
  8
0
 10
213.64636077529431
 20
187.81516313392331
 30
0.0
 42
-0.0225372592198384
  0
VERTEX
  5
1841
  8
0
 10
213.5012207610051
 20
187.84013465855969
 30
0.0
 42
-0.0217393388924902
  0
VERTEX
  5
1842
  8
0
 10
213.35363722454329
 20
187.8792247309685
 30
0.0
 42
-0.0429155923672454
 70
     2
 50
162.6741179157126
  0
VERTEX
  5
1843
  8
0
 10
213.1948596549976
 20
187.94415204277311
 30
0.0
 42
-0.0721050627880164
  0
VERTEX
  5
1844
  8
0
 10
213.11136232590709
 20
188.00349870130381
 30
0.0
  0
VERTEX
  5
1845
  8
0
 10
213.07533138003339
 20
188.05232039253801
 30
0.0
  0
VERTEX
  5
1846
  8
0
 10
213.06487806805791
 20
188.0967008950293
 30
0.0
  0
SEQEND
  5
1847
  8
0
  0
POLYLINE
  5
1848
  8
0
 66
     1
 10
0.0
 20
0.0
 30
0.0
  0
VERTEX
  5
1849
  8
0
 10
213.06487806805791
 20
188.0967008950293
 30
0.0
  0
VERTEX
  5
184A
  8
0
 10
213.07698242392581
 20
188.1544436941295
 30
0.0
 42
-0.0824624023873536
  0
VERTEX
  5
184B
  8
0
 10
213.1173422634206
 20
188.2163399703189
 30
0.0
 42
-0.0686274545631655
  0
VERTEX
  5
184C
  8
0
 10
213.20563122159541
 20
188.28941378287519
 30
0.0
 42
-0.047515292179676
  0
VERTEX
  5
184D
  8
0
 10
213.35363722454329
 20
188.36262991142601
 30
0.0
 42
-0.0259700861748336
 70
     2
 50
20.880083887286489
  0
VERTEX
  5
184E
  8
0
 10
213.50061995117451
 20
188.41011763712331
 30
0.0
 42
-0.0265962125485456
  0
VERTEX
  5
184F
  8
0
 10
213.64822008479319
 20
188.44117487157129
 30
0.0
 42
-0.018965605749933
  0
VERTEX
  5
1850
  8
0
 10
213.85215221994309
 20
188.4649961299416
 30
0.0
 42
-0.0195915324394085
  0
VERTEX
  5
1851
  8
0
 10
214.05076349638969
 20
188.47278131664609
 30
0.0
 42
-0.0013907039136729
  0
VERTEX
  5
1852
  8
0
 10
214.06487806805981
 20
188.47274205818749
 30
0.0
 42
-0.0189656057499445
  0
SEQEND
  5
1853
  8
0
  0
POLYLINE
  5
1854
  8
0
 66
     1
 10
0.0
 20
0.0
 30
0.0
  0
VERTEX
  5
1855
  8
0
 10
213.06487806805791
 20
217.4315436773619
 30
0.0
  0
VERTEX
  5
1856
  8
0
 10
213.07698242392581
 20
217.37380087826179
 30
0.0
 42
0.0824624023873536
  0
VERTEX
  5
1857
  8
0
 10
213.1173422634206
 20
217.31190460207239
 30
0.0
 42
0.0686274545631655
  0
VERTEX
  5
1858
  8
0
 10
213.20563122159541
 20
217.2388307895161
 30
0.0
 42
0.047515292179676
  0
VERTEX
  5
1859
  8
0
 10
213.35363722454329
 20
217.16561466096519
 30
0.0
 42
0.0259700861748336
 70
     2
 50
339.1199161127135
  0
VERTEX
  5
185A
  8
0
 10
213.50061995117451
 20
217.11812693526801
 30
0.0
 42
0.0265962125485456
 50
339.1199161127135
  0
VERTEX
  5
185B
  8
0
 10
213.64822008479319
 20
217.08706970081991
 30
0.0
 42
0.018965605749933
 50
339.1199161127135
  0
VERTEX
  5
185C
  8
0
 10
213.85215221994309
 20
217.06324844244961
 30
0.0
 42
0.0195915324394085
 50
339.1199161127135
  0
VERTEX
  5
185D
  8
0
 10
214.05076349638969
 20
217.0554632557452
 30
0.0
 42
0.0013907039136729
  0
VERTEX
  5
185E
  8
0
 10
214.06487806805981
 20
217.05550251420379
 30
0.0
 42
0.0189656057499445
  0
SEQEND
  5
185F
  8
0
  0
POLYLINE
  5
1860
  8
0
 66
     1
 10
0.0
 20
0.0
 30
0.0
  0
VERTEX
  5
1861
  8
0
 10
213.9458391907649
 20
217.73731093809059
 30
0.0
 42
0.0075320202698029
  0
VERTEX
  5
1862
  8
0
 10
213.85330538972951
 20
217.732755578742
 30
0.0
 42
0.0152669523831175
  0
VERTEX
  5
1863
  8
0
 10
213.64636077529431
 20
217.71308143846801
 30
0.0
 42
0.0225372592198384
  0
VERTEX
  5
1864
  8
0
 10
213.5012207610051
 20
217.6881099138316
 30
0.0
 42
0.0217393388924902
  0
VERTEX
  5
1865
  8
0
 10
213.35363722454329
 20
217.64901984142281
 30
0.0
 42
0.0429155923672454
 70
     2
 50
197.3258820842874
  0
VERTEX
  5
1866
  8
0
 10
213.1948596549976
 20
217.5840925296182
 30
0.0
 42
0.0721050627880164
 50
197.3258820842874
  0
VERTEX
  5
1867
  8
0
 10
213.11136232590709
 20
217.5247458710875
 30
0.0
 50
197.3258820842874
  0
VERTEX
  5
1868
  8
0
 10
213.07533138003339
 20
217.47592417985331
 30
0.0
 50
197.3258820842874
  0
VERTEX
  5
1869
  8
0
 10
213.06487806805791
 20
217.4315436773619
 30
0.0
  0
SEQEND
  5
186A
  8
0
  0
LINE
  5
186B
  8
0
 10
213.06487806805981
 20
187.26412228619569
 30
0.0
 11
207.56487806805981
 21
187.26412228619569
 31
0.0
  0
LINE
  5
186C
  8
0
 10
213.06487806805981
 20
218.26412228619569
 30
0.0
 11
207.56487806805981
 21
218.26412228619569
 31
0.0
  0
ARC
  5
186D
  8
0
 10
213.06487806805981
 20
217.26412228619569
 30
0.0
 40
1.0
 50
28.241478712465611
 51
89.999999999999986
  0
ARC
  5
186E
  8
0
 10
213.06487806805981
 20
188.26412228619569
 30
0.0
 40
1.0
 50
270.0
 51
331.7585212875249
  0
LINE
  5
186F
  8
0
 10
214.06487806805981
 20
188.47274205818499
 30
0.0
 11
214.06487806805981
 21
217.0555025142034
 31
0.0
  0
LINE
  5
1870
  8
0
 10
214.06487806805981
 20
91.856161986628194
 30
0.0
 11
214.06487806805981
 21
63.273401530609902
 31
0.0
  0
ARC
  5
1871
  8
0
 10
213.06487806805981
 20
92.064781758617514
 30
0.0
 40
1.0
 50
28.241478712475111
 51
90.0
  0
ARC
  5
1872
  8
0
 10
213.06487806805981
 20
63.064781758617549
 30
0.0
 40
1.0
 50
270.0
 51
331.75852128753439
  0
LINE
  5
1873
  8
0
 10
212.56487806805981
 20
62.064781758617549
 30
0.0
 11
207.56487806805981
 21
62.064781758617549
 31
0.0
  0
LINE
  5
1874
  8
0
 10
212.56487806805981
 20
93.064781758617528
 30
0.0
 11
207.56487806805981
 21
93.064781758617528
 31
0.0
  0
POLYLINE
  5
1875
  8
0
 66
     1
 10
0.0
 20
0.0
 30
0.0
  0
VERTEX
  5
1876
  8
0
 10
213.94583919076501
 20
62.591593106722627
 30
0.0
 42
-0.0075320202698029
  0
VERTEX
  5
1877
  8
0
 10
213.85330538972951
 20
62.59614846607132
 30
0.0
 42
-0.0152669523831175
  0
VERTEX
  5
1878
  8
0
 10
213.64636077529431
 20
62.615822606345262
 30
0.0
 42
-0.0225372592198384
  0
VERTEX
  5
1879
  8
0
 10
213.5012207610051
 20
62.640794130981732
 30
0.0
 42
-0.0217393388924902
  0
VERTEX
  5
187A
  8
0
 10
213.35363722454329
 20
62.679884203390479
 30
0.0
 42
-0.0429155923672454
 70
     2
 50
162.6741179157126
  0
VERTEX
  5
187B
  8
0
 10
213.1948596549976
 20
62.74481151519506
 30
0.0
 42
-0.0721050627880164
  0
VERTEX
  5
187C
  8
0
 10
213.11136232590709
 20
62.804158173725739
 30
0.0
  0
VERTEX
  5
187D
  8
0
 10
213.07533138003339
 20
62.85297986496002
 30
0.0
  0
VERTEX
  5
187E
  8
0
 10
213.06487806805791
 20
62.897360367451313
 30
0.0
  0
SEQEND
  5
187F
  8
0
  0
POLYLINE
  5
1880
  8
0
 66
     1
 10
0.0
 20
0.0
 30
0.0
  0
VERTEX
  5
1881
  8
0
 10
213.06487806805791
 20
62.897360367451313
 30
0.0
  0
VERTEX
  5
1882
  8
0
 10
213.07698242392581
 20
62.955103166551453
 30
0.0
 42
-0.0824624023873536
  0
VERTEX
  5
1883
  8
0
 10
213.11734226342071
 20
63.016999442740833
 30
0.0
 42
-0.0686274545631655
  0
VERTEX
  5
1884
  8
0
 10
213.20563122159541
 20
63.09007325529717
 30
0.0
 42
-0.047515292179676
  0
VERTEX
  5
1885
  8
0
 10
213.35363722454329
 20
63.163289383848031
 30
0.0
 42
-0.0259700861748336
 70
     2
 50
20.880083887286489
  0
VERTEX
  5
1886
  8
0
 10
213.50061995117451
 20
63.21077710954529
 30
0.0
 42
-0.0265962125485456
  0
VERTEX
  5
1887
  8
0
 10
213.64822008479319
 20
63.241834343993332
 30
0.0
 42
-0.018965605749933
  0
VERTEX
  5
1888
  8
0
 10
213.85215221994309
 20
63.265655602363637
 30
0.0
 42
-0.0195915324394085
  0
VERTEX
  5
1889
  8
0
 10
214.05076349638969
 20
63.273440789068097
 30
0.0
 42
-0.0013907039136729
  0
VERTEX
  5
188A
  8
0
 10
214.06487806805981
 20
63.273401530609483
 30
0.0
 42
-0.0189656057499445
  0
SEQEND
  5
188B
  8
0
  0
POLYLINE
  5
188C
  8
0
 66
     1
 10
0.0
 20
0.0
 30
0.0
  0
VERTEX
  5
188D
  8
0
 10
213.06487806805791
 20
92.232203149783913
 30
0.0
  0
VERTEX
  5
188E
  8
0
 10
213.07698242392581
 20
92.174460350683773
 30
0.0
 42
0.0824624023873536
  0
VERTEX
  5
188F
  8
0
 10
213.11734226342071
 20
92.112564074494401
 30
0.0
 42
0.0686274545631655
  0
VERTEX
  5
1890
  8
0
 10
213.20563122159541
 20
92.039490261938056
 30
0.0
 42
0.047515292179676
  0
VERTEX
  5
1891
  8
0
 10
213.35363722454329
 20
91.966274133387202
 30
0.0
 42
0.0259700861748336
 70
     2
 50
339.1199161127135
  0
VERTEX
  5
1892
  8
0
 10
213.50061995117451
 20
91.918786407689936
 30
0.0
 42
0.0265962125485456
  0
VERTEX
  5
1893
  8
0
 10
213.64822008479319
 20
91.887729173241894
 30
0.0
 42
0.018965605749933
  0
VERTEX
  5
1894
  8
0
 10
213.85215221994309
 20
91.863907914871589
 30
0.0
 42
0.0195915324394085
  0
VERTEX
  5
1895
  8
0
 10
214.05076349638969
 20
91.856122728167122
 30
0.0
 42
0.0013907039136729
  0
VERTEX
  5
1896
  8
0
 10
214.06487806805981
 20
91.85616198662575
 30
0.0
 42
0.0189656057499445
  0
SEQEND
  5
1897
  8
0
  0
POLYLINE
  5
1898
  8
0
 66
     1
 10
0.0
 20
0.0
 30
0.0
  0
VERTEX
  5
1899
  8
0
 10
213.94583919076501
 20
92.5379704105126
 30
0.0
 42
0.0075320202698029
  0
VERTEX
  5
189A
  8
0
 10
213.85330538972951
 20
92.5334150511639
 30
0.0
 42
0.0152669523831175
  0
VERTEX
  5
189B
  8
0
 10
213.64636077529431
 20
92.513740910889965
 30
0.0
 42
0.0225372592198384
  0
VERTEX
  5
189C
  8
0
 10
213.5012207610051
 20
92.488769386253495
 30
0.0
 42
0.0217393388924902
  0
VERTEX
  5
189D
  8
0
 10
213.35363722454329
 20
92.44967931384474
 30
0.0
 42
0.0429155923672454
 70
     2
 50
197.3258820842874
  0
VERTEX
  5
189E
  8
0
 10
213.1948596549976
 20
92.384752002040159
 30
0.0
 42
0.0721050627880164
  0
VERTEX
  5
189F
  8
0
 10
213.11136232590709
 20
92.325405343509487
 30
0.0
  0
VERTEX
  5
18A0
  8
0
 10
213.07533138003339
 20
92.276583652275207
 30
0.0
  0
VERTEX
  5
18A1
  8
0
 10
213.06487806805791
 20
92.232203149783913
 30
0.0
  0
SEQEND
  5
18A2
  8
0
  0
LINE
  5
18A3
  8
0
 10
134.82394362596389
 20
73.743115808160098
 30
0.0
 11
134.82394362596401
 21
81.38644770907527
 31
0.0
  0
ARC
  5
18A4
  8
0
 10
144.06487806805981
 20
77.564781758617642
 30
0.0
 40
10.0
 50
157.5320487330637
 51
202.46795126693559
  0
LINE
  5
18A5
  8
0
 10
136.86487806805971
 20
82.564781758617613
 30
0.0
 11
134.82394362596409
 21
81.386447709075327
 31
0.0
  0
LINE
  5
18A6
  8
0
 10
136.86487806805971
 20
72.564781758617698
 30
0.0
 11
134.82394362596409
 21
73.743115808159985
 31
0.0
  0
LINE
  5
18A7
  8
0
 10
184.0648780680599
 20
68.564781758617698
 30
0.0
 11
184.0648780680597
 21
86.564781758617585
 31
0.0
  0
LINE
  5
18A8
  8
0
 10
145.06487806805961
 20
87.564781758617556
 30
0.0
 11
145.06487806805961
 21
67.564781758617698
 31
0.0
  0
LINE
  5
18A9
  8
0
 10
144.0648780680599
 20
68.564781758617698
 30
0.0
 11
145.0648780680599
 21
67.564781758617698
 31
0.0
  0
LINE
  5
18AA
  8
0
 10
145.06487806805961
 20
87.564781758617556
 30
0.0
 11
144.06487806805961
 21
86.564781758617556
 31
0.0
  0
LINE
  5
18AB
  8
0
 10
183.0648780680597
 20
87.564781758617585
 30
0.0
 11
145.06487806805961
 21
87.564781758617556
 31
0.0
  0
LINE
  5
18AC
  8
3
 10
184.0648780680597
 20
86.211781758617605
 30
0.0
 11
144.06487806805961
 21
86.211781758617605
 31
0.0
  0
LINE
  5
18AD
  8
3
 10
184.0648780680599
 20
68.917781758617707
 30
0.0
 11
144.0648780680599
 21
68.917781758617764
 31
0.0
  0
LINE
  5
18AE
  8
0
 10
183.0648780680599
 20
67.564781758617698
 30
0.0
 11
145.0648780680599
 21
67.564781758617698
 31
0.0
  0
LINE
  5
18AF
  8
0
 10
144.06487806805961
 20
86.564781758617556
 30
0.0
 11
144.0648780680599
 21
68.564781758617698
 31
0.0
  0
LINE
  5
18B0
  8
0
 10
136.86487806805971
 20
72.564781758617698
 30
0.0
 11
136.86487806805971
 21
82.564781758617613
 31
0.0
  0
LINE
  5
18B1
  8
0
 10
144.06487806805961
 20
82.564781758617613
 30
0.0
 11
136.86487806805971
 21
82.564781758617613
 31
0.0
  0
LINE
  5
18B2
  8
0
 10
144.06487806805981
 20
72.564781758617698
 30
0.0
 11
136.86487806805971
 21
72.564781758617698
 31
0.0
  0
LINE
  5
18B3
  8
0
 10
205.31771423021291
 20
61.064781758617592
 30
0.0
 11
205.31771423021291
 21
94.06478175861767
 31
0.0
  0
ARC
  5
18B4
  8
0
 10
205.56487806806109
 20
91.564781758624491
 30
0.0
 40
2.4999999999958362
 50
36.869897645717657
 51
90.0
  0
ARC
  5
18B5
  8
0
 10
205.56487806806109
 20
63.564781758610764
 30
0.0
 40
2.4999999999958362
 50
270.0
 51
323.13010235428231
  0
LINE
  5
18B6
  8
0
 10
184.76487806805969
 20
68.564781758617642
 30
0.0
 11
184.76487806805969
 21
86.564781758617613
 31
0.0
  0
LINE
  5
18B7
  8
0
 10
184.06487806805981
 20
69.26478175861763
 30
0.0
 11
184.76487806805969
 21
68.564781758617642
 31
0.0
  0
LINE
  5
18B8
  8
0
 10
184.76487806805969
 20
86.564781758617613
 30
0.0
 11
184.06487806805981
 21
85.864781758617625
 31
0.0
  0
LINE
  5
18B9
  8
0
 10
196.56487806805981
 20
86.564781758617642
 30
0.0
 11
184.76487806805969
 21
86.564781758617613
 31
0.0
  0
LINE
  5
18BA
  8
0
 10
196.56487806805981
 20
68.564781758617642
 30
0.0
 11
184.76487806805969
 21
68.564781758617642
 31
0.0
  0
LINE
  5
18BB
  8
0
 10
196.56487806805981
 20
68.564781758617642
 30
0.0
 11
196.56487806805981
 21
86.564781758617585
 31
0.0
  0
LINE
  5
18BC
  8
1
 10
219.06487806805981
 20
77.564781758617613
 30
0.0
 11
129.06487806805981
 21
77.564781758617613
 31
0.0
  0
LINE
  5
18BD
  8
0
 10
205.5648813716858
 20
94.064781758617613
 30
0.0
 11
205.31771423021291
 21
94.064781758617613
 31
0.0
  0
LINE
  5
18BE
  8
0
 10
205.5648813716858
 20
61.064781758617642
 30
0.0
 11
205.31771423021291
 21
61.064781758617642
 31
0.0
  0
LINE
  5
18BF
  8
0
 10
207.56487806805981
 20
62.06478175861622
 30
0.0
 11
207.56487806805981
 21
93.064781758617215
 31
0.0
  0
LINE
  5
18C0
  8
0
 10
183.0648780680599
 20
67.564781758617698
 30
0.0
 11
184.0648780680599
 21
68.564781758617698
 31
0.0
  0
LINE
  5
18C1
  8
0
 10
184.0648780680597
 20
86.564781758617585
 30
0.0
 11
183.0648780680597
 21
87.564781758617585
 31
0.0
  0
LINE
  5
18C2
  8
0
 10
183.06487806806001
 20
67.564781758617698
 30
0.0
 11
183.0648780680597
 21
87.564781758617585
 31
0.0
  0
LINE
  5
18C3
  8
0
 10
196.56487806805981
 20
211.7641222861956
 30
0.0
 11
205.31771423021291
 21
219.26412228619569
 31
0.0
  0
LINE
  5
18C4
  8
0
 10
196.56487806805981
 20
193.76412228619569
 30
0.0
 11
205.31771423021291
 21
186.2641222861956
 31
0.0
  0
LINE
  5
18C5
  8
0
 10
196.56487806805981
 20
149.16445202240661
 30
0.0
 11
205.31771423021291
 21
156.66445202240661
 31
0.0
  0
LINE
  5
18C6
  8
0
 10
196.56487806805981
 20
131.16445202240661
 30
0.0
 11
205.31771423021291
 21
123.66445202240649
 31
0.0
  0
LINE
  5
18C7
  8
0
 10
196.56487806805981
 20
86.564781758617642
 30
0.0
 11
205.31771423021291
 21
94.06478175861767
 31
0.0
  0
LINE
  5
18C8
  8
0
 10
196.56487806805981
 20
68.564781758617642
 30
0.0
 11
205.31771423021291
 21
61.064781758617592
 31
0.0
  0
INSERT
  5
18C9
  8
0
  2
STDGX5
 10
0.0
 20
0.0
 30
0.0
 41
0.25
 42
0.25
 43
0.25
  0
INSERT
  5
18CA
  8
0
  2
STDGX5
 10
0.0
 20
0.0
 30
0.0
 41
0.25
 42
0.25
 43
0.25
  0
INSERT
  5
18CB
  8
0
  2
STDGX5
 10
68.75
 20
0.0
 30
0.0
 41
0.25
 42
0.25
 43
0.25
  0
INSERT
  5
18CC
  8
0
  2
STDGX5
 10
68.75
 20
0.0
 30
0.0
 41
0.25
 42
0.25
 43
0.25
  0
INSERT
  5
18CD
  8
0
  2
STDGX5
 10
0.0
 20
0.0
 30
0.0
 41
0.5
 42
0.5
 43
0.5
  0
INSERT
  5
18CE
  8
0
  2
STDGX5
 10
0.0
 20
0.0
 30
0.0
 41
0.5
 42
0.5
 43
0.5
  0
INSERT
  5
18CF
  8
0
  2
STDGX5
 10
137.5
 20
0.0
 30
0.0
 41
0.5
 42
0.5
 43
0.5
  0
INSERT
  5
18D0
  8
0
  2
STDGX5
 10
137.5
 20
0.0
 30
0.0
 41
0.5
 42
0.5
 43
0.5
  0
INSERT
  5
18D2
  8
0
  2
STDGX5
 10
-35.0
 20
-100.0
 30
0.0
 41
0.3333333333333333
 42
0.3333333333333333
 43
0.3333333333333333
  0
INSERT
  5
18D3
  8
0
  2
STDGX5
 10
-35.0
 20
-100.0
 30
0.0
 41
0.3333333333333333
 42
0.3333333333333333
 43
0.3333333333333333
  0
INSERT
  5
18D4
  8
0
  2
STDGX5
 10
56.666666666666643
 20
-100.0
 30
0.0
 41
0.3333333333333333
 42
0.3333333333333333
 43
0.3333333333333333
  0
INSERT
  5
18D5
  8
0
  2
STDGX5
 10
56.666666666666643
 20
-100.0
 30
0.0
 41
0.3333333333333333
 42
0.3333333333333333
 43
0.3333333333333333
  0
INSERT
  5
18D7
  8
0
  2
STDGX5
 10
-35.0
 20
-100.0
 30
0.0
 41
0.3333333333333333
 42
0.3333333333333333
 43
0.3333333333333333
  0
INSERT
  5
18D8
  8
0
  2
STDGX5
 10
-35.0
 20
-100.0
 30
0.0
 41
0.3333333333333333
 42
0.3333333333333333
 43
0.3333333333333333
  0
INSERT
  5
18D9
  8
0
  2
STDGX5
 10
56.666666666666657
 20
-100.0
 30
0.0
 41
0.3333333333333333
 42
0.3333333333333333
 43
0.3333333333333333
  0
INSERT
  5
18DA
  8
0
  2
STDGX5
 10
56.666666666666657
 20
-100.0
 30
0.0
 41
0.3333333333333333
 42
0.3333333333333333
 43
0.3333333333333333
  0
INSERT
  5
18DB
  8
0
  2
STDGX5
 10
0.0
 20
0.0
 30
0.0
  0
INSERT
  5
18DC
  8
0
  2
STDGX5
 10
0.0
 20
0.0
 30
0.0
  0
INSERT
  5
18DD
  8
0
  2
STDGX5
 10
275.0
 20
0.0
 30
0.0
  0
INSERT
  5
18DE
  8
0
  2
STDGX5
 10
275.0
 20
0.0
 30
0.0
  0
TEXT
  5
19FE
  8
0
 62
     3
 10
0.0
 20
0.0
 30
0.0
 40
5.0
  1
SDX20
  7
STANDARD1
  0
ENDSEC
  0
EOF
