  0
SECTION
  2
HEADER
  9
$ACADVER
  1
AC1009
  9
$INSBASE
 10
0.0
 20
0.0
 30
0.0
  9
$EXTMIN
 10
0.0
 20
-1.4802182810368341
 30
0.0
  9
$EXTMAX
 10
287.27633960885697
 20
194.588444691783
 30
0.0
  9
$LIMMIN
 10
0.0
 20
0.0
  9
$LIMMAX
 10
187.5
 20
135.0
  9
$ORTHOMODE
 70
     0
  9
$REGENMODE
 70
     1
  9
$FILLMODE
 70
     1
  9
$QTEXTMODE
 70
     0
  9
$MIRRTEXT
 70
     0
  9
$DRAGMODE
 70
     2
  9
$LTSCALE
 40
5.0
  9
$OSMODE
 70
    55
  9
$ATTMODE
 70
     1
  9
$TEXTSIZE
 40
4.0
  9
$TRACEWID
 40
0.05
  9
$TEXTSTYLE
  7
STANDARD
  9
$CLAYER
  8
0
  9
$CELTYPE
  6
BYLAYER
  9
$CECOLOR
 62
   256
  9
$DIMSCALE
 40
0.5
  9
$DIMASZ
 40
3.0
  9
$DIMEXO
 40
2.0
  9
$DIMDLI
 40
0.38
  9
$DIMRND
 40
0.0
  9
$DIMDLE
 40
0.0
  9
$DIMEXE
 40
2.0
  9
$DIMTP
 40
0.0
  9
$DIMTM
 40
0.0
  9
$DIMTXT
 40
3.0
  9
$DIMCEN
 40
0.0
  9
$DIMTSZ
 40
0.0
  9
$DIMTOL
 70
     0
  9
$DIMLIM
 70
     0
  9
$DIMTIH
 70
     0
  9
$DIMTOH
 70
     0
  9
$DIMSE1
 70
     0
  9
$DIMSE2
 70
     0
  9
$DIMTAD
 70
     1
  9
$DIMZIN
 70
     0
  9
$DIMBLK
  1

  9
$DIMASO
 70
     0
  9
$DIMSHO
 70
     0
  9
$DIMPOST
  1

  9
$DIMAPOST
  1

  9
$DIMALT
 70
     0
  9
$DIMALTD
 70
     2
  9
$DIMALTF
 40
25.399999999999999
  9
$DIMLFAC
 40
1.0
  9
$DIMTOFL
 70
     0
  9
$DIMTVP
 40
1.6000000000000001
  9
$DIMTIX
 70
     1
  9
$DIMSOXD
 70
     0
  9
$DIMSAH
 70
     0
  9
$DIMBLK1
  1

  9
$DIMBLK2
  1

  9
$DIMSTYLE
  2
STANDARD
  9
$DIMCLRD
 70
     0
  9
$DIMCLRE
 70
     0
  9
$DIMCLRT
 70
     0
  9
$DIMTFAC
 40
1.0
  9
$DIMGAP
 40
0.09
  9
$LUNITS
 70
     2
  9
$LUPREC
 70
     4
  9
$SKETCHINC
 40
0.1
  9
$FILLETRAD
 40
1.0
  9
$AUNITS
 70
     0
  9
$AUPREC
 70
     0
  9
$MENU
  1
E:\r13\win\SUPPORT\ACAD
  9
$ELEVATION
 40
0.0
  9
$PELEVATION
 40
0.0
  9
$THICKNESS
 40
0.0
  9
$LIMCHECK
 70
     0
  9
$BLIPMODE
 70
     0
  9
$CHAMFERA
 40
0.0
  9
$CHAMFERB
 40
0.0
  9
$SKPOLY
 70
     0
  9
$TDCREATE
 40
2449840.6143865739
  9
$TDUPDATE
 40
2456598.4906710419
  9
$TDINDWG
 40
0.2412790394
  9
$TDUSRTIMER
 40
0.2412790394
  9
$USRTIMER
 70
     1
  9
$ANGBASE
 50
0.0
  9
$ANGDIR
 70
     0
  9
$PDMODE
 70
     0
  9
$PDSIZE
 40
0.0
  9
$PLINEWID
 40
0.0
  9
$COORDS
 70
     1
  9
$SPLFRAME
 70
     0
  9
$SPLINETYPE
 70
     6
  9
$SPLINESEGS
 70
     8
  9
$ATTDIA
 70
     0
  9
$ATTREQ
 70
     1
  9
$HANDLING
 70
     1
  9
$HANDSEED
  5
1644
  9
$SURFTAB1
 70
     6
  9
$SURFTAB2
 70
     6
  9
$SURFTYPE
 70
     6
  9
$SURFU
 70
     6
  9
$SURFV
 70
     6
  9
$UCSNAME
  2

  9
$UCSORG
 10
0.0
 20
0.0
 30
0.0
  9
$UCSXDIR
 10
1.0
 20
0.0
 30
0.0
  9
$UCSYDIR
 10
0.0
 20
1.0
 30
0.0
  9
$PUCSNAME
  2

  9
$PUCSORG
 10
0.0
 20
0.0
 30
0.0
  9
$PUCSXDIR
 10
1.0
 20
0.0
 30
0.0
  9
$PUCSYDIR
 10
0.0
 20
1.0
 30
0.0
  9
$USERI1
 70
     0
  9
$USERI2
 70
     1
  9
$USERI3
 70
     1
  9
$USERI4
 70
     0
  9
$USERI5
 70
     0
  9
$USERR1
 40
0.0
  9
$USERR2
 40
0.0
  9
$USERR3
 40
0.0
  9
$USERR4
 40
0.0
  9
$USERR5
 40
0.0
  9
$WORLDVIEW
 70
     1
  9
$SHADEDGE
 70
     3
  9
$SHADEDIF
 70
    70
  9
$TILEMODE
 70
     1
  9
$MAXACTVP
 70
    16
  9
$PLIMCHECK
 70
     0
  9
$PEXTMIN
 10
1.0000000000000000E+020
 20
1.0000000000000000E+020
 30
1.0000000000000000E+020
  9
$PEXTMAX
 10
-1.0000000000000000E+020
 20
-1.0000000000000000E+020
 30
-1.0000000000000000E+020
  9
$PLIMMIN
 10
0.0
 20
0.0
  9
$PLIMMAX
 10
12.0
 20
9.0
  9
$UNITMODE
 70
     0
  9
$VISRETAIN
 70
     0
  9
$PLINEGEN
 70
     0
  9
$PSLTSCALE
 70
     0
  0
ENDSEC
  0
SECTION
  2
TABLES
  0
TABLE
  2
VPORT
 70
     1
  0
VPORT
  2
*ACTIVE
 70
     0
 10
0.0
 20
0.0
 11
1.0
 21
1.0
 12
143.63817047329579
 22
126.2935599305835
 13
0.0
 23
0.0
 14
5.0
 24
5.0
 15
5.0
 25
5.0
 16
0.0
 26
0.0
 36
1.0
 17
0.0
 27
0.0
 37
0.0
 40
257.82202930602489
 41
1.7807262569832401
 42
50.0
 43
0.0
 44
0.0
 50
0.0
 51
0.0
 71
     0
 72
   100
 73
     1
 74
     0
 75
     0
 76
     0
 77
     0
 78
     0
  0
ENDTAB
  0
TABLE
  2
LTYPE
 70
     4
  0
LTYPE
  2
CONTINUOUS
 70
     0
  3
Solid Line
 72
    65
 73
     0
 40
0.0
  0
LTYPE
  2
CENTER
 70
     0
  3
____ _ ____ _ ____ _ ____ _ ____ _ ____ _ ____
 72
    65
 73
     4
 40
2.0
 49
1.25
 49
-0.25
 49
0.25
 49
-0.25
  0
LTYPE
  2
HIDDEN
 70
     0
  3
_ _ _ _ _ _ _ _ _ _ _ _ _ _ _ _ _ _ _ _ _ _ _
 72
    65
 73
     2
 40
0.375
 49
0.25
 49
-0.125
  0
LTYPE
  2
PHANTOM2
 70
     0
  3
___ _ _ ___ _ _ ___ _ _ ___ _ _
 72
    65
 73
     6
 40
1.25
 49
0.625
 49
-0.125
 49
0.125
 49
-0.125
 49
0.125
 49
-0.125
  0
ENDTAB
  0
TABLE
  2
LAYER
 70
     4
  0
LAYER
  2
0
 70
     0
 62
     7
  6
CONTINUOUS
  0
LAYER
  2
1
 70
     0
 62
     1
  6
CENTER
  0
LAYER
  2
3
 70
     0
 62
     3
  6
CONTINUOUS
  0
LAYER
  2
2
 70
     0
 62
     2
  6
HIDDEN
  0
ENDTAB
  0
TABLE
  2
STYLE
 70
     2
  0
STYLE
  2
STANDARD
 70
     0
 40
0.0
 41
1.0
 50
0.0
 71
     0
 42
4.0
  3
TXT
  4
BIGFONT
  0
STYLE
  2
STANDARD1
 70
     0
 40
0.0
 41
1.0
 50
0.0
 71
     0
 42
3.0
  3
txt
  4

  0
ENDTAB
  0
TABLE
  2
VIEW
 70
     1
  0
VIEW
  2
ALL
 70
     0
 40
179.66152299999999
 10
141.903918
 20
89.830760999999995
 41
0.0
 11
0.0
 21
0.0
 31
1.0
 12
0.0
 22
0.0
 32
0.0
 42
0.0
 43
0.0
 44
0.0
 50
0.0
 71
     0
  0
ENDTAB
  0
TABLE
  2
UCS
 70
     0
  0
ENDTAB
  0
TABLE
  2
APPID
 70
     4
  0
APPID
  2
ACAD
 70
     0
  0
APPID
  2
DCO15
 70
     0
  0
APPID
  2
ACAD_MLEADERVER
 70
     0
  0
APPID
  2
ACAD_NAV_VCDISPLAY
 70
     0
  0
ENDTAB
  0
TABLE
  2
DIMSTYLE
 70
     1
  0
DIMSTYLE
  2
STANDARD
 70
     0
  3

  4

  5

  6

  7

 40
1.0
 41
0.18
 42
0.0625
 43
0.38
 44
0.18
 45
0.0
 46
0.0
 47
0.0
 48
0.0
140
0.18
141
0.09
142
0.0
143
25.399999999999999
144
1.0
145
0.0
146
1.0
147
0.09
 71
     0
 72
     0
 73
     1
 74
     1
 75
     0
 76
     0
 77
     0
 78
     0
170
     0
171
     2
172
     0
173
     0
174
     0
175
     0
176
     0
177
     0
178
     0
  0
ENDTAB
  0
ENDSEC
  0
SECTION
  2
BLOCKS
  0
BLOCK
  8
0
  2
$MODEL_SPACE
 70
     0
 10
0.0
 20
0.0
 30
0.0
  3
$MODEL_SPACE
  1

  0
ENDBLK
  5
1BD
  8
0
  0
BLOCK
 67
     1
  8
0
  2
$PAPER_SPACE
 70
     0
 10
0.0
 20
0.0
 30
0.0
  3
$PAPER_SPACE
  1

  0
ENDBLK
  5
1BB
 67
     1
  8
0
  0
ENDSEC
  0
SECTION
  2
ENTITIES
  0
CIRCLE
  5
1496
  8
0
 10
265.77633960885697
 20
173.08844469178291
 30
0.0
 40
13.36824595823999
  0
CIRCLE
  5
1497
  8
0
 10
265.77633960885697
 20
173.08844469178291
 30
0.0
 40
15.5
  0
CIRCLE
  5
1498
  8
0
 10
265.77633960885697
 20
173.08844469178291
 30
0.0
 40
16.499999999999989
  0
LINE
  5
1499
  8
1
 10
244.276339608857
 20
173.08844469178291
 30
0.0
 11
287.27633960885697
 21
173.08844469178291
 31
0.0
  0
LINE
  5
149A
  8
1
 10
265.77633960885697
 20
194.588444691783
 30
0.0
 11
265.77633960885697
 21
151.58844469178291
 31
0.0
  0
CIRCLE
  5
149B
  8
0
 10
68.776339608857015
 20
173.088444691783
 30
0.0
 40
10.000000000000011
  0
CIRCLE
  5
149C
  8
0
 10
68.776339608857015
 20
173.088444691783
 30
0.0
 40
3.821665950457557
  0
LINE
  5
149D
  8
0
 10
179.35633960885701
 20
95.061533755032542
 30
0.0
 11
180.276339608857
 21
95.981533755032615
 31
0.0
  0
LINE
  5
149E
  8
0
 10
140.276339608857
 20
95.981533755032615
 30
0.0
 11
141.1963396088571
 21
95.061533755032542
 31
0.0
  0
LINE
  5
149F
  8
0
 10
141.1963396088571
 20
115.0615337550325
 30
0.0
 11
140.276339608857
 21
114.1415337550325
 31
0.0
  0
LINE
  5
14A0
  8
0
 10
141.1963396088571
 20
95.061533755032542
 30
0.0
 11
179.35633960885701
 21
95.061533755032542
 31
0.0
  0
LINE
  5
14A1
  8
0
 10
179.35633960885701
 20
115.0615337550325
 30
0.0
 11
141.1963396088571
 21
115.0615337550325
 31
0.0
  0
LINE
  5
14A2
  8
0
 10
180.276339608857
 20
114.1415337550325
 30
0.0
 11
179.35633960885701
 21
115.0615337550325
 31
0.0
  0
ARC
  5
14A3
  8
2
 10
226.5763396088569
 20
105.0615337550326
 30
0.0
 40
26.000000000000011
 50
149.0584544146526
 51
210.9415455853474
  0
ARC
  5
14A4
  8
0
 10
202.276339608857
 20
119.0615337550324
 30
0.0
 40
2.500000000000036
 50
36.869897645844667
 51
90.0
  0
ARC
  5
14A5
  8
0
 10
202.276339608857
 20
91.061533755032542
 30
0.0
 40
2.500000000000028
 50
270.0
 51
323.13010235415533
  0
LINE
  5
14A6
  8
0
 10
201.96565336019981
 20
88.561533755032542
 30
0.0
 11
202.276339608857
 21
88.561533755032542
 31
0.0
  0
LINE
  5
14A7
  8
0
 10
202.276339608857
 20
121.5615337550325
 30
0.0
 11
201.96565336019981
 21
121.5615337550325
 31
0.0
  0
LINE
  5
14A8
  8
0
 10
192.67633960885701
 20
95.561533755032556
 30
0.0
 11
201.96565336019981
 21
88.561533755032542
 31
0.0
  0
LINE
  5
14A9
  8
0
 10
201.96565336019981
 20
121.5615337550325
 30
0.0
 11
192.67633960885701
 21
114.5615337550325
 31
0.0
  0
LINE
  5
14AA
  8
0
 10
180.84202503380621
 20
95.561533755032556
 30
0.0
 11
192.67633960885701
 21
95.561533755032556
 31
0.0
  0
LINE
  5
14AB
  8
0
 10
192.67633960885701
 20
114.5615337550325
 30
0.0
 11
180.84202503380621
 21
114.5615337550325
 31
0.0
  0
LINE
  5
14AC
  8
0
 10
180.276339608857
 20
96.127219179981807
 30
0.0
 11
180.84202503380621
 21
95.561533755032556
 31
0.0
  0
LINE
  5
14AD
  8
0
 10
180.84202503380621
 20
114.5615337550325
 30
0.0
 11
180.276339608857
 21
113.99584833008321
 31
0.0
  0
LINE
  5
14AE
  8
0
 10
180.276339608857
 20
103.8115337550325
 30
0.0
 11
180.276339608857
 21
95.981533755032615
 31
0.0
  0
LINE
  5
14AF
  8
0
 10
140.276339608857
 20
114.1415337550325
 30
0.0
 11
140.276339608857
 21
95.981533755032615
 31
0.0
  0
LINE
  5
14B0
  8
0
 10
141.1963396088571
 20
115.0615337550325
 30
0.0
 11
141.1963396088571
 21
95.061533755032542
 31
0.0
  0
LINE
  5
14B1
  8
0
 10
179.35633960885701
 20
115.0615337550325
 30
0.0
 11
179.35633960885701
 21
95.061533755032542
 31
0.0
  0
LINE
  5
14B2
  8
0
 10
180.276339608857
 20
114.1415337550325
 30
0.0
 11
180.276339608857
 21
106.3115337550325
 31
0.0
  0
LINE
  5
14B3
  8
0
 10
204.276339608857
 20
120.5615337550325
 30
0.0
 11
204.276339608857
 21
89.561533755032528
 31
0.0
  0
LINE
  5
14B4
  8
0
 10
202.276339608857
 20
121.5615337550325
 30
0.0
 11
202.276339608857
 21
88.561533755032542
 31
0.0
  0
LINE
  5
14B5
  8
0
 10
201.96565336019981
 20
121.5615337550325
 30
0.0
 11
201.96565336019981
 21
88.561533755032542
 31
0.0
  0
LINE
  5
14B6
  8
0
 10
192.67633960885701
 20
114.5615337550325
 30
0.0
 11
192.67633960885701
 21
95.561533755032556
 31
0.0
  0
LINE
  5
14B7
  8
0
 10
180.84202503380621
 20
114.5615337550325
 30
0.0
 11
180.84202503380621
 21
95.561533755032556
 31
0.0
  0
LINE
  5
14B8
  8
0
 10
180.276339608857
 20
113.99584833008321
 30
0.0
 11
180.276339608857
 21
96.127219179981807
 31
0.0
  0
LINE
  5
14B9
  8
3
 10
140.276339608857
 20
95.981533755032615
 30
0.0
 11
180.276339608857
 21
95.981533755032615
 31
0.0
  0
LINE
  5
14BA
  8
3
 10
140.276339608857
 20
114.1415337550325
 30
0.0
 11
180.276339608857
 21
114.1415337550325
 31
0.0
  0
LINE
  5
14BB
  8
1
 10
209.276339608857
 20
105.0615337550325
 30
0.0
 11
125.276339608857
 21
105.0615337550325
 31
0.0
  0
LINE
  5
14BC
  8
0
 10
140.27633960885689
 20
100.0615337550326
 30
0.0
 11
133.07633960885701
 21
100.0615337550326
 31
0.0
  0
LINE
  5
14BD
  8
0
 10
133.07633960885701
 20
110.0615337550325
 30
0.0
 11
133.07633960885701
 21
100.0615337550326
 31
0.0
  0
LINE
  5
14BE
  8
0
 10
133.07633960885701
 20
100.0615337550326
 30
0.0
 11
131.03540516676139
 21
101.2398678045749
 31
0.0
  0
ARC
  5
14BF
  8
0
 10
140.276339608857
 20
105.0615337550325
 30
0.0
 40
10.0
 50
157.5320487330639
 51
202.4679512669361
  0
LINE
  5
14C0
  8
0
 10
131.03540516676111
 20
108.8831997054901
 30
0.0
 11
131.03540516676131
 21
101.2398678045749
 31
0.0
  0
LINE
  5
14C1
  8
0
 10
140.276339608857
 20
110.0615337550325
 30
0.0
 11
133.07633960885701
 21
110.0615337550325
 31
0.0
  0
LINE
  5
14C2
  8
0
 10
133.07633960885701
 20
110.0615337550325
 30
0.0
 11
131.03540516676139
 21
108.8831997054902
 31
0.0
  0
LINE
  5
14C3
  8
0
 10
133.07633960885701
 20
178.088444691783
 30
0.0
 11
131.03540516676139
 21
176.91011064224071
 31
0.0
  0
LINE
  5
14C4
  8
0
 10
140.276339608857
 20
178.088444691783
 30
0.0
 11
133.07633960885701
 21
178.088444691783
 31
0.0
  0
LINE
  5
14C5
  8
0
 10
131.03540516676111
 20
176.9101106422406
 30
0.0
 11
131.03540516676131
 21
169.2667787413254
 31
0.0
  0
ARC
  5
14C6
  8
0
 10
140.276339608857
 20
173.088444691783
 30
0.0
 40
10.0
 50
157.5320487330639
 51
202.4679512669361
  0
LINE
  5
14C7
  8
0
 10
133.07633960885701
 20
168.08844469178311
 30
0.0
 11
131.03540516676139
 21
169.2667787413254
 31
0.0
  0
LINE
  5
14C8
  8
0
 10
133.07633960885701
 20
178.088444691783
 30
0.0
 11
133.07633960885701
 21
168.08844469178311
 31
0.0
  0
LINE
  5
14C9
  8
0
 10
140.27633960885689
 20
168.08844469178311
 30
0.0
 11
133.07633960885701
 21
168.08844469178311
 31
0.0
  0
LINE
  5
14CA
  8
1
 10
68.776339608857015
 20
194.588444691783
 30
0.0
 11
68.776339608857015
 21
151.588444691783
 31
0.0
  0
CIRCLE
  5
14CB
  8
3
 10
68.776339608857015
 20
173.088444691783
 30
0.0
 40
9.0799999999999947
  0
LINE
  5
14CC
  8
1
 10
47.276339608857029
 20
173.088444691783
 30
0.0
 11
90.276339608857029
 21
173.088444691783
 31
0.0
  0
CIRCLE
  5
14CD
  8
0
 10
68.776339608857015
 20
173.088444691783
 30
0.0
 40
4.999999999999992
  0
CIRCLE
  5
14CE
  8
0
 10
68.776339608857015
 20
173.088444691783
 30
0.0
 40
16.499999999999989
  0
LINE
  5
14CF
  8
1
 10
209.276339608857
 20
173.08844469178291
 30
0.0
 11
125.276339608857
 21
173.088444691783
 31
0.0
  0
LINE
  5
14D0
  8
3
 10
140.276339608857
 20
182.16844469178301
 30
0.0
 11
180.276339608857
 21
182.16844469178301
 31
0.0
  0
LINE
  5
14D1
  8
3
 10
140.276339608857
 20
164.0084446917831
 30
0.0
 11
180.276339608857
 21
164.0084446917831
 31
0.0
  0
LINE
  5
14D2
  8
0
 10
180.276339608857
 20
171.838444691783
 30
0.0
 11
179.35633960885701
 21
171.838444691783
 31
0.0
  0
LINE
  5
14D3
  8
0
 10
179.35633960885701
 20
174.338444691783
 30
0.0
 11
180.276339608857
 21
174.338444691783
 31
0.0
  0
LINE
  5
14D4
  8
0
 10
180.276339608857
 20
182.0227592668337
 30
0.0
 11
180.276339608857
 21
164.15413011673229
 31
0.0
  0
LINE
  5
14D5
  8
0
 10
180.84202503380621
 20
182.588444691783
 30
0.0
 11
180.84202503380621
 21
163.588444691783
 31
0.0
  0
LINE
  5
14D6
  8
0
 10
192.67633960885701
 20
182.588444691783
 30
0.0
 11
192.67633960885701
 21
163.588444691783
 31
0.0
  0
LINE
  5
14D7
  8
0
 10
201.96565336019981
 20
189.58844469178291
 30
0.0
 11
201.96565336019981
 21
156.588444691783
 31
0.0
  0
LINE
  5
14D8
  8
0
 10
202.276339608857
 20
189.58844469178291
 30
0.0
 11
202.276339608857
 21
156.588444691783
 31
0.0
  0
LINE
  5
14D9
  8
0
 10
204.276339608857
 20
188.58844469178291
 30
0.0
 11
204.276339608857
 21
157.588444691783
 31
0.0
  0
LINE
  5
14DA
  8
0
 10
174.776339608857
 20
174.338444691783
 30
0.0
 11
179.35633960885701
 21
174.338444691783
 31
0.0
  0
POLYLINE
  5
14DB
  8
0
 66
     1
 10
0.0
 20
0.0
 30
0.0
  0
VERTEX
  5
1600
  8
0
 10
179.35633960885701
 20
174.338444691783
 30
0.0
  0
VERTEX
  5
1601
  8
0
 10
179.51604828845049
 20
174.338444691783
 30
0.0
  0
VERTEX
  5
1602
  8
0
 10
179.8276306277875
 20
174.338444691783
 30
0.0
  0
VERTEX
  5
1603
  8
0
 10
180.1291798082876
 20
174.338444691783
 30
0.0
  0
VERTEX
  5
1604
  8
0
 10
180.276339608857
 20
174.338444691783
 30
0.0
  0
SEQEND
  5
1605
  8
0
  0
LINE
  5
14DC
  8
0
 10
174.776339608857
 20
171.838444691783
 30
0.0
 11
174.776339608857
 21
174.338444691783
 31
0.0
  0
LINE
  5
14DD
  8
0
 10
179.35633960885701
 20
171.838444691783
 30
0.0
 11
174.776339608857
 21
171.838444691783
 31
0.0
  0
POLYLINE
  5
14DE
  8
0
 66
     1
 10
0.0
 20
0.0
 30
0.0
  0
VERTEX
  5
1606
  8
0
 10
180.276339608857
 20
171.838444691783
 30
0.0
  0
VERTEX
  5
1607
  8
0
 10
180.1291798082876
 20
171.838444691783
 30
0.0
  0
VERTEX
  5
1608
  8
0
 10
179.8276306277875
 20
171.838444691783
 30
0.0
  0
VERTEX
  5
1609
  8
0
 10
179.51604828845049
 20
171.838444691783
 30
0.0
  0
VERTEX
  5
160A
  8
0
 10
179.35633960885701
 20
171.838444691783
 30
0.0
  0
SEQEND
  5
160B
  8
0
  0
LINE
  5
14DF
  8
0
 10
180.276339608857
 20
182.16844469178301
 30
0.0
 11
180.276339608857
 21
174.338444691783
 31
0.0
  0
LINE
  5
14E0
  8
0
 10
179.35633960885701
 20
183.088444691783
 30
0.0
 11
179.35633960885701
 21
174.338444691783
 31
0.0
  0
LINE
  5
14E1
  8
0
 10
179.35633960885701
 20
171.838444691783
 30
0.0
 11
179.35633960885701
 21
163.088444691783
 31
0.0
  0
LINE
  5
14E2
  8
0
 10
141.1963396088571
 20
183.088444691783
 30
0.0
 11
141.1963396088571
 21
163.088444691783
 31
0.0
  0
LINE
  5
14E3
  8
0
 10
140.276339608857
 20
182.16844469178301
 30
0.0
 11
140.276339608857
 21
164.0084446917831
 31
0.0
  0
LINE
  5
14E4
  8
0
 10
180.276339608857
 20
171.838444691783
 30
0.0
 11
180.276339608857
 21
164.0084446917831
 31
0.0
  0
LINE
  5
14E5
  8
0
 10
180.84202503380621
 20
182.588444691783
 30
0.0
 11
180.276339608857
 21
182.0227592668337
 31
0.0
  0
LINE
  5
14E6
  8
0
 10
180.276339608857
 20
164.15413011673229
 30
0.0
 11
180.84202503380621
 21
163.588444691783
 31
0.0
  0
LINE
  5
14E7
  8
0
 10
192.67633960885701
 20
182.588444691783
 30
0.0
 11
180.84202503380621
 21
182.588444691783
 31
0.0
  0
LINE
  5
14E8
  8
0
 10
180.84202503380621
 20
163.588444691783
 30
0.0
 11
192.67633960885701
 21
163.588444691783
 31
0.0
  0
LINE
  5
14E9
  8
0
 10
201.96565336019981
 20
189.58844469178291
 30
0.0
 11
192.67633960885701
 21
182.588444691783
 31
0.0
  0
LINE
  5
14EA
  8
0
 10
192.67633960885701
 20
163.588444691783
 30
0.0
 11
201.96565336019981
 21
156.588444691783
 31
0.0
  0
LINE
  5
14EB
  8
0
 10
202.276339608857
 20
189.58844469178291
 30
0.0
 11
201.96565336019981
 21
189.58844469178291
 31
0.0
  0
LINE
  5
14EC
  8
0
 10
201.96565336019981
 20
156.588444691783
 30
0.0
 11
202.276339608857
 21
156.588444691783
 31
0.0
  0
ARC
  5
14ED
  8
0
 10
202.276339608857
 20
159.088444691783
 30
0.0
 40
2.500000000000028
 50
270.0
 51
323.13010235415533
  0
ARC
  5
14EE
  8
0
 10
202.276339608857
 20
187.08844469178291
 30
0.0
 40
2.500000000000036
 50
36.869897645844667
 51
90.0
  0
ARC
  5
14EF
  8
2
 10
226.5763396088569
 20
173.08844469178311
 30
0.0
 40
26.000000000000011
 50
149.0584544146526
 51
210.9415455853474
  0
LINE
  5
14F0
  8
0
 10
180.276339608857
 20
182.16844469178301
 30
0.0
 11
179.35633960885701
 21
183.088444691783
 31
0.0
  0
LINE
  5
14F1
  8
0
 10
179.35633960885701
 20
183.088444691783
 30
0.0
 11
141.1963396088571
 21
183.088444691783
 31
0.0
  0
LINE
  5
14F2
  8
0
 10
141.1963396088571
 20
163.088444691783
 30
0.0
 11
179.35633960885701
 21
163.088444691783
 31
0.0
  0
LINE
  5
14F3
  8
0
 10
141.1963396088571
 20
183.088444691783
 30
0.0
 11
140.276339608857
 21
182.16844469178301
 31
0.0
  0
LINE
  5
14F4
  8
0
 10
140.276339608857
 20
164.0084446917831
 30
0.0
 11
141.1963396088571
 21
163.088444691783
 31
0.0
  0
LINE
  5
14F5
  8
0
 10
179.35633960885701
 20
163.088444691783
 30
0.0
 11
180.276339608857
 21
164.0084446917831
 31
0.0
  0
TEXT
  5
159F
  8
0
 62
     3
 10
0.0
 20
0.0
 30
0.0
 40
5.0
  1
SDXN20A-SUS
  7
STANDARD1
  0
ENDSEC
  0
EOF
