  0
SECTION
  2
HEADER
  9
$ACADVER
  1
AC1009
  9
$INSBASE
 10
0.0
 20
0.0
 30
0.0
  9
$EXTMIN
 10
0.0
 20
-1.4802182810368341
 30
0.0
  9
$EXTMAX
 10
229.0000001671385
 20
109.000000200074
 30
0.0
  9
$LIMMIN
 10
0.0
 20
0.0
  9
$LIMMAX
 10
187.5
 20
135.0
  9
$ORTHOMODE
 70
     1
  9
$REGENMODE
 70
     1
  9
$FILLMODE
 70
     1
  9
$QTEXTMODE
 70
     0
  9
$MIRRTEXT
 70
     0
  9
$DRAGMODE
 70
     2
  9
$LTSCALE
 40
5.0
  9
$OSMODE
 70
    37
  9
$ATTMODE
 70
     1
  9
$TEXTSIZE
 40
0.2
  9
$TRACEWID
 40
0.05
  9
$TEXTSTYLE
  7
STANDARD
  9
$CLAYER
  8
0
  9
$CELTYPE
  6
BYLAYER
  9
$CECOLOR
 62
   256
  9
$DIMSCALE
 40
0.5
  9
$DIMASZ
 40
3.0
  9
$DIMEXO
 40
2.0
  9
$DIMDLI
 40
10.0
  9
$DIMRND
 40
0.0
  9
$DIMDLE
 40
0.0
  9
$DIMEXE
 40
2.0
  9
$DIMTP
 40
0.0
  9
$DIMTM
 40
0.0
  9
$DIMTXT
 40
3.2000000000000002
  9
$DIMCEN
 40
0.0
  9
$DIMTSZ
 40
0.0
  9
$DIMTOL
 70
     0
  9
$DIMLIM
 70
     0
  9
$DIMTIH
 70
     0
  9
$DIMTOH
 70
     0
  9
$DIMSE1
 70
     0
  9
$DIMSE2
 70
     0
  9
$DIMTAD
 70
     1
  9
$DIMZIN
 70
     0
  9
$DIMBLK
  1

  9
$DIMASO
 70
     1
  9
$DIMSHO
 70
     0
  9
$DIMPOST
  1

  9
$DIMAPOST
  1

  9
$DIMALT
 70
     0
  9
$DIMALTD
 70
     2
  9
$DIMALTF
 40
25.399999999999999
  9
$DIMLFAC
 40
1.0
  9
$DIMTOFL
 70
     1
  9
$DIMTVP
 40
1.6000000000000001
  9
$DIMTIX
 70
     1
  9
$DIMSOXD
 70
     0
  9
$DIMSAH
 70
     0
  9
$DIMBLK1
  1

  9
$DIMBLK2
  1

  9
$DIMSTYLE
  2
STANDARD
  9
$DIMCLRD
 70
     0
  9
$DIMCLRE
 70
     0
  9
$DIMCLRT
 70
     0
  9
$DIMTFAC
 40
1.0
  9
$DIMGAP
 40
0.09
  9
$LUNITS
 70
     2
  9
$LUPREC
 70
     4
  9
$SKETCHINC
 40
0.1
  9
$FILLETRAD
 40
0.0
  9
$AUNITS
 70
     0
  9
$AUPREC
 70
     4
  9
$MENU
  1
E:\r13\win\SUPPORT\ACAD
  9
$ELEVATION
 40
0.0
  9
$PELEVATION
 40
0.0
  9
$THICKNESS
 40
0.0
  9
$LIMCHECK
 70
     0
  9
$BLIPMODE
 70
     0
  9
$CHAMFERA
 40
0.0
  9
$CHAMFERB
 40
0.0
  9
$SKPOLY
 70
     0
  9
$TDCREATE
 40
2449840.6204513889
  9
$TDUPDATE
 40
2457176.7223208449
  9
$TDINDWG
 40
0.0297942593
  9
$TDUSRTIMER
 40
0.0297942593
  9
$USRTIMER
 70
     1
  9
$ANGBASE
 50
0.0
  9
$ANGDIR
 70
     0
  9
$PDMODE
 70
    35
  9
$PDSIZE
 40
0.0
  9
$PLINEWID
 40
0.0
  9
$COORDS
 70
     1
  9
$SPLFRAME
 70
     0
  9
$SPLINETYPE
 70
     6
  9
$SPLINESEGS
 70
     8
  9
$ATTDIA
 70
     0
  9
$ATTREQ
 70
     1
  9
$HANDLING
 70
     1
  9
$HANDSEED
  5
943
  9
$SURFTAB1
 70
     6
  9
$SURFTAB2
 70
     6
  9
$SURFTYPE
 70
     6
  9
$SURFU
 70
     6
  9
$SURFV
 70
     6
  9
$UCSNAME
  2

  9
$UCSORG
 10
0.0
 20
0.0
 30
0.0
  9
$UCSXDIR
 10
1.0
 20
0.0
 30
0.0
  9
$UCSYDIR
 10
0.0
 20
1.0
 30
0.0
  9
$PUCSNAME
  2

  9
$PUCSORG
 10
0.0
 20
0.0
 30
0.0
  9
$PUCSXDIR
 10
1.0
 20
0.0
 30
0.0
  9
$PUCSYDIR
 10
0.0
 20
1.0
 30
0.0
  9
$USERI1
 70
     0
  9
$USERI2
 70
     1
  9
$USERI3
 70
     1
  9
$USERI4
 70
     0
  9
$USERI5
 70
     0
  9
$USERR1
 40
0.0
  9
$USERR2
 40
0.0
  9
$USERR3
 40
0.0
  9
$USERR4
 40
0.0
  9
$USERR5
 40
0.0
  9
$WORLDVIEW
 70
     1
  9
$SHADEDGE
 70
     3
  9
$SHADEDIF
 70
    70
  9
$TILEMODE
 70
     1
  9
$MAXACTVP
 70
    16
  9
$PLIMCHECK
 70
     0
  9
$PEXTMIN
 10
1.0000000000000000E+020
 20
1.0000000000000000E+020
 30
1.0000000000000000E+020
  9
$PEXTMAX
 10
-1.0000000000000000E+020
 20
-1.0000000000000000E+020
 30
-1.0000000000000000E+020
  9
$PLIMMIN
 10
0.0
 20
0.0
  9
$PLIMMAX
 10
12.0
 20
9.0
  9
$UNITMODE
 70
     0
  9
$VISRETAIN
 70
     0
  9
$PLINEGEN
 70
     0
  9
$PSLTSCALE
 70
     0
  0
ENDSEC
  0
SECTION
  2
TABLES
  0
TABLE
  2
VPORT
 70
     1
  0
VPORT
  2
*ACTIVE
 70
     0
 10
0.0
 20
0.0
 11
1.0
 21
1.0
 12
150.10955517872841
 22
53.758022692282253
 13
0.0
 23
0.0
 14
5.0
 24
5.0
 15
5.0
 25
5.0
 16
0.0
 26
0.0
 36
1.0
 17
0.0
 27
0.0
 37
0.0
 40
115.7758310482801
 41
2.6019575856443709
 42
50.0
 43
0.0
 44
0.0
 50
0.0
 51
0.0
 71
     0
 72
   500
 73
     1
 74
     0
 75
     0
 76
     0
 77
     0
 78
     2
  0
ENDTAB
  0
TABLE
  2
LTYPE
 70
     3
  0
LTYPE
  2
CONTINUOUS
 70
     0
  3
Solid Line
 72
    65
 73
     0
 40
0.0
  0
LTYPE
  2
CENTER
 70
     0
  3
____ _ ____ _ ____ _ ____ _ ____ _ ____ _ ____
 72
    65
 73
     4
 40
2.0
 49
1.25
 49
-0.25
 49
0.25
 49
-0.25
  0
LTYPE
  2
PHANTOM2
 70
     0
  3
___ _ _ ___ _ _ ___ _ _ ___ _ _
 72
    65
 73
     6
 40
1.25
 49
0.625
 49
-0.125
 49
0.125
 49
-0.125
 49
0.125
 49
-0.125
  0
ENDTAB
  0
TABLE
  2
LAYER
 70
     4
  0
LAYER
  2
0
 70
     0
 62
     7
  6
CONTINUOUS
  0
LAYER
  2
1
 70
     0
 62
     1
  6
CENTER
  0
LAYER
  2
3
 70
     0
 62
     3
  6
CONTINUOUS
  0
LAYER
  2
DEFPOINTS
 70
     0
 62
     7
  6
CONTINUOUS
  0
ENDTAB
  0
TABLE
  2
STYLE
 70
     2
  0
STYLE
  2
STANDARD
 70
     0
 40
0.0
 41
1.0
 50
0.0
 71
     0
 42
0.2
  3
ROMANS
  4
BIGFONT
  0
STYLE
  2
STANDARD1
 70
     0
 40
0.0
 41
1.0
 50
0.0
 71
     0
 42
3.0
  3
txt
  4

  0
ENDTAB
  0
TABLE
  2
VIEW
 70
     1
  0
VIEW
  2
ALL
 70
     0
 40
175.0
 10
143.23529411764699
 20
87.5
 41
0.0
 11
0.0
 21
0.0
 31
1.0
 12
0.0
 22
0.0
 32
0.0
 42
0.0
 43
0.0
 44
0.0
 50
0.0
 71
     0
  0
ENDTAB
  0
TABLE
  2
UCS
 70
     0
  0
ENDTAB
  0
TABLE
  2
APPID
 70
     4
  0
APPID
  2
ACAD
 70
     0
  0
APPID
  2
ACAD_MLEADERVER
 70
     0
  0
APPID
  2
ACAD_EXEMPT_FROM_CAD_STANDARDS
 70
     0
  0
APPID
  2
ACAD_NAV_VCDISPLAY
 70
     0
  0
ENDTAB
  0
TABLE
  2
DIMSTYLE
 70
     1
  0
DIMSTYLE
  2
STANDARD
 70
     0
  3

  4

  5

  6

  7

 40
1.0
 41
0.18
 42
0.0625
 43
0.38
 44
0.18
 45
0.0
 46
0.0
 47
0.0
 48
0.0
140
0.18
141
0.09
142
0.0
143
25.399999999999999
144
1.0
145
0.0
146
1.0
147
0.09
 71
     0
 72
     0
 73
     1
 74
     1
 75
     0
 76
     0
 77
     0
 78
     0
170
     0
171
     2
172
     0
173
     0
174
     0
175
     0
176
     0
177
     0
178
     0
  0
ENDTAB
  0
ENDSEC
  0
SECTION
  2
BLOCKS
  0
BLOCK
  8
0
  2
$MODEL_SPACE
 70
     0
 10
0.0
 20
0.0
 30
0.0
  3
$MODEL_SPACE
  1

  0
ENDBLK
  5
110
  8
0
  0
BLOCK
 67
     1
  8
0
  2
$PAPER_SPACE
 70
     0
 10
0.0
 20
0.0
 30
0.0
  3
$PAPER_SPACE
  1

  0
ENDBLK
  5
10E
 67
     1
  8
0
  0
ENDSEC
  0
SECTION
  2
ENTITIES
  0
TEXT
  5
342
  8
0
 62
     3
 10
0.0
 20
0.0
 30
0.0
 40
5.0
  1
SDXR16W
  7
STANDARD1
  0
LINE
  5
836
  8
0
 10
126.7300001671385
 20
98.000000200073444
 30
0.0
 11
113.2500001671385
 21
98.000000200073444
 31
0.0
  0
LINE
  5
837
  8
0
 10
113.2500001671385
 20
82.000000200073458
 30
0.0
 11
126.7300001671385
 21
82.000000200073458
 31
0.0
  0
LINE
  5
838
  8
0
 10
105.2500001671269
 20
98.000000200073444
 30
0.0
 11
92.570000167138545
 21
98.000000200073515
 31
0.0
  0
LINE
  5
839
  8
0
 10
92.570000167138545
 20
82.000000200073515
 30
0.0
 11
105.2500001671001
 21
82.000000200073444
 31
0.0
  0
LINE
  5
83A
  8
0
 10
92.570000167138545
 20
98.000000200073515
 30
0.0
 11
91.650000167138515
 21
97.080000200073499
 31
0.0
  0
LINE
  5
83B
  8
0
 10
91.650000167138515
 20
82.920000200073474
 30
0.0
 11
92.570000167138545
 21
82.000000200073515
 31
0.0
  0
LINE
  5
83C
  8
0
 10
126.7300001671385
 20
82.000000200073458
 30
0.0
 11
127.6500001671385
 21
82.920000200073403
 31
0.0
  0
LINE
  5
83D
  8
0
 10
127.6500001671385
 20
97.080000200073457
 30
0.0
 11
126.7300001671385
 21
98.000000200073444
 31
0.0
  0
LINE
  5
83E
  8
0
 10
91.650000167138515
 20
94.000000200073515
 30
0.0
 11
85.950000167138541
 21
94.000000200073515
 31
0.0
  0
LINE
  5
83F
  8
0
 10
85.950000167138541
 20
86.000000200073515
 30
0.0
 11
91.650000167138515
 21
86.000000200073515
 31
0.0
  0
LINE
  5
840
  8
0
 10
134.3500001671386
 20
93.200000200073447
 30
0.0
 11
130.1883248969385
 21
93.200000200073447
 31
0.0
  0
LINE
  5
841
  8
0
 10
130.1883248969385
 20
86.800000200073413
 30
0.0
 11
134.3500001671386
 21
86.800000200073413
 31
0.0
  0
LINE
  5
842
  8
0
 10
134.3500001671386
 20
86.800000200073413
 30
0.0
 11
134.85000016713849
 21
87.300000200073413
 31
0.0
  0
LINE
  5
843
  8
0
 10
134.85000016713849
 20
92.700000200073447
 30
0.0
 11
134.3500001671386
 21
93.200000200073447
 31
0.0
  0
LINE
  5
844
  8
0
 10
126.7300001671385
 20
90.800000200073413
 30
0.0
 11
126.7300001671385
 21
98.000000200073444
 31
0.0
  0
LINE
  5
845
  8
0
 10
124.05000016713851
 20
90.800000200073413
 30
0.0
 11
127.6500001671385
 21
90.800000200073427
 31
0.0
  0
LINE
  5
846
  8
0
 10
124.05000016713851
 20
90.800000200073413
 30
0.0
 11
124.05000016713851
 21
89.200000200073447
 31
0.0
  0
LINE
  5
847
  8
0
 10
127.6500001671385
 20
89.200000200073447
 30
0.0
 11
124.05000016713851
 21
89.200000200073447
 31
0.0
  0
LINE
  5
848
  8
0
 10
126.7300001671385
 20
82.000000200073458
 30
0.0
 11
126.7300001671385
 21
89.200000200073447
 31
0.0
  0
LINE
  5
849
  8
0
 10
92.570000167138545
 20
98.000000200073515
 30
0.0
 11
92.570000167138545
 21
82.000000200073515
 31
0.0
  0
LINE
  5
84A
  8
0
 10
91.650000167138515
 20
97.080000200073485
 30
0.0
 11
91.650000167138515
 21
82.920000200073474
 31
0.0
  0
LINE
  5
84B
  8
0
 10
127.6500001671385
 20
82.920000200073403
 30
0.0
 11
127.6500001671385
 21
89.200000200073447
 31
0.0
  0
LINE
  5
84C
  8
0
 10
127.6500001671385
 20
90.800000200073413
 30
0.0
 11
127.6500001671385
 21
97.080000200073457
 31
0.0
  0
LINE
  5
84D
  8
0
 10
85.950000167138541
 20
94.000000200073515
 30
0.0
 11
85.950000167138541
 21
86.000000200073515
 31
0.0
  0
ARC
  5
84E
  8
0
 10
128.7226264576482
 20
83.403004144636583
 30
0.0
 40
3.699710004256116
 50
66.661300389267751
 51
106.8532696133495
  0
LINE
  5
84F
  8
0
 10
134.3500001671386
 20
86.800000200073413
 30
0.0
 11
134.3500001671386
 21
93.200000200073447
 31
0.0
  0
LINE
  5
850
  8
0
 10
134.85000016713849
 20
87.300000200073413
 30
0.0
 11
134.85000016713849
 21
92.700000200073447
 31
0.0
  0
ARC
  5
851
  8
0
 10
153.5214511889377
 20
30.000000200123441
 30
0.0
 40
1.400000000000005
 50
270.0
 51
90.0
  0
LINE
  5
852
  8
0
 10
153.5214511889377
 20
31.400000200123468
 30
0.0
 11
128.66856316453851
 21
31.400000200123468
 31
0.0
  0
LINE
  5
853
  8
0
 10
128.6695975719384
 20
28.600000200123411
 30
0.0
 11
153.5214511889377
 21
28.6000002001234
 31
0.0
  0
LINE
  5
854
  8
0
 10
105.2500001671385
 20
38.000000200123438
 30
0.0
 11
92.570000167138488
 21
38.000000200123502
 31
0.0
  0
LINE
  5
855
  8
0
 10
92.570000167138488
 20
22.000000200123502
 30
0.0
 11
105.2500001671385
 21
22.000000200123441
 31
0.0
  0
LINE
  5
856
  8
0
 10
92.570000167138488
 20
38.000000200123502
 30
0.0
 11
91.650000167138515
 21
37.080000200123479
 31
0.0
  0
LINE
  5
857
  8
0
 10
91.650000167138515
 20
22.920000200123511
 30
0.0
 11
92.570000167138488
 21
22.000000200123502
 31
0.0
  0
LINE
  5
858
  8
0
 10
124.05000016713851
 20
38.000000200123438
 30
0.0
 11
113.2500001671385
 21
38.000000200123438
 31
0.0
  0
LINE
  5
859
  8
0
 10
113.2500001671385
 20
22.000000200123441
 30
0.0
 11
124.05000016713851
 21
22.000000200123441
 31
0.0
  0
LINE
  5
85A
  8
0
 10
91.650000167138515
 20
34.000000200123488
 30
0.0
 11
85.950000167138484
 21
34.000000200123488
 31
0.0
  0
LINE
  5
85B
  8
0
 10
85.950000167138484
 20
26.000000200123502
 30
0.0
 11
91.650000167138515
 21
26.000000200123502
 31
0.0
  0
LINE
  5
85C
  8
0
 10
134.35000016713849
 20
33.200000200123426
 30
0.0
 11
127.6500001671385
 21
33.200000200123426
 31
0.0
  0
LINE
  5
85D
  8
0
 10
127.6500001671385
 20
26.800000200123449
 30
0.0
 11
134.35000016713849
 21
26.800000200123449
 31
0.0
  0
LINE
  5
85E
  8
0
 10
134.35000016713849
 20
26.800000200123449
 30
0.0
 11
134.85000016713849
 21
27.300000200123449
 31
0.0
  0
LINE
  5
85F
  8
0
 10
134.85000016713849
 20
32.700000200123426
 30
0.0
 11
134.35000016713849
 21
33.200000200123426
 31
0.0
  0
ARC
  5
860
  8
0
 10
128.60349671693851
 20
30.139513946723451
 30
0.0
 40
1.250468612826221
 50
85.140253764698727
 51
139.68609877650161
  0
ARC
  5
861
  8
0
 10
128.5726955450385
 20
29.812349406323442
 30
0.0
 40
1.195956599221031
 50
219.51010163009781
 51
276.49499642549711
  0
LINE
  5
862
  8
0
 10
92.570000167138488
 20
38.000000200123502
 30
0.0
 11
92.570000167138488
 21
22.000000200123502
 31
0.0
  0
LINE
  5
863
  8
0
 10
127.6500001671385
 20
22.96534313672343
 30
0.0
 11
127.6500001671385
 21
37.034657263523442
 31
0.0
  0
LINE
  5
864
  8
0
 10
126.7300001671384
 20
22.040100703223501
 30
0.0
 11
127.6500001671385
 21
22.96534313672343
 31
0.0
  0
LINE
  5
865
  8
0
 10
126.7300001671384
 20
22.040100703223501
 30
0.0
 11
126.7300001671384
 21
37.959899696923451
 31
0.0
  0
POLYLINE
  5
866
  8
0
 66
     1
 10
0.0
 20
0.0
 30
0.0
 70
   128
  0
VERTEX
  5
93E
  8
0
 10
126.7300001671384
 20
37.959899696923451
 30
0.0
  0
VERTEX
  5
93F
  8
0
 10
127.1900807818385
 20
37.497358690823482
 30
0.0
  0
VERTEX
  5
940
  8
0
 10
127.4200625486385
 20
37.266029926723483
 30
0.0
  0
VERTEX
  5
941
  8
0
 10
127.6500001671385
 20
37.034657263523442
 30
0.0
  0
SEQEND
  5
942
  8
0
  0
LINE
  5
867
  8
0
 10
91.650000167138515
 20
37.080000200123479
 30
0.0
 11
91.650000167138515
 21
22.920000200123511
 31
0.0
  0
LINE
  5
868
  8
0
 10
124.05000016713851
 20
38.000000200123438
 30
0.0
 11
124.05000016713851
 21
37.959899696923451
 31
0.0
  0
LINE
  5
869
  8
0
 10
126.7300001671384
 20
37.959899696923451
 30
0.0
 11
124.05000016713851
 21
37.959899696923451
 31
0.0
  0
LINE
  5
86A
  8
0
 10
124.05000016713851
 20
22.040100703223501
 30
0.0
 11
126.7300001671384
 21
22.040100703223501
 31
0.0
  0
LINE
  5
86B
  8
0
 10
124.05000016713851
 20
22.040100703223501
 30
0.0
 11
124.05000016713851
 21
22.000000200123441
 31
0.0
  0
LINE
  5
86C
  8
0
 10
85.950000167138484
 20
34.000000200123488
 30
0.0
 11
85.950000167138484
 21
26.000000200123502
 31
0.0
  0
LINE
  5
86D
  8
0
 10
134.35000016713849
 20
26.800000200123449
 30
0.0
 11
134.35000016713849
 21
28.600000200123411
 31
0.0
  0
LINE
  5
86E
  8
0
 10
134.35000016713849
 20
31.400000200123468
 30
0.0
 11
134.35000016713849
 21
33.200000200123426
 31
0.0
  0
LINE
  5
86F
  8
0
 10
134.85000016713849
 20
27.300000200123449
 30
0.0
 11
134.85000016713849
 21
28.600000200123411
 31
0.0
  0
LINE
  5
870
  8
0
 10
134.85000016713849
 20
31.400000200123468
 30
0.0
 11
134.85000016713849
 21
32.700000200123426
 31
0.0
  0
ARC
  5
871
  8
0
 10
210.0000001671385
 20
77.400000200074075
 30
0.0
 40
1.400000000000005
 50
180.0
 51
0.0
  0
ARC
  5
872
  8
0
 10
210.0000001671385
 20
102.60000020007401
 30
0.0
 40
1.400000000000005
 50
0.0
 51
180.0
  0
LINE
  5
873
  8
0
 10
208.60000016713849
 20
102.60000020007401
 30
0.0
 11
208.60000016713849
 21
77.400000200074075
 31
0.0
  0
LINE
  5
874
  8
0
 10
211.4000001671385
 20
77.400000200074075
 30
0.0
 11
211.4000001671385
 21
102.60000020007401
 31
0.0
  0
ARC
  5
875
  8
0
 10
210.0000001671385
 20
90.000000200073487
 30
0.0
 40
3.200000000000006
 50
295.94447977239889
 51
64.05552022762717
  0
ARC
  5
876
  8
0
 10
210.0000001671385
 20
90.000000200073487
 30
0.0
 40
3.200000000000033
 50
115.94447977239891
 51
244.05552022760099
  0
ARC
  5
877
  8
0
 10
210.0000001671385
 20
90.000000200073487
 30
0.0
 40
2.70000000000437
 50
301.23292901550218
 51
58.767070984540872
  0
ARC
  5
878
  8
0
 10
210.0000001671385
 20
90.000000200073487
 30
0.0
 40
2.7000000000043931
 50
121.23292901550219
 51
238.76707098449731
  0
LINE
  5
879
  8
0
 10
213.0983868441385
 20
89.200000200073475
 30
0.0
 11
217.95989966399151
 21
89.200000200073475
 31
0.0
  0
ARC
  5
87A
  8
0
 10
210.0000001671385
 20
90.000000200073487
 30
0.0
 40
7.0799999999999974
 50
281.40483801009992
 51
353.512044275302
  0
ARC
  5
87B
  8
0
 10
210.0000001671385
 20
90.000000200073487
 30
0.0
 40
7.0800000000000169
 50
186.487955724698
 51
258.59516198990019
  0
LINE
  5
87C
  8
0
 10
202.04010067028551
 20
89.200000200073475
 30
0.0
 11
206.90161349013849
 21
89.200000200073475
 31
0.0
  0
LINE
  5
87D
  8
0
 10
206.90161349013849
 20
90.800000200073455
 30
0.0
 11
202.04010067028551
 21
90.800000200073455
 31
0.0
  0
ARC
  5
87E
  8
0
 10
210.0000001671385
 20
90.000000200073487
 30
0.0
 40
7.0800000000000178
 50
101.40483801009989
 51
173.512044275302
  0
ARC
  5
87F
  8
0
 10
210.0000001671385
 20
90.000000200073487
 30
0.0
 40
7.0799999999999974
 50
6.48795572469799
 51
78.59516198990012
  0
LINE
  5
880
  8
0
 10
217.95989966399151
 20
90.800000200073455
 30
0.0
 11
213.0983868441385
 21
90.800000200073455
 31
0.0
  0
ARC
  5
881
  8
0
 10
210.0000001671385
 20
90.000000200073487
 30
0.0
 40
7.9999999999999929
 50
280.07865810780152
 51
79.921341892212297
  0
ARC
  5
882
  8
0
 10
210.0000001671385
 20
90.000000200073487
 30
0.0
 40
8.0000000000000213
 50
100.0786581077879
 51
259.92134189219848
  0
ARC
  5
883
  8
0
 10
30.00000016713852
 20
102.60000020007401
 30
0.0
 40
1.399999999999999
 50
0.0
 51
180.0
  0
ARC
  5
884
  8
0
 10
30.000000167189459
 20
77.400000200074075
 30
0.0
 40
1.399999999999999
 50
180.0
 51
0.0
  0
LINE
  5
885
  8
0
 10
31.400000167138561
 20
102.0000002000735
 30
0.0
 11
31.400000167138561
 21
102.60000020007401
 31
0.0
  0
LINE
  5
886
  8
0
 10
31.400000167138561
 20
77.400000200074075
 30
0.0
 11
31.400000167138561
 21
78.000000200073501
 31
0.0
  0
LINE
  5
887
  8
0
 10
28.600000167138539
 20
78.000000200073501
 30
0.0
 11
28.60000016713855
 21
77.400000200074075
 31
0.0
  0
LINE
  5
888
  8
0
 10
28.600000167138539
 20
102.60000020007401
 30
0.0
 11
28.600000167138539
 21
102.0000002000735
 31
0.0
  0
CIRCLE
  5
889
  8
0
 10
30.00000016713852
 20
90.000000200073501
 30
0.0
 40
2.6720943808413722
  0
CIRCLE
  5
88A
  8
0
 10
30.00000016713852
 20
90.000000200073501
 30
0.0
 40
3.9999999999999929
  0
CIRCLE
  5
88B
  8
0
 10
30.00000016713852
 20
90.000000200073501
 30
0.0
 40
8.0
  0
LINE
  5
88C
  8
1
 10
78.650000167138529
 20
90.00000020007343
 30
0.0
 11
159.92145118893771
 21
90.000000200074254
 31
0.0
  0
LINE
  5
88D
  8
0
 10
84.238646761577243
 20
93.011949850694037
 30
0.0
 11
84.238646761577044
 21
86.988050549452822
 31
0.0
  0
ARC
  5
88E
  8
0
 10
91.650000167138515
 20
90.000000200073387
 30
0.0
 40
8.0
 50
157.88333686751491
 51
202.11666313248341
  0
LINE
  5
88F
  8
0
 10
85.950000167138526
 20
86.000000200073345
 30
0.0
 11
84.238646761577044
 21
86.988050549452822
 31
0.0
  0
LINE
  5
890
  8
0
 10
85.950000167138526
 20
94.000000200073401
 30
0.0
 11
84.238646761577513
 21
93.011949850694194
 31
0.0
  0
LINE
  5
891
  8
3
 10
127.6500001671385
 20
96.917500200073533
 30
0.0
 11
113.2500001671385
 21
96.917500200073533
 31
0.0
  0
LINE
  5
892
  8
3
 10
105.25000016712509
 20
96.917500200073533
 30
0.0
 11
91.650000167013843
 21
96.917500200073533
 31
0.0
  0
LINE
  5
893
  8
3
 10
127.6500001671385
 20
83.08250020007344
 30
0.0
 11
113.2500001671385
 21
83.08250020007344
 31
0.0
  0
LINE
  5
894
  8
3
 10
105.2500001671019
 20
83.082500200073426
 30
0.0
 11
91.650000167013843
 21
83.08250020007344
 31
0.0
  0
LINE
  5
895
  8
1
 10
78.650000167138529
 20
30.000000200073401
 30
0.0
 11
159.92145118893771
 21
30.000000200074251
 31
0.0
  0
LINE
  5
896
  8
0
 10
84.238646761577243
 20
33.011949850694009
 30
0.0
 11
84.238646761577044
 21
26.988050549452801
 31
0.0
  0
ARC
  5
897
  8
0
 10
91.650000167138515
 20
30.00000020007338
 30
0.0
 40
8.0
 50
157.88333686751491
 51
202.11666313248341
  0
LINE
  5
898
  8
0
 10
85.950000167138526
 20
26.00000020007332
 30
0.0
 11
84.238646761577044
 21
26.988050549452801
 31
0.0
  0
LINE
  5
899
  8
0
 10
85.950000167138526
 20
34.000000200073373
 30
0.0
 11
84.238646761577513
 21
33.01194985069418
 31
0.0
  0
LINE
  5
89A
  8
3
 10
127.6500001671385
 20
36.917500200073519
 30
0.0
 11
113.2500001671385
 21
36.917500200073519
 31
0.0
  0
LINE
  5
89B
  8
3
 10
105.2500001671385
 20
36.917500200073498
 30
0.0
 11
91.650000167013843
 21
36.917500200073512
 31
0.0
  0
LINE
  5
89C
  8
3
 10
127.6500001671385
 20
23.082500200073412
 30
0.0
 11
113.2500001671385
 21
23.082500200073412
 31
0.0
  0
LINE
  5
89D
  8
3
 10
105.2500001671385
 20
23.082500200073419
 30
0.0
 11
91.650000167013843
 21
23.082500200073412
 31
0.0
  0
LINE
  5
89E
  8
1
 10
140.92145118893771
 20
109.000000200074
 30
0.0
 11
140.92145118893771
 21
71.000000200074055
 31
0.0
  0
CIRCLE
  5
89F
  8
3
 10
30.00000016713852
 20
90.000000200073444
 30
0.0
 40
6.9175000000000182
  0
LINE
  5
8A0
  8
1
 10
210.0000001671385
 20
109.000000200074
 30
0.0
 11
210.0000001671385
 21
71.000000200074055
 31
0.0
  0
LINE
  5
8A1
  8
1
 10
30.000000167189459
 20
109.000000200074
 30
0.0
 11
30.000000167189459
 21
71.000000200074055
 31
0.0
  0
ARC
  5
8A2
  8
0
 10
140.92145118893771
 20
90.000000200074069
 30
0.0
 40
14.0
 50
198.56541157314271
 51
161.4345884268572
  0
ARC
  5
8A3
  8
0
 10
140.92145118893771
 20
90.000000200074069
 30
0.0
 40
11.199999999999999
 50
196.6015495990238
 51
163.39845040098311
  0
ARC
  5
8A4
  8
0
 10
128.7226264576482
 20
96.596996255511556
 30
0.0
 40
3.699710004256116
 50
253.14673038665049
 51
293.33869961073219
  0
ARC
  5
8A5
  8
0
 10
122.868802319031
 20
84.000000200040276
 30
0.0
 40
17.330127017333279
 50
159.7438419976443
 51
200.2561580023557
  0
LINE
  5
8A6
  8
0
 10
105.53867530169769
 20
78.000000200025255
 30
0.0
 11
105.2500001670943
 21
78.500000200040262
 31
0.0
  0
LINE
  5
8A7
  8
0
 10
112.9613250325677
 20
78.000000200025255
 30
0.0
 11
113.25000016717109
 21
78.500000200040262
 31
0.0
  0
ARC
  5
8A8
  8
0
 10
95.631198015234446
 20
84.000000200040276
 30
0.0
 40
17.330127017333279
 50
339.74384199764432
 51
20.256158002355718
  0
LINE
  5
8A9
  8
0
 10
105.53867530169769
 20
78.000000200025255
 30
0.0
 11
112.9613250325764
 21
78.000000200040262
 31
0.0
  0
LINE
  5
8AA
  8
0
 10
111.88952826273849
 20
90.000000200040262
 30
0.0
 11
106.6104720715269
 21
90.000000200040262
 31
0.0
  0
LINE
  5
8AB
  8
0
 10
105.53867530169769
 20
102.0000002000552
 30
0.0
 11
112.9613250325764
 21
102.0000002000402
 31
0.0
  0
ARC
  5
8AC
  8
0
 10
95.631198015234446
 20
96.000000200040262
 30
0.0
 40
17.330127017333279
 50
339.74384199764432
 51
20.256158002355718
  0
LINE
  5
8AD
  8
0
 10
112.9613250325677
 20
102.0000002000552
 30
0.0
 11
113.25000016717109
 21
101.5000002000402
 31
0.0
  0
LINE
  5
8AE
  8
0
 10
105.53867530169769
 20
102.0000002000552
 30
0.0
 11
105.2500001670943
 21
101.5000002000402
 31
0.0
  0
ARC
  5
8AF
  8
0
 10
122.868802319031
 20
96.000000200040262
 30
0.0
 40
17.330127017333279
 50
159.7438419976443
 51
200.2561580023557
  0
LINE
  5
8B0
  8
0
 10
105.2500001671327
 20
101.5000002001066
 30
0.0
 11
105.2500001670943
 21
78.500000200040262
 31
0.0
  0
LINE
  5
8B1
  8
0
 10
113.25000016717109
 20
78.500000200040262
 30
0.0
 11
113.2500001671327
 21
101.5000002001066
 31
0.0
  0
LINE
  5
8B2
  8
0
 10
113.2500001671385
 20
41.50000020001567
 30
0.0
 11
113.2500001671385
 21
18.500000200231231
 31
0.0
  0
LINE
  5
8B3
  8
0
 10
105.2500001671385
 20
18.500000200123448
 30
0.0
 11
105.2500001671385
 21
41.50000020001567
 31
0.0
  0
ARC
  5
8B4
  8
0
 10
111.67264989742419
 20
40.392305045536943
 30
0.0
 40
6.1339745957208214
 50
154.38424746986141
 51
214.38424747120331
  0
LINE
  5
8B5
  8
0
 10
106.6104720715328
 20
43.85640666069645
 30
0.0
 11
105.2500001671385
 21
41.50000020001567
 31
0.0
  0
LINE
  5
8B6
  8
0
 10
111.88952826274431
 20
43.85640666069645
 30
0.0
 11
113.2500001671385
 21
41.50000020001567
 31
0.0
  0
ARC
  5
8B7
  8
0
 10
106.8273504368526
 20
40.392305045536943
 30
0.0
 40
6.1339745957208214
 50
325.61575252879669
 51
25.615752530138568
  0
LINE
  5
8B8
  8
0
 10
106.6104720715328
 20
43.856406660674622
 30
0.0
 11
111.8895282627568
 21
43.856406660674622
 31
0.0
  0
LINE
  5
8B9
  8
0
 10
106.6104720715328
 20
36.92820343039881
 30
0.0
 11
111.88952826274431
 21
36.92820343039881
 31
0.0
  0
LINE
  5
8BA
  8
0
 10
106.6104720715328
 20
23.071796969848091
 30
0.0
 11
111.88952826274431
 21
23.071796969848091
 31
0.0
  0
LINE
  5
8BB
  8
0
 10
106.6104720715328
 20
16.143593739572282
 30
0.0
 11
111.8895282627568
 21
16.143593739572282
 31
0.0
  0
ARC
  5
8BC
  8
0
 10
90.033121804433918
 20
30.000000200123459
 30
0.0
 40
22.928203228139491
 50
342.41204622431439
 51
17.587953775685619
  0
ARC
  5
8BD
  8
0
 10
106.8273504368526
 20
19.607695354709961
 30
0.0
 40
6.1339745957208214
 50
334.38424746986141
 51
34.384247471203288
  0
LINE
  5
8BE
  8
0
 10
111.88952826274431
 20
16.14359373955045
 30
0.0
 11
113.2500001671385
 21
18.500000200231231
 31
0.0
  0
LINE
  5
8BF
  8
0
 10
106.6104720715328
 20
16.14359373955045
 30
0.0
 11
105.2500001671385
 21
18.500000200231231
 31
0.0
  0
ARC
  5
8C0
  8
0
 10
111.67264989742419
 20
19.607695354709961
 30
0.0
 40
6.1339745957208214
 50
145.61575252879669
 51
205.61575253013859
  0
ARC
  5
8C1
  8
0
 10
128.46687852984289
 20
30.000000200123459
 30
0.0
 40
22.928203228139491
 50
162.41204622431431
 51
197.58795377568561
  0
CIRCLE
  5
8C2
  8
0
 10
30.00000016713852
 20
90.000000200073501
 30
0.0
 40
11.5
  0
LINE
  5
8C3
  8
0
 10
36.928203397414052
 20
78.000000200073444
 30
0.0
 11
43.856406627689459
 21
90.000000200073615
 31
0.0
  0
LINE
  5
8C4
  8
0
 10
23.071796936862938
 20
78.000000200073615
 30
0.0
 11
36.928203397414052
 21
78.000000200073444
 31
0.0
  0
LINE
  5
8C5
  8
0
 10
16.14359370658746
 20
90.000000200073544
 30
0.0
 11
23.071796936862938
 21
78.000000200073615
 31
0.0
  0
LINE
  5
8C6
  8
0
 10
23.071796936862938
 20
102.0000002000736
 30
0.0
 11
16.14359370658746
 21
90.000000200073544
 31
0.0
  0
LINE
  5
8C7
  8
0
 10
36.928203397414002
 20
102.0000002000735
 30
0.0
 11
23.071796936862938
 21
102.0000002000736
 31
0.0
  0
LINE
  5
8C8
  8
0
 10
43.856406627689459
 20
90.000000200073615
 30
0.0
 11
36.928203397414002
 21
102.0000002000735
 31
0.0
  0
ARC
  5
8C9
  8
0
 10
210.0000001671385
 20
90.000000200074069
 30
0.0
 40
11.5
 50
96.992483378671395
 51
263.00751662132859
  0
ARC
  5
8CA
  8
0
 10
210.0000001671385
 20
90.000000200074069
 30
0.0
 40
11.5
 50
276.9924833786713
 51
83.007516621328776
  0
LINE
  5
8CB
  8
0
 10
216.92820339741411
 20
78.000000200074012
 30
0.0
 11
223.85640662768949
 21
90.000000200074169
 31
0.0
  0
LINE
  5
8CC
  8
0
 10
203.07179693686291
 20
78.000000200074183
 30
0.0
 11
208.60000016713849
 21
78.000000200074112
 31
0.0
  0
LINE
  5
8CD
  8
0
 10
211.4000001671385
 20
78.000000200074069
 30
0.0
 11
216.92820339741411
 21
78.000000200074012
 31
0.0
  0
LINE
  5
8CE
  8
0
 10
196.1435937065875
 20
90.000000200074126
 30
0.0
 11
203.07179693686291
 21
78.000000200074183
 31
0.0
  0
LINE
  5
8CF
  8
0
 10
203.07179693686291
 20
102.0000002000742
 30
0.0
 11
196.1435937065875
 21
90.000000200074126
 31
0.0
  0
LINE
  5
8D0
  8
0
 10
216.92820339741399
 20
102.0000002000741
 30
0.0
 11
211.4000001671385
 21
102.0000002000741
 31
0.0
  0
LINE
  5
8D1
  8
0
 10
208.60000016713849
 20
102.0000002000741
 30
0.0
 11
203.07179693686291
 21
102.0000002000742
 31
0.0
  0
LINE
  5
8D2
  8
0
 10
223.85640662768949
 20
90.000000200074169
 30
0.0
 11
216.92820339741399
 21
102.0000002000741
 31
0.0
  0
LINE
  5
8D3
  8
1
 10
191.0000001671385
 20
90.000000200074069
 30
0.0
 11
229.0000001671385
 21
90.000000200074069
 31
0.0
  0
LINE
  5
8D4
  8
1
 10
11.00000016718945
 20
90.000000200074069
 30
0.0
 11
49.000000167189448
 21
90.000000200074069
 31
0.0
  0
ENDSEC
  0
EOF
