  0
SECTION
  2
HEADER
  9
$ACADVER
  1
AC1009
  9
$INSBASE
 10
0.0
 20
0.0
 30
0.0
  9
$EXTMIN
 10
0.0
 20
-2.960436562073669
 30
0.0
  9
$EXTMAX
 10
147.07017099220531
 20
67.754307017688888
 30
0.0
  9
$LIMMIN
 10
0.0
 20
0.0
  9
$LIMMAX
 10
375.0
 20
270.0
  9
$ORTHOMODE
 70
     1
  9
$REGENMODE
 70
     1
  9
$FILLMODE
 70
     1
  9
$QTEXTMODE
 70
     0
  9
$MIRRTEXT
 70
     0
  9
$DRAGMODE
 70
     2
  9
$LTSCALE
 40
10.0
  9
$OSMODE
 70
    55
  9
$ATTMODE
 70
     1
  9
$TEXTSIZE
 40
5.0
  9
$TRACEWID
 40
0.05
  9
$TEXTSTYLE
  7
STANDARD
  9
$CLAYER
  8
0
  9
$CELTYPE
  6
BYLAYER
  9
$CECOLOR
 62
   256
  9
$DIMSCALE
 40
1.0
  9
$DIMASZ
 40
3.0
  9
$DIMEXO
 40
2.0
  9
$DIMDLI
 40
0.3799999999999999
  9
$DIMRND
 40
0.0
  9
$DIMDLE
 40
0.0
  9
$DIMEXE
 40
2.0
  9
$DIMTP
 40
0.0
  9
$DIMTM
 40
0.0
  9
$DIMTXT
 40
3.2000000000000002
  9
$DIMCEN
 40
0.09
  9
$DIMTSZ
 40
0.0
  9
$DIMTOL
 70
     0
  9
$DIMLIM
 70
     0
  9
$DIMTIH
 70
     0
  9
$DIMTOH
 70
     0
  9
$DIMSE1
 70
     0
  9
$DIMSE2
 70
     0
  9
$DIMTAD
 70
     1
  9
$DIMZIN
 70
     0
  9
$DIMBLK
  1

  9
$DIMASO
 70
     1
  9
$DIMSHO
 70
     0
  9
$DIMPOST
  1

  9
$DIMAPOST
  1

  9
$DIMALT
 70
     0
  9
$DIMALTD
 70
     2
  9
$DIMALTF
 40
25.399999999999999
  9
$DIMLFAC
 40
1.0
  9
$DIMTOFL
 70
     0
  9
$DIMTVP
 40
1.6000000000000001
  9
$DIMTIX
 70
     1
  9
$DIMSOXD
 70
     0
  9
$DIMSAH
 70
     0
  9
$DIMBLK1
  1

  9
$DIMBLK2
  1

  9
$DIMSTYLE
  2
STANDARD
  9
$DIMCLRD
 70
     0
  9
$DIMCLRE
 70
     0
  9
$DIMCLRT
 70
     0
  9
$DIMTFAC
 40
1.0
  9
$DIMGAP
 40
0.09
  9
$LUNITS
 70
     2
  9
$LUPREC
 70
     4
  9
$SKETCHINC
 40
0.1
  9
$FILLETRAD
 40
0.5
  9
$AUNITS
 70
     0
  9
$AUPREC
 70
     0
  9
$MENU
  1
E:\r13\win\SUPPORT\ACAD
  9
$ELEVATION
 40
0.0
  9
$PELEVATION
 40
0.0
  9
$THICKNESS
 40
0.0
  9
$LIMCHECK
 70
     0
  9
$BLIPMODE
 70
     0
  9
$CHAMFERA
 40
0.0
  9
$CHAMFERB
 40
0.0
  9
$SKPOLY
 70
     0
  9
$TDCREATE
 40
2449840.6274652779
  9
$TDUPDATE
 40
2456598.4911159379
  9
$TDINDWG
 40
0.0105863773
  9
$TDUSRTIMER
 40
0.0105863773
  9
$USRTIMER
 70
     1
  9
$ANGBASE
 50
0.0
  9
$ANGDIR
 70
     0
  9
$PDMODE
 70
     0
  9
$PDSIZE
 40
0.0
  9
$PLINEWID
 40
0.0
  9
$COORDS
 70
     1
  9
$SPLFRAME
 70
     0
  9
$SPLINETYPE
 70
     6
  9
$SPLINESEGS
 70
     8
  9
$ATTDIA
 70
     0
  9
$ATTREQ
 70
     1
  9
$HANDLING
 70
     1
  9
$HANDSEED
  5
9E0
  9
$SURFTAB1
 70
     6
  9
$SURFTAB2
 70
     6
  9
$SURFTYPE
 70
     6
  9
$SURFU
 70
     6
  9
$SURFV
 70
     6
  9
$UCSNAME
  2

  9
$UCSORG
 10
0.0
 20
0.0
 30
0.0
  9
$UCSXDIR
 10
1.0
 20
0.0
 30
0.0
  9
$UCSYDIR
 10
0.0
 20
1.0
 30
0.0
  9
$PUCSNAME
  2

  9
$PUCSORG
 10
0.0
 20
0.0
 30
0.0
  9
$PUCSXDIR
 10
1.0
 20
0.0
 30
0.0
  9
$PUCSYDIR
 10
0.0
 20
1.0
 30
0.0
  9
$USERI1
 70
     0
  9
$USERI2
 70
     1
  9
$USERI3
 70
     1
  9
$USERI4
 70
     0
  9
$USERI5
 70
     0
  9
$USERR1
 40
0.0
  9
$USERR2
 40
0.0
  9
$USERR3
 40
0.0
  9
$USERR4
 40
0.0
  9
$USERR5
 40
0.0
  9
$WORLDVIEW
 70
     1
  9
$SHADEDGE
 70
     3
  9
$SHADEDIF
 70
    70
  9
$TILEMODE
 70
     1
  9
$MAXACTVP
 70
    16
  9
$PLIMCHECK
 70
     0
  9
$PEXTMIN
 10
1.0000000000000000E+020
 20
1.0000000000000000E+020
 30
1.0000000000000000E+020
  9
$PEXTMAX
 10
-1.0000000000000000E+020
 20
-1.0000000000000000E+020
 30
-1.0000000000000000E+020
  9
$PLIMMIN
 10
0.0
 20
0.0
  9
$PLIMMAX
 10
12.0
 20
9.0
  9
$UNITMODE
 70
     0
  9
$VISRETAIN
 70
     0
  9
$PLINEGEN
 70
     0
  9
$PSLTSCALE
 70
     0
  0
ENDSEC
  0
SECTION
  2
TABLES
  0
TABLE
  2
VPORT
 70
     1
  0
VPORT
  2
*ACTIVE
 70
     0
 10
0.0
 20
0.0
 11
1.0
 21
1.0
 12
187.49427839065231
 22
174.91677254346851
 13
0.0
 23
0.0
 14
10.0
 24
10.0
 15
10.0
 25
10.0
 16
0.0
 26
0.0
 36
1.0
 17
0.0
 27
0.0
 37
0.0
 40
358.92027899574339
 41
1.7807262569832401
 42
50.0
 43
0.0
 44
0.0
 50
0.0
 51
0.0
 71
     0
 72
   500
 73
     1
 74
     0
 75
     0
 76
     0
 77
     0
 78
     2
  0
ENDTAB
  0
TABLE
  2
LTYPE
 70
     3
  0
LTYPE
  2
CONTINUOUS
 70
     0
  3
Solid Line
 72
    65
 73
     0
 40
0.0
  0
LTYPE
  2
CENTER
 70
     0
  3
____ _ ____ _ ____ _ ____ _ ____ _ ____ _ ____
 72
    65
 73
     4
 40
2.0
 49
1.25
 49
-0.25
 49
0.25
 49
-0.25
  0
LTYPE
  2
PHANTOM2
 70
     0
  3
___ _ _ ___ _ _ ___ _ _ ___ _ _
 72
    65
 73
     6
 40
1.25
 49
0.625
 49
-0.125
 49
0.125
 49
-0.125
 49
0.125
 49
-0.125
  0
ENDTAB
  0
TABLE
  2
LAYER
 70
     3
  0
LAYER
  2
0
 70
     0
 62
     7
  6
CONTINUOUS
  0
LAYER
  2
1
 70
     0
 62
     1
  6
CENTER
  0
LAYER
  2
3
 70
     0
 62
     3
  6
CONTINUOUS
  0
ENDTAB
  0
TABLE
  2
STYLE
 70
     2
  0
STYLE
  2
STANDARD
 70
     0
 40
0.0
 41
1.0
 50
0.0
 71
     0
 42
5.0
  3
TXT
  4
BIGFONT
  0
STYLE
  2
STANDARD1
 70
     0
 40
0.0
 41
1.0
 50
0.0
 71
     0
 42
3.0
  3
txt
  4

  0
ENDTAB
  0
TABLE
  2
VIEW
 70
     2
  0
VIEW
  2
ALL
 70
     0
 40
270.0
 10
213.25689075630251
 20
135.0
 41
0.0
 11
0.0
 21
0.0
 31
1.0
 12
0.0
 22
0.0
 32
0.0
 42
0.0
 43
0.0
 44
0.0
 50
0.0
 71
     0
  0
VIEW
  2
1
 70
     0
 40
190.0
 10
140.0
 20
85.0
 41
280.0
 11
0.0
 21
0.0
 31
1.0
 12
0.0
 22
0.0
 32
0.0
 42
0.0
 43
0.0
 44
0.0
 50
0.0
 71
     0
  0
ENDTAB
  0
TABLE
  2
UCS
 70
     0
  0
ENDTAB
  0
TABLE
  2
APPID
 70
    16
  0
APPID
  2
ACAD
 70
     0
  0
APPID
  2
GENIUS_GENODEF_13
 70
     0
  0
APPID
  2
GENIUS_GENOBJ-N-FIL_13
 70
     0
  0
APPID
  2
ASM_BASE
 70
     0
  0
APPID
  2
ASM_EXPLO_VER_2_00
 70
     0
  0
APPID
  2
ASM_CADM_VER_12_00
 70
     0
  0
APPID
  2
ASM_BASEFORO
 70
     0
  0
APPID
  2
ASM_BASETRAVI
 70
     0
  0
APPID
  2
ASM_BASETRAVI1
 70
     0
  0
APPID
  2
ASM_GRUPPI
 70
     0
  0
APPID
  2
ASM_CADM_ALBERO
 70
     0
  0
APPID
  2
ASM_GOLE
 70
     0
  0
APPID
  2
_CALL_MAC$
 70
     0
  0
APPID
  2
ACAD_EXEMPT_FROM_CAD_STANDARDS
 70
     0
  0
APPID
  2
ACAD_MLEADERVER
 70
     0
  0
APPID
  2
ACAD_NAV_VCDISPLAY
 70
     0
  0
ENDTAB
  0
TABLE
  2
DIMSTYLE
 70
     1
  0
DIMSTYLE
  2
STANDARD
 70
     0
  3

  4

  5

  6

  7

 40
1.0
 41
0.18
 42
0.0625
 43
0.38
 44
0.18
 45
0.0
 46
0.0
 47
0.0
 48
0.0
140
0.18
141
0.09
142
0.0
143
25.399999999999999
144
1.0
145
0.0
146
1.0
147
0.09
 71
     0
 72
     0
 73
     1
 74
     1
 75
     0
 76
     0
 77
     0
 78
     0
170
     0
171
     2
172
     0
173
     0
174
     0
175
     0
176
     0
177
     0
178
     0
  0
ENDTAB
  0
ENDSEC
  0
SECTION
  2
BLOCKS
  0
BLOCK
  8
0
  2
$MODEL_SPACE
 70
     0
 10
0.0
 20
0.0
 30
0.0
  3
$MODEL_SPACE
  1

  0
ENDBLK
  5
835
  8
0
  0
BLOCK
 67
     1
  8
0
  2
$PAPER_SPACE
 70
     0
 10
0.0
 20
0.0
 30
0.0
  3
$PAPER_SPACE
  1

  0
ENDBLK
  5
833
 67
     1
  8
0
  0
ENDSEC
  0
SECTION
  2
ENTITIES
  0
LINE
  5
5C7
  8
0
 10
107.8701709922053
 20
61.004307017688873
 30
0.0
 11
105.07017099220531
 21
61.004307017688873
 31
0.0
  0
LINE
  5
5C8
  8
0
 10
105.07017099220531
 20
66.504307017688873
 30
0.0
 11
107.8701709922053
 21
66.504307017688873
 31
0.0
  0
LINE
  5
5C9
  8
0
 10
73.070170992205362
 20
59.754307017688873
 30
0.0
 11
68.070170992205405
 21
59.754307017688888
 31
0.0
  0
LINE
  5
5CA
  8
0
 10
73.070170992205362
 20
67.754307017688873
 30
0.0
 11
68.070170992205405
 21
67.754307017688873
 31
0.0
  0
LINE
  5
5CB
  8
3
 10
73.320170992205249
 20
61.25430701768898
 30
0.0
 11
85.820170992205391
 21
61.25430701768888
 31
0.0
  0
LINE
  5
5CC
  8
3
 10
73.320170992205249
 20
61.754307017688987
 30
0.0
 11
85.820170992205391
 21
61.754307017688873
 31
0.0
  0
LINE
  5
5CD
  8
3
 10
73.320170992205249
 20
65.75430701768876
 30
0.0
 11
85.820170992205391
 21
65.754307017688873
 31
0.0
  0
LINE
  5
5CE
  8
3
 10
73.320170992205249
 20
66.25430701768876
 30
0.0
 11
85.820170992205391
 21
66.254307017688873
 31
0.0
  0
LINE
  5
5CF
  8
0
 10
86.070170992205362
 20
62.254307017688852
 30
0.0
 11
73.070170992205334
 21
62.254307017688852
 31
0.0
  0
LINE
  5
5D0
  8
0
 10
73.070170992205263
 20
65.254307017688873
 30
0.0
 11
86.070170992205362
 21
65.254307017688859
 31
0.0
  0
LINE
  5
5D1
  8
3
 10
79.070170992205476
 20
62.52480701768814
 30
0.0
 11
73.070170992205334
 21
62.524807017688161
 31
0.0
  0
LINE
  5
5D2
  8
3
 10
79.070170992205448
 20
64.983807017689585
 30
0.0
 11
73.070170992205263
 21
64.983807017689585
 31
0.0
  0
CIRCLE
  5
5D3
  8
0
 10
73.320170992205249
 20
61.504307017688753
 30
0.0
 40
0.25
  0
CIRCLE
  5
5D4
  8
0
 10
73.320170992205249
 20
66.00430701768876
 30
0.0
 40
0.25
  0
LINE
  5
5D5
  8
0
 10
73.070170992205362
 20
59.754307017688873
 30
0.0
 11
73.070170992205249
 21
67.754307017688873
 31
0.0
  0
LINE
  5
5D6
  8
3
 10
104.54667099220509
 20
67.077807017689068
 30
0.0
 11
86.593670992205404
 21
67.077807017689068
 31
0.0
  0
LINE
  5
5D7
  8
3
 10
104.54667099220519
 20
60.430807017688792
 30
0.0
 11
86.593670992205404
 21
60.430807017688792
 31
0.0
  0
LINE
  5
5D8
  8
0
 10
103.8701709922053
 20
59.754307017688873
 30
0.0
 11
87.270170992205408
 21
59.754307017688852
 31
0.0
  0
LINE
  5
5D9
  8
0
 10
103.8701709922053
 20
67.754307017688873
 30
0.0
 11
87.270170992205323
 21
67.754307017688873
 31
0.0
  0
CIRCLE
  5
5DA
  8
0
 10
85.820170992205391
 20
61.504307017688873
 30
0.0
 40
0.25
  0
CIRCLE
  5
5DB
  8
0
 10
85.820170992205391
 20
66.004307017688873
 30
0.0
 40
0.25
  0
LINE
  5
5DC
  8
0
 10
86.070170992205405
 20
66.554307017688942
 30
0.0
 11
86.070170992205405
 21
60.954307017688919
 31
0.0
  0
LINE
  5
5DD
  8
0
 10
87.270170992205436
 20
59.754307017688852
 30
0.0
 11
86.070170992205405
 21
60.954307017688919
 31
0.0
  0
LINE
  5
5DE
  8
0
 10
86.070170992205405
 20
66.554307017688942
 30
0.0
 11
87.270170992205323
 21
67.754307017688888
 31
0.0
  0
LINE
  5
5DF
  8
0
 10
105.07017099220531
 20
60.954307017688919
 30
0.0
 11
103.8701709922053
 21
59.754307017688873
 31
0.0
  0
LINE
  5
5E0
  8
0
 10
105.07017099220531
 20
66.554307017688942
 30
0.0
 11
103.8701709922053
 21
67.754307017688873
 31
0.0
  0
LINE
  5
5E1
  8
0
 10
105.07017099220531
 20
66.554307017688942
 30
0.0
 11
105.07017099220531
 21
60.954307017688919
 31
0.0
  0
LINE
  5
5E3
  8
0
 10
108.07017099220531
 20
66.157896856175128
 30
0.0
 11
108.07017099220531
 21
61.350717179202732
 31
0.0
  0
LINE
  5
5E4
  8
0
 10
107.8701709922053
 20
66.504307017688873
 30
0.0
 11
107.8701709922053
 21
61.004307017688873
 31
0.0
  0
LINE
  5
5E5
  8
0
 10
107.8701709922053
 20
61.004307017688873
 30
0.0
 11
108.07017099220531
 21
61.350717179202732
 31
0.0
  0
LINE
  5
5E6
  8
0
 10
107.8701709922053
 20
66.504307017688873
 30
0.0
 11
108.07017099220531
 21
66.157896856175014
 31
0.0
  0
LINE
  5
5E7
  8
0
 10
90.070170992205377
 20
61.817815344585149
 30
0.0
 11
90.070170992205377
 21
65.690798690792576
 31
0.0
  0
LINE
  5
5E8
  8
0
 10
86.070170992205405
 20
65.690798690792576
 30
0.0
 11
90.070170992205377
 21
65.690798690792576
 31
0.0
  0
LINE
  5
5E9
  8
0
 10
86.070170992205405
 20
61.817815344585149
 30
0.0
 11
90.070170992205419
 21
61.817815344585171
 31
0.0
  0
LINE
  5
5EA
  8
3
 10
86.070170992205405
 20
65.690798690792576
 30
0.0
 11
90.070170992205377
 21
61.817815344585171
 31
0.0
  0
LINE
  5
5EB
  8
3
 10
86.070170992205405
 20
61.817815344585149
 30
0.0
 11
90.070170992205377
 21
65.690798690792576
 31
0.0
  0
LINE
  5
5EC
  8
1
 10
113.07017099220531
 20
63.75430701768888
 30
0.0
 11
59.070170992205398
 21
63.75430701768888
 31
0.0
  0
LINE
  5
693
  8
3
 10
79.070170992205362
 20
34.983807017689699
 30
0.0
 11
73.070170992205362
 21
34.983807017689621
 31
0.0
  0
LINE
  5
694
  8
3
 10
79.070170992205362
 20
34.983807017689699
 30
0.0
 11
79.538690735651471
 21
35.254307017688987
 31
0.0
  0
LINE
  5
695
  8
3
 10
79.070170992205362
 20
32.524807017688282
 30
0.0
 11
79.538690735651471
 21
32.254307017688987
 31
0.0
  0
LINE
  5
696
  8
3
 10
79.070170992205362
 20
32.524807017688282
 30
0.0
 11
73.070170992205362
 21
32.52480701768819
 31
0.0
  0
LINE
  5
697
  8
0
 10
79.070170992205362
 20
32.254307017688987
 30
0.0
 11
79.070170992205362
 21
35.254307017688987
 31
0.0
  0
LINE
  5
698
  8
0
 10
107.8701709922053
 20
36.504307017688859
 30
0.0
 11
108.07017099220531
 21
36.157896856175
 31
0.0
  0
LINE
  5
699
  8
0
 10
107.8701709922053
 20
31.004307017688859
 30
0.0
 11
108.07017099220531
 21
31.350717179202721
 31
0.0
  0
LINE
  5
69A
  8
0
 10
107.8701709922053
 20
36.504307017688859
 30
0.0
 11
107.8701709922053
 21
31.004307017688859
 31
0.0
  0
LINE
  5
69B
  8
0
 10
73.070170992205362
 20
35.254307017688859
 30
0.0
 11
86.070170992205249
 21
35.254307017688859
 31
0.0
  0
LINE
  5
69C
  8
0
 10
86.070170992205362
 20
32.254307017688859
 30
0.0
 11
73.070170992205362
 21
32.254307017688859
 31
0.0
  0
LINE
  5
69D
  8
0
 10
108.07017099220531
 20
36.157896856175121
 30
0.0
 11
108.07017099220531
 21
31.350717179202721
 31
0.0
  0
LINE
  5
69E
  8
0
 10
105.07017099220531
 20
36.504307017688859
 30
0.0
 11
107.8701709922053
 21
36.504307017688859
 31
0.0
  0
LINE
  5
69F
  8
0
 10
107.8701709922053
 20
31.004307017688859
 30
0.0
 11
105.07017099220531
 21
31.004307017688859
 31
0.0
  0
LINE
  5
6A0
  8
0
 10
86.070170992205362
 20
36.554307017688927
 30
0.0
 11
86.770170992205294
 21
37.254307017688859
 31
0.0
  0
LINE
  5
6A1
  8
0
 10
86.770170992205394
 20
30.254307017688859
 30
0.0
 11
86.070170992205405
 21
30.954307017688901
 31
0.0
  0
LINE
  5
6A2
  8
0
 10
103.8701709922053
 20
37.754307017688859
 30
0.0
 11
90.070170992205419
 21
37.754307017688859
 31
0.0
  0
LINE
  5
6A3
  8
0
 10
103.8701709922053
 20
29.754307017688859
 30
0.0
 11
90.070170992205362
 21
29.754307017688859
 31
0.0
  0
LINE
  5
6A4
  8
3
 10
104.54667099220519
 20
30.430807017688782
 30
0.0
 11
86.593670992205375
 21
30.430807017688782
 31
0.0
  0
LINE
  5
6A5
  8
3
 10
104.54667099220509
 20
37.077807017689061
 30
0.0
 11
86.593670992205375
 21
37.077807017689061
 31
0.0
  0
LINE
  5
74C
  8
0
 10
105.07017099220531
 20
36.554307017688927
 30
0.0
 11
103.8701709922053
 21
37.754307017688859
 31
0.0
  0
LINE
  5
74D
  8
0
 10
105.07017099220531
 20
30.954307017688901
 30
0.0
 11
103.8701709922053
 21
29.754307017688859
 31
0.0
  0
LINE
  5
74E
  8
0
 10
73.070170992205362
 20
37.754307017688888
 30
0.0
 11
68.070170992205405
 21
37.754307017688852
 31
0.0
  0
LINE
  5
74F
  8
0
 10
73.070170992205362
 20
29.754307017688891
 30
0.0
 11
68.070170992205405
 21
29.754307017688848
 31
0.0
  0
LINE
  5
750
  8
0
 10
73.070170992205362
 20
29.754307017688891
 30
0.0
 11
73.070170992205362
 21
37.754307017688888
 31
0.0
  0
LINE
  5
751
  8
0
 10
90.070170992205419
 20
37.754307017688859
 30
0.0
 11
90.070170992205419
 21
37.254307017688859
 31
0.0
  0
LINE
  5
752
  8
0
 10
86.770170992205294
 20
37.254307017688859
 30
0.0
 11
90.070170992205476
 21
37.254307017688859
 31
0.0
  0
LINE
  5
753
  8
0
 10
86.770170992205465
 20
30.254307017688859
 30
0.0
 11
90.070170992205419
 21
30.254307017688859
 31
0.0
  0
LINE
  5
754
  8
0
 10
90.070170992205419
 20
30.254307017688859
 30
0.0
 11
90.070170992205419
 21
29.754307017688859
 31
0.0
  0
CIRCLE
  5
755
  8
0
 10
85.820170992205362
 20
36.004307017688859
 30
0.0
 40
0.25
  0
CIRCLE
  5
756
  8
0
 10
85.820170992205362
 20
31.504307017688859
 30
0.0
 40
0.25
  0
CIRCLE
  5
757
  8
0
 10
73.320170992205249
 20
36.004307017688753
 30
0.0
 40
0.25
  0
CIRCLE
  5
758
  8
0
 10
73.320170992205249
 20
31.504307017688749
 30
0.0
 40
0.25
  0
LINE
  5
759
  8
3
 10
73.320170992205249
 20
36.254307017688753
 30
0.0
 11
85.820170992205362
 21
36.254307017688859
 31
0.0
  0
LINE
  5
75A
  8
3
 10
73.320170992205249
 20
35.754307017688753
 30
0.0
 11
85.820170992205362
 21
35.754307017688859
 31
0.0
  0
LINE
  5
75B
  8
3
 10
73.320170992205249
 20
31.75430701768898
 30
0.0
 11
85.820170992205362
 21
31.754307017688859
 31
0.0
  0
LINE
  5
75C
  8
3
 10
73.320170992205249
 20
31.254307017688969
 30
0.0
 11
85.820170992205362
 21
31.254307017688859
 31
0.0
  0
LINE
  5
75D
  8
1
 10
59.070170992205391
 20
33.754307017688859
 30
0.0
 11
113.07017099220531
 21
33.754307017688859
 31
0.0
  0
LINE
  5
75E
  8
0
 10
86.070170992205178
 20
36.554307017688728
 30
0.0
 11
86.070170992205405
 21
30.954307017688901
 31
0.0
  0
LINE
  5
75F
  8
0
 10
105.0701709922055
 20
30.9543070176891
 30
0.0
 11
105.07017099220531
 21
36.55430701768887
 31
0.0
  0
LINE
  5
760
  8
0
 10
103.8701709922053
 20
67.754307017688873
 30
0.0
 11
103.8701709922053
 21
59.754307017688873
 31
0.0
  0
LINE
  5
761
  8
0
 10
87.270170992205294
 20
67.754307017688873
 30
0.0
 11
87.270170992205323
 21
65.690798690792576
 31
0.0
  0
LINE
  5
762
  8
0
 10
87.270170992205365
 20
61.817815344585192
 30
0.0
 11
87.270170992205436
 21
59.754307017688852
 31
0.0
  0
ARC
  5
763
  8
0
 10
68.070170992205405
 20
33.754307017688831
 30
0.0
 40
4.0
 50
90.0
 51
270.0
  0
ARC
  5
764
  8
0
 10
68.070170992205405
 20
63.754307017688859
 30
0.0
 40
4.0
 50
90.0
 51
270.0
  0
LINE
  5
765
  8
0
 10
68.070170992205405
 20
67.754307017688873
 30
0.0
 11
68.070170992205391
 21
59.754307017688888
 31
0.0
  0
LINE
  5
766
  8
0
 10
79.070170992205476
 20
62.254307017688852
 30
0.0
 11
79.070170992205476
 21
65.254307017688859
 31
0.0
  0
LINE
  5
767
  8
3
 10
79.070170992205476
 20
62.52480701768814
 30
0.0
 11
79.538690735651585
 21
62.254307017688852
 31
0.0
  0
LINE
  5
768
  8
3
 10
79.070170992205476
 20
64.983807017689571
 30
0.0
 11
79.538690735651585
 21
65.254307017688859
 31
0.0
  0
LINE
  5
769
  8
3
 10
79.070170992205476
 20
64.983807017689571
 30
0.0
 11
73.070170992205263
 21
64.983807017689571
 31
0.0
  0
LINE
  5
76A
  8
3
 10
79.070170992205476
 20
62.52480701768814
 30
0.0
 11
73.070170992205334
 21
62.52480701768814
 31
0.0
  0
CIRCLE
  5
79B
  8
0
 10
34.070170992205412
 20
33.754307017688859
 30
0.0
 40
4.0000000000000417
  0
LINE
  5
79C
  8
1
 10
43.070170992205441
 20
33.754307017688859
 30
0.0
 11
25.070170992205359
 21
33.754307017688859
 31
0.0
  0
LINE
  5
79D
  8
1
 10
34.070170992205412
 20
42.754307017688902
 30
0.0
 11
34.070170992205412
 21
24.75430701768882
 31
0.0
  0
CIRCLE
  5
79F
  8
0
 10
138.07017099220531
 20
33.754307017688859
 30
0.0
 40
2.75
  0
CIRCLE
  5
7A0
  8
0
 10
138.07017099220531
 20
33.754307017688859
 30
0.0
 40
4.0
  0
CIRCLE
  5
7A1
  8
3
 10
138.07017099220531
 20
33.754307017688859
 30
0.0
 40
3.3235000000001942
  0
LINE
  5
7A2
  8
1
 10
147.07017099220531
 20
33.754307017688859
 30
0.0
 11
129.07017099220531
 21
33.754307017688859
 31
0.0
  0
LINE
  5
7A3
  8
1
 10
138.07017099220531
 20
42.754307017688852
 30
0.0
 11
138.07017099220531
 21
24.754307017688859
 31
0.0
  0
LINE
  5
7B3
  8
0
 10
68.070170992205377
 20
37.754307017688852
 30
0.0
 11
68.070170992205433
 21
29.754307017688848
 31
0.0
  0
LINE
  5
8E6
  8
0
 10
103.8701709922053
 20
37.754307017688859
 30
0.0
 11
103.8701709922053
 21
29.754307017688859
 31
0.0
  0
TEXT
  5
97A
  8
0
 62
     3
 10
0.0
 20
0.0
 30
0.0
 40
10.0
  1
SEPR08-08-SUS
  7
STANDARD1
  0
ENDSEC
  0
EOF
