  0
SECTION
  2
HEADER
  9
$ACADVER
  1
AC1009
  9
$INSBASE
 10
0.0
 20
0.0
 30
0.0
  9
$EXTMIN
 10
-0.0005
 20
-2.960436562073669
 30
0.0
  9
$EXTMAX
 10
145.9734516847451
 20
86.839622544987066
 30
0.0
  9
$LIMMIN
 10
0.0
 20
0.0
  9
$LIMMAX
 10
187.5
 20
135.0
  9
$ORTHOMODE
 70
     0
  9
$REGENMODE
 70
     1
  9
$FILLMODE
 70
     1
  9
$QTEXTMODE
 70
     0
  9
$MIRRTEXT
 70
     0
  9
$DRAGMODE
 70
     2
  9
$LTSCALE
 40
5.0
  9
$OSMODE
 70
    55
  9
$ATTMODE
 70
     1
  9
$TEXTSIZE
 40
4.000000000000048
  9
$TRACEWID
 40
0.05
  9
$TEXTSTYLE
  7
STANDARD
  9
$CLAYER
  8
0
  9
$CELTYPE
  6
BYLAYER
  9
$CECOLOR
 62
   256
  9
$DIMSCALE
 40
0.5
  9
$DIMASZ
 40
3.0
  9
$DIMEXO
 40
2.0
  9
$DIMDLI
 40
0.38
  9
$DIMRND
 40
0.0
  9
$DIMDLE
 40
0.0
  9
$DIMEXE
 40
2.0
  9
$DIMTP
 40
0.0
  9
$DIMTM
 40
0.0
  9
$DIMTXT
 40
3.0
  9
$DIMCEN
 40
0.09
  9
$DIMTSZ
 40
0.0
  9
$DIMTOL
 70
     0
  9
$DIMLIM
 70
     0
  9
$DIMTIH
 70
     0
  9
$DIMTOH
 70
     0
  9
$DIMSE1
 70
     0
  9
$DIMSE2
 70
     0
  9
$DIMTAD
 70
     1
  9
$DIMZIN
 70
     0
  9
$DIMBLK
  1

  9
$DIMASO
 70
     1
  9
$DIMSHO
 70
     0
  9
$DIMPOST
  1

  9
$DIMAPOST
  1

  9
$DIMALT
 70
     0
  9
$DIMALTD
 70
     2
  9
$DIMALTF
 40
25.399999999999999
  9
$DIMLFAC
 40
1.0
  9
$DIMTOFL
 70
     0
  9
$DIMTVP
 40
1.6000000000000001
  9
$DIMTIX
 70
     1
  9
$DIMSOXD
 70
     0
  9
$DIMSAH
 70
     0
  9
$DIMBLK1
  1

  9
$DIMBLK2
  1

  9
$DIMSTYLE
  2
STANDARD
  9
$DIMCLRD
 70
     0
  9
$DIMCLRE
 70
     0
  9
$DIMCLRT
 70
     0
  9
$DIMTFAC
 40
1.0
  9
$DIMGAP
 40
0.09
  9
$LUNITS
 70
     2
  9
$LUPREC
 70
     4
  9
$SKETCHINC
 40
0.1
  9
$FILLETRAD
 40
1.8999999999999999
  9
$AUNITS
 70
     0
  9
$AUPREC
 70
     0
  9
$MENU
  1
E:\r13\win\SUPPORT\ACAD
  9
$ELEVATION
 40
0.0
  9
$PELEVATION
 40
0.0
  9
$THICKNESS
 40
0.0
  9
$LIMCHECK
 70
     0
  9
$BLIPMODE
 70
     0
  9
$CHAMFERA
 40
0.0
  9
$CHAMFERB
 40
0.0
  9
$SKPOLY
 70
     0
  9
$TDCREATE
 40
2451582.6970438659
  9
$TDUPDATE
 40
2456598.4959748271
  9
$TDINDWG
 40
0.0015244792
  9
$TDUSRTIMER
 40
0.0015244792
  9
$USRTIMER
 70
     1
  9
$ANGBASE
 50
0.0
  9
$ANGDIR
 70
     0
  9
$PDMODE
 70
     0
  9
$PDSIZE
 40
0.0
  9
$PLINEWID
 40
0.0
  9
$COORDS
 70
     1
  9
$SPLFRAME
 70
     0
  9
$SPLINETYPE
 70
     6
  9
$SPLINESEGS
 70
     8
  9
$ATTDIA
 70
     0
  9
$ATTREQ
 70
     1
  9
$HANDLING
 70
     1
  9
$HANDSEED
  5
7A0
  9
$SURFTAB1
 70
     6
  9
$SURFTAB2
 70
     6
  9
$SURFTYPE
 70
     6
  9
$SURFU
 70
     6
  9
$SURFV
 70
     6
  9
$UCSNAME
  2

  9
$UCSORG
 10
0.0
 20
0.0
 30
0.0
  9
$UCSXDIR
 10
1.0
 20
0.0
 30
0.0
  9
$UCSYDIR
 10
0.0
 20
1.0
 30
0.0
  9
$PUCSNAME
  2

  9
$PUCSORG
 10
0.0
 20
0.0
 30
0.0
  9
$PUCSXDIR
 10
1.0
 20
0.0
 30
0.0
  9
$PUCSYDIR
 10
0.0
 20
1.0
 30
0.0
  9
$USERI1
 70
     0
  9
$USERI2
 70
     1
  9
$USERI3
 70
     1
  9
$USERI4
 70
     0
  9
$USERI5
 70
     0
  9
$USERR1
 40
0.0
  9
$USERR2
 40
0.0
  9
$USERR3
 40
0.0
  9
$USERR4
 40
0.0
  9
$USERR5
 40
0.0
  9
$WORLDVIEW
 70
     1
  9
$SHADEDGE
 70
     3
  9
$SHADEDIF
 70
    70
  9
$TILEMODE
 70
     1
  9
$MAXACTVP
 70
    16
  9
$PLIMCHECK
 70
     0
  9
$PEXTMIN
 10
1.0000000000000000E+020
 20
1.0000000000000000E+020
 30
1.0000000000000000E+020
  9
$PEXTMAX
 10
-1.0000000000000000E+020
 20
-1.0000000000000000E+020
 30
-1.0000000000000000E+020
  9
$PLIMMIN
 10
0.0
 20
0.0
  9
$PLIMMAX
 10
12.0
 20
9.0
  9
$UNITMODE
 70
     0
  9
$VISRETAIN
 70
     0
  9
$PLINEGEN
 70
     0
  9
$PSLTSCALE
 70
     0
  0
ENDSEC
  0
SECTION
  2
TABLES
  0
TABLE
  2
VPORT
 70
     1
  0
VPORT
  2
*ACTIVE
 70
     0
 10
0.0
 20
0.0
 11
1.0
 21
1.0
 12
93.746889187697406
 22
86.945179616803841
 13
0.0
 23
0.0
 14
5.0
 24
5.0
 15
5.0
 25
5.0
 16
0.0
 26
0.0
 36
1.0
 17
0.0
 27
0.0
 37
0.0
 40
181.39739258337829
 41
1.7807262569832401
 42
50.0
 43
0.0
 44
0.0
 50
0.0
 51
0.0
 71
     0
 72
   500
 73
     1
 74
     0
 75
     0
 76
     0
 77
     0
 78
     2
  0
ENDTAB
  0
TABLE
  2
LTYPE
 70
     3
  0
LTYPE
  2
CONTINUOUS
 70
     0
  3
Solid Line
 72
    65
 73
     0
 40
0.0
  0
LTYPE
  2
CENTER
 70
     0
  3
____ _ ____ _ ____ _ ____ _ ____ _ ____ _ ____
 72
    65
 73
     4
 40
2.0
 49
1.25
 49
-0.25
 49
0.25
 49
-0.25
  0
LTYPE
  2
PHANTOM2
 70
     0
  3
___ _ _ ___ _ _ ___ _ _ ___ _ _
 72
    65
 73
     6
 40
1.25
 49
0.625
 49
-0.125
 49
0.125
 49
-0.125
 49
0.125
 49
-0.125
  0
ENDTAB
  0
TABLE
  2
LAYER
 70
     4
  0
LAYER
  2
0
 70
     0
 62
     7
  6
CONTINUOUS
  0
LAYER
  2
1
 70
     0
 62
     1
  6
CENTER
  0
LAYER
  2
3
 70
     0
 62
     3
  6
CONTINUOUS
  0
LAYER
  2
ITTEN
 70
     0
 62
     1
  6
CENTER
  0
ENDTAB
  0
TABLE
  2
STYLE
 70
     2
  0
STYLE
  2
STANDARD
 70
     0
 40
0.0
 41
1.0
 50
0.0
 71
     0
 42
4.000000000000048
  3
TXT
  4
BIGFONT
  0
STYLE
  2
STANDARD1
 70
     0
 40
0.0
 41
1.0
 50
0.0
 71
     0
 42
3.0
  3
txt
  4

  0
ENDTAB
  0
TABLE
  2
VIEW
 70
     1
  0
VIEW
  2
ALL
 70
     0
 40
135.0
 10
110.4957983193277
 20
67.5
 41
0.0
 11
0.0
 21
0.0
 31
1.0
 12
0.0
 22
0.0
 32
0.0
 42
0.0
 43
0.0
 44
0.0
 50
0.0
 71
     0
  0
ENDTAB
  0
TABLE
  2
UCS
 70
     0
  0
ENDTAB
  0
TABLE
  2
APPID
 70
     3
  0
APPID
  2
ACAD
 70
     0
  0
APPID
  2
ACAD_MLEADERVER
 70
     0
  0
APPID
  2
ACAD_NAV_VCDISPLAY
 70
     0
  0
ENDTAB
  0
TABLE
  2
DIMSTYLE
 70
     1
  0
DIMSTYLE
  2
STANDARD
 70
     0
  3

  4

  5

  6

  7

 40
1.0
 41
0.18
 42
0.0625
 43
0.38
 44
0.18
 45
0.0
 46
0.0
 47
0.0
 48
0.0
140
0.18
141
0.09
142
0.0
143
25.399999999999999
144
1.0
145
0.0
146
1.0
147
0.09
 71
     0
 72
     0
 73
     1
 74
     1
 75
     0
 76
     0
 77
     0
 78
     0
170
     0
171
     2
172
     0
173
     0
174
     0
175
     0
176
     0
177
     0
178
     0
  0
ENDTAB
  0
ENDSEC
  0
SECTION
  2
BLOCKS
  0
BLOCK
  8
0
  2
$MODEL_SPACE
 70
     0
 10
0.0
 20
0.0
 30
0.0
  3
$MODEL_SPACE
  1

  0
ENDBLK
  5
5F0
  8
0
  0
BLOCK
 67
     1
  8
0
  2
$PAPER_SPACE
 70
     0
 10
0.0
 20
0.0
 30
0.0
  3
$PAPER_SPACE
  1

  0
ENDBLK
  5
5EE
 67
     1
  8
0
  0
BLOCK
  8
0
  2
STDGX5
 70
     0
 10
0.0
 20
0.0
 30
0.0
  3
STDGX5
  1

  0
ENDBLK
  5
3DA
  8
0
  0
BLOCK
  8
0
  2
BATU
 70
     0
 10
0.0
 20
0.0
 30
0.0
  3
BATU
  1

  0
LINE
  5
5FB
  8
ITTEN
 10
0.5
 20
0.0
 30
0.0
 11
-0.5
 21
0.0
 31
0.0
  0
LINE
  5
5FC
  8
ITTEN
 10
0.0
 20
0.5
 30
0.0
 11
0.0
 21
-0.5
 31
0.0
  0
ENDBLK
  5
5FE
  8
0
  0
ENDSEC
  0
SECTION
  2
ENTITIES
  0
INSERT
  5
404
  8
0
  2
STDGX5
 10
0.0
 20
0.0
 30
0.0
 41
0.125
 42
0.125
 43
0.125
  0
INSERT
  5
405
  8
0
  2
STDGX5
 10
0.0
 20
0.0
 30
0.0
 41
0.125
 42
0.125
 43
0.125
  0
INSERT
  5
406
  8
0
  2
STDGX5
 10
34.375
 20
0.0
 30
0.0
 41
0.125
 42
0.125
 43
0.125
  0
INSERT
  5
407
  8
0
  2
STDGX5
 10
34.375
 20
0.0
 30
0.0
 41
0.125
 42
0.125
 43
0.125
  0
INSERT
  5
408
  8
0
  2
STDGX5
 10
0.0
 20
0.0
 30
0.0
 41
0.25
 42
0.25
 43
0.25
  0
INSERT
  5
409
  8
0
  2
STDGX5
 10
0.0
 20
0.0
 30
0.0
 41
0.25
 42
0.25
 43
0.25
  0
INSERT
  5
40A
  8
0
  2
STDGX5
 10
68.75
 20
0.0
 30
0.0
 41
0.25
 42
0.25
 43
0.25
  0
INSERT
  5
40B
  8
0
  2
STDGX5
 10
68.75
 20
0.0
 30
0.0
 41
0.25
 42
0.25
 43
0.25
  0
INSERT
  5
40D
  8
0
  2
STDGX5
 10
-17.5
 20
-50.0
 30
0.0
 41
0.1666666666666666
 42
0.1666666666666666
 43
0.1666666666666666
  0
INSERT
  5
40E
  8
0
  2
STDGX5
 10
-17.5
 20
-50.0
 30
0.0
 41
0.1666666666666666
 42
0.1666666666666666
 43
0.1666666666666666
  0
INSERT
  5
40F
  8
0
  2
STDGX5
 10
28.333333333333321
 20
-50.0
 30
0.0
 41
0.1666666666666666
 42
0.1666666666666666
 43
0.1666666666666666
  0
INSERT
  5
410
  8
0
  2
STDGX5
 10
28.333333333333321
 20
-50.0
 30
0.0
 41
0.1666666666666666
 42
0.1666666666666666
 43
0.1666666666666666
  0
INSERT
  5
412
  8
0
  2
STDGX5
 10
-17.5
 20
-50.0
 30
0.0
 41
0.1666666666666666
 42
0.1666666666666666
 43
0.1666666666666666
  0
INSERT
  5
413
  8
0
  2
STDGX5
 10
-17.5
 20
-50.0
 30
0.0
 41
0.1666666666666666
 42
0.1666666666666666
 43
0.1666666666666666
  0
INSERT
  5
414
  8
0
  2
STDGX5
 10
28.333333333333329
 20
-50.0
 30
0.0
 41
0.1666666666666666
 42
0.1666666666666666
 43
0.1666666666666666
  0
INSERT
  5
415
  8
0
  2
STDGX5
 10
28.333333333333329
 20
-50.0
 30
0.0
 41
0.1666666666666666
 42
0.1666666666666666
 43
0.1666666666666666
  0
INSERT
  5
416
  8
0
  2
STDGX5
 10
0.0
 20
0.0
 30
0.0
 41
0.5
 42
0.5
 43
0.5
  0
INSERT
  5
417
  8
0
  2
STDGX5
 10
0.0
 20
0.0
 30
0.0
 41
0.5
 42
0.5
 43
0.5
  0
INSERT
  5
418
  8
0
  2
STDGX5
 10
137.5
 20
0.0
 30
0.0
 41
0.5
 42
0.5
 43
0.5
  0
INSERT
  5
419
  8
0
  2
STDGX5
 10
137.5
 20
0.0
 30
0.0
 41
0.5
 42
0.5
 43
0.5
  0
ARC
  5
576
  8
0
 10
44.838509912564902
 20
72.294432542099045
 30
0.0
 40
4.8199999999999994
 50
101.1717091438489
 51
222.828290856151
1001
ACAD
1000
ASC_BOUNDS
1002
{
1070
    19
1002
}
  0
LINE
  5
577
  8
1
 10
55.471321764744729
 20
86.839622544987066
 30
0.0
 11
55.471321764744729
 21
50.839622544987073
 31
0.0
1001
ACAD
1000
ASC_BOUNDS
1002
{
1070
    19
1002
}
  0
CIRCLE
  5
578
  8
0
 10
55.471321764744729
 20
68.83962254498708
 30
0.0
 40
10.5
  0
ARC
  5
579
  8
0
 10
66.104133616924528
 20
72.294432542099017
 30
0.0
 40
4.8199999999999994
 50
317.17170914384872
 51
78.828290856150673
  0
ARC
  5
57B
  8
0
 10
62.042760885374541
 20
59.794812547875189
 30
0.0
 40
4.8199999999999994
 50
245.1717091438517
 51
6.8282908561507814
  0
LINE
  5
57C
  8
1
 10
37.471321764744729
 20
68.83962254498708
 30
0.0
 11
73.471321764744729
 21
68.83962254498708
 31
0.0
1001
ACAD
1000
ASC_BOUNDS
1002
{
1070
    19
1002
}
  0
ARC
  5
57D
  8
0
 10
48.899882644114868
 20
59.794812547875189
 30
0.0
 40
4.8199999999999994
 50
173.17170914384889
 51
294.82829085614799
  0
ARC
  5
57E
  8
0
 10
33.3608893006909
 20
61.655507545188627
 30
0.0
 40
10.83
 50
353.17170914384877
 51
42.828290856150709
1001
ACAD
1000
ASC_BOUNDS
1002
{
1070
    19
1002
}
  0
ARC
  5
57F
  8
0
 10
55.471321764744673
 20
45.59133804746314
 30
0.0
 40
10.83
 50
65.171709143851729
 51
114.828290856148
  0
ARC
  5
580
  8
0
 10
77.581754228798474
 20
61.655507545188513
 30
0.0
 40
10.83
 50
137.17170914384889
 51
186.82829085615069
  0
ARC
  5
581
  8
0
 10
69.136320533489084
 20
87.647879793547602
 30
0.0
 40
10.83
 50
209.17170914384889
 51
258.82829085615077
  0
ARC
  5
582
  8
0
 10
41.806322996000453
 20
87.647879793547659
 30
0.0
 40
10.83
 50
281.17170914384877
 51
330.82829085615072
1001
ACAD
1000
ASC_BOUNDS
1002
{
1070
    19
1002
}
  0
ARC
  5
583
  8
0
 10
55.471321764744729
 20
80.019622544987087
 30
0.0
 40
4.8199999999999994
 50
29.171709143848862
 51
150.82829085615089
1001
ACAD
1000
ASC_BOUNDS
1002
{
1070
    19
1002
}
  0
LINE
  5
584
  8
0
 10
143.9734516847451
 20
70.839622544987094
 30
0.0
 11
143.9734516847451
 21
68.839622544987094
 31
0.0
  0
LINE
  5
585
  8
0
 10
142.2414008771762
 20
71.839622544987094
 30
0.0
 11
142.2414008771762
 21
68.839622544987094
 31
0.0
  0
LINE
  5
586
  8
0
 10
125.9734516847451
 20
71.839622544987094
 30
0.0
 11
125.9734516847451
 21
68.839622544987094
 31
0.0
  0
LINE
  5
587
  8
0
 10
123.9734516847451
 20
72.839622544987094
 30
0.0
 11
123.9734516847451
 21
68.839622544987094
 31
0.0
  0
LINE
  5
588
  8
0
 10
110.52416173756561
 20
55.662129668518787
 30
0.0
 11
110.52416173756561
 21
83.773381067516425
 31
0.0
  0
ARC
  5
589
  8
0
 10
87.442194499908112
 20
70.759822405030675
 30
0.0
 40
15.340172503387359
 50
345.93688149450128
 51
16.482642303707269
  0
LINE
  5
58A
  8
0
 10
123.14011856474499
 20
75.839622544987094
 30
0.0
 11
123.14011856474499
 21
61.839622544987087
 31
0.0
  0
LINE
  5
58B
  8
0
 10
111.4734516847447
 20
81.526305212189129
 30
0.0
 11
111.4734516847446
 21
68.839622544987094
 31
0.0
1001
ACAD
1000
ASC_BOUNDS
1002
{
1070
    19
1005
0
1002
}
  0
LINE
  5
58C
  8
0
 10
101.4713217647447
 20
72.903603000736297
 30
0.0
 11
101.4713217647447
 21
65.816918093534284
 31
0.0
  0
LINE
  5
58D
  8
0
 10
101.4713217647447
 20
79.33962254498698
 30
0.0
 11
101.4713217647447
 21
58.339622544987471
 31
0.0
1001
ACAD
1000
ASC_BOUNDS
1002
{
1070
    19
1005
0
1002
}
  0
LINE
  5
58E
  8
0
 10
123.6734516847452
 20
68.839622544987094
 30
0.0
 11
123.673451684745
 21
75.306289424987028
 31
0.0
1001
ACAD
1000
ASC_BOUNDS
1002
{
1070
    19
1005
0
1002
}
  0
LINE
  5
59A
  8
0
 10
111.4734516847448
 20
61.839622544987101
 30
0.0
 11
123.14011856474499
 21
61.839622544987087
 31
0.0
1001
ACAD
1000
ASC_BOUNDS
1002
{
1070
    19
1005
0
1002
}
  0
LINE
  5
59B
  8
1
 10
99.471321764744744
 20
68.839622544987094
 30
0.0
 11
145.9734516847451
 21
68.839622544987094
 31
0.0
  0
LINE
  5
59C
  8
0
 10
103.29228076267169
 20
59.540101144189379
 30
0.0
 11
110.03236682315379
 21
59.540101144189379
 31
0.0
  0
LINE
  5
59D
  8
0
 10
103.2330177644191
 20
68.459197649118551
 30
0.0
 11
110.03236682315379
 21
68.459197649118551
 31
0.0
  0
LINE
  5
59E
  8
0
 10
103.50843270123561
 20
54.974812547875281
 30
0.0
 11
110.4067854447447
 21
54.974812547875253
 31
0.0
  0
ARC
  5
59F
  8
0
 10
95.085768019550628
 20
57.249399154565907
 30
0.0
 40
8.0782408417948854
 50
345.19051880393221
 51
24.431652095235531
  0
ARC
  5
5A0
  8
0
 10
120.3249058535594
 20
64.504992959936772
 30
0.0
 40
19.836063756389329
 50
198.10842675135339
 51
206.304373118348
1001
ACAD
1000
ASC_BOUNDS
1002
{
1070
    19
1002
}
  0
ARC
  5
5A1
  8
0
 10
103.50843270123561
 20
55.974812547875203
 30
0.0
 40
0.9999999999999998
 50
195.06799885095751
 51
270.0
1001
ACAD
1000
ASC_BOUNDS
1002
{
1070
    19
1002
}
  0
ARC
  5
5A2
  8
0
 10
112.6510308854406
 20
63.999649396653922
 30
0.0
 40
10.76445339075434
 50
163.63659927534991
 51
198.4630796502488
  0
LINE
  5
5A3
  8
0
 10
111.4734516847448
 20
57.372960464987479
 30
0.0
 11
111.4734516847448
 21
68.839622544987066
 31
0.0
1001
ACAD
1000
ASC_BOUNDS
1002
{
1070
    19
1005
0
1002
}
  0
ARC
  5
5A4
  8
0
 10
110.4067854447447
 20
56.04147878787527
 30
0.0
 40
1.0666662399999991
 50
270.0
 51
359.99999999999972
  0
LINE
  5
5A5
  8
0
 10
111.4734516847448
 20
57.37296046498745
 30
0.0
 11
111.4734516847447
 21
56.04147878787527
 31
0.0
1001
ACAD
1000
ASC_BOUNDS
1002
{
1070
    19
1002
}
  0
LINE
  5
5A6
  8
3
 10
125.9734516847451
 20
66.698774412078535
 30
0.0
 11
143.7294955623961
 21
66.698774412078464
 31
0.0
  0
LINE
  5
5A7
  8
0
 10
123.9734516847451
 20
65.839622544987108
 30
0.0
 11
142.2414008771762
 21
65.839622544987066
 31
0.0
  0
LINE
  5
5A8
  8
0
 10
123.6734516847451
 20
68.839622544987094
 30
0.0
 11
123.673451684745
 21
62.372955664987103
 31
0.0
1001
ACAD
1000
ASC_BOUNDS
1002
{
1070
    19
1005
0
1002
}
  0
LINE
  5
5A9
  8
0
 10
123.673451684745
 20
62.372955664987103
 30
0.0
 11
123.14011856474499
 21
61.839622544987087
 31
0.0
1001
ACAD
1000
ASC_BOUNDS
1002
{
1070
    19
1005
0
1002
}
  0
LINE
  5
5AA
  8
0
 10
125.9734516847451
 20
65.839622544987094
 30
0.0
 11
125.9734516847451
 21
68.839622544987094
 31
0.0
  0
LINE
  5
5AB
  8
0
 10
123.9734516847451
 20
64.839622544987094
 30
0.0
 11
123.9734516847451
 21
68.839622544987094
 31
0.0
  0
LINE
  5
5AC
  8
0
 10
123.9734516847451
 20
64.839622544987094
 30
0.0
 11
123.6734516847451
 21
64.839622544987094
 31
0.0
  0
LINE
  5
5AD
  8
3
 10
125.9734516847451
 20
66.698774412078535
 30
0.0
 11
125.1142998176536
 21
65.839622544987094
 31
0.0
  0
LINE
  5
5AE
  8
0
 10
142.2414008771762
 20
65.839622544987094
 30
0.0
 11
142.2414008771762
 21
68.839622544987094
 31
0.0
  0
LINE
  5
5AF
  8
0
 10
143.9734516847451
 20
66.839622544987094
 30
0.0
 11
142.2414008771762
 21
65.839622544987094
 31
0.0
  0
LINE
  5
5B0
  8
0
 10
143.9734516847451
 20
66.839622544987094
 30
0.0
 11
143.9734516847451
 21
68.839622544987094
 31
0.0
  0
LINE
  5
5B2
  8
0
 10
111.4734516847447
 20
75.839622544987037
 30
0.0
 11
123.14011856474499
 21
75.839622544987094
 31
0.0
1001
ACAD
1000
ASC_BOUNDS
1002
{
1070
    19
1005
0
1002
}
  0
LINE
  5
5B3
  8
0
 10
102.8889271097847
 20
75.287924352313411
 30
0.0
 11
110.31110995441379
 21
75.287924352313411
 31
0.0
  0
LINE
  5
5B4
  8
0
 10
103.22330361664601
 20
81.172135709450444
 30
0.0
 11
110.03236682315379
 21
81.172135709450444
 31
0.0
  0
LINE
  5
5B5
  8
0
 10
103.50843270123561
 20
84.839616144987133
 30
0.0
 11
110.4067854447447
 21
84.839616144987133
 31
0.0
1001
ACAD
1000
ASC_BOUNDS
1002
{
1070
    19
1005
0
1002
}
  0
ARC
  5
5B6
  8
0
 10
117.94746377781981
 20
78.838873566853906
 30
0.0
 40
16.229156419729371
 50
166.0831647064702
 51
193.27515037428921
  0
ARC
  5
5B7
  8
0
 10
159.22459007052981
 20
68.839622544987165
 30
0.0
 40
58.699999999999989
 50
164.9320011490411
 51
169.69572419750301
1001
ACAD
1000
ASC_BOUNDS
1002
{
1070
    19
1002
}
  0
ARC
  5
5B8
  8
0
 10
103.50843270123561
 20
83.83961614498719
 30
0.0
 40
0.9999999999999998
 50
90.0
 51
164.93200114904241
1001
ACAD
1000
ASC_BOUNDS
1002
{
1070
    19
1002
}
  0
LINE
  5
5B9
  8
0
 10
111.4734516847447
 20
81.526305212189129
 30
0.0
 11
111.4734516847446
 21
83.772949904987115
 31
0.0
1001
ACAD
1000
ASC_BOUNDS
1002
{
1070
    19
1005
0
1002
}
  0
ARC
  5
5BA
  8
0
 10
110.4067854447447
 20
83.772949904987115
 30
0.0
 40
1.0666662399999991
 50
0.0000000000001908
 51
90.0
1001
ACAD
1000
ASC_BOUNDS
1002
{
1070
    19
1005
0
1002
}
  0
LINE
  5
5BB
  8
0
 10
123.9734516847451
 20
71.839622544987094
 30
0.0
 11
142.2414008771762
 21
71.839622544987094
 31
0.0
  0
LINE
  5
5BC
  8
3
 10
125.9734516847451
 20
70.98047067789571
 30
0.0
 11
143.72949556239601
 21
70.980470677895781
 31
0.0
  0
LINE
  5
5BD
  8
3
 10
125.9734516847451
 20
70.98047067789571
 30
0.0
 11
125.1142998176536
 21
71.839622544987094
 31
0.0
  0
LINE
  5
5BE
  8
0
 10
123.9734516847451
 20
72.839622544987094
 30
0.0
 11
123.6734516847451
 21
72.839622544987094
 31
0.0
  0
LINE
  5
5BF
  8
0
 10
123.673451684745
 20
75.306289424987085
 30
0.0
 11
123.14011856474499
 21
75.839622544987094
 31
0.0
1001
ACAD
1000
ASC_BOUNDS
1002
{
1070
    19
1005
0
1002
}
  0
LINE
  5
5C0
  8
0
 10
143.9734516847451
 20
70.839622544987094
 30
0.0
 11
142.2414008771762
 21
71.839622544987094
 31
0.0
  0
INSERT
  5
5FF
  8
0
  2
BATU
 10
0.0
 20
0.0
 30
0.0
 41
0.001
 42
0.001
 43
0.001
  0
TEXT
  5
709
  8
0
 62
     3
 10
0.0
 20
0.0
 30
0.0
 40
10.0
  1
SFK32BX20-SUS
  7
STANDARD1
  0
ENDSEC
  0
EOF
