  0
SECTION
  2
HEADER
  9
$ACADVER
  1
AC1009
  9
$INSBASE
 10
0.0
 20
0.0
 30
0.0
  9
$EXTMIN
 10
0.0
 20
-2.960436562073669
 30
0.0
  9
$EXTMAX
 10
166.31950919972931
 20
96.987945386145825
 30
0.0
  9
$LIMMIN
 10
0.0
 20
0.0
  9
$LIMMAX
 10
187.5
 20
135.0
  9
$ORTHOMODE
 70
     0
  9
$REGENMODE
 70
     1
  9
$FILLMODE
 70
     1
  9
$QTEXTMODE
 70
     0
  9
$MIRRTEXT
 70
     0
  9
$DRAGMODE
 70
     2
  9
$LTSCALE
 40
5.0
  9
$OSMODE
 70
    55
  9
$ATTMODE
 70
     1
  9
$TEXTSIZE
 40
4.000000000000048
  9
$TRACEWID
 40
0.05
  9
$TEXTSTYLE
  7
STANDARD
  9
$CLAYER
  8
0
  9
$CELTYPE
  6
BYLAYER
  9
$CECOLOR
 62
   256
  9
$DIMSCALE
 40
0.5
  9
$DIMASZ
 40
3.0
  9
$DIMEXO
 40
2.0
  9
$DIMDLI
 40
0.38
  9
$DIMRND
 40
0.0
  9
$DIMDLE
 40
0.0
  9
$DIMEXE
 40
2.0
  9
$DIMTP
 40
0.0
  9
$DIMTM
 40
0.0
  9
$DIMTXT
 40
3.0
  9
$DIMCEN
 40
0.09
  9
$DIMTSZ
 40
0.0
  9
$DIMTOL
 70
     0
  9
$DIMLIM
 70
     0
  9
$DIMTIH
 70
     0
  9
$DIMTOH
 70
     0
  9
$DIMSE1
 70
     0
  9
$DIMSE2
 70
     0
  9
$DIMTAD
 70
     1
  9
$DIMZIN
 70
     0
  9
$DIMBLK
  1

  9
$DIMASO
 70
     0
  9
$DIMSHO
 70
     0
  9
$DIMPOST
  1

  9
$DIMAPOST
  1

  9
$DIMALT
 70
     0
  9
$DIMALTD
 70
     2
  9
$DIMALTF
 40
25.399999999999999
  9
$DIMLFAC
 40
1.0
  9
$DIMTOFL
 70
     0
  9
$DIMTVP
 40
1.6000000000000001
  9
$DIMTIX
 70
     1
  9
$DIMSOXD
 70
     0
  9
$DIMSAH
 70
     0
  9
$DIMBLK1
  1

  9
$DIMBLK2
  1

  9
$DIMSTYLE
  2
STANDARD
  9
$DIMCLRD
 70
     0
  9
$DIMCLRE
 70
     0
  9
$DIMCLRT
 70
     0
  9
$DIMTFAC
 40
1.0
  9
$DIMGAP
 40
0.09
  9
$LUNITS
 70
     2
  9
$LUPREC
 70
     4
  9
$SKETCHINC
 40
0.1
  9
$FILLETRAD
 40
1.8999999999999999
  9
$AUNITS
 70
     0
  9
$AUPREC
 70
     0
  9
$MENU
  1
E:\r13\win\SUPPORT\ACAD
  9
$ELEVATION
 40
0.0
  9
$PELEVATION
 40
0.0
  9
$THICKNESS
 40
0.0
  9
$LIMCHECK
 70
     0
  9
$BLIPMODE
 70
     0
  9
$CHAMFERA
 40
0.0
  9
$CHAMFERB
 40
0.0
  9
$SKPOLY
 70
     0
  9
$TDCREATE
 40
2451582.7014525458
  9
$TDUPDATE
 40
2456598.4966564239
  9
$TDINDWG
 40
0.0006659491
  9
$TDUSRTIMER
 40
0.0006659491
  9
$USRTIMER
 70
     1
  9
$ANGBASE
 50
0.0
  9
$ANGDIR
 70
     0
  9
$PDMODE
 70
     0
  9
$PDSIZE
 40
0.0
  9
$PLINEWID
 40
0.0
  9
$COORDS
 70
     1
  9
$SPLFRAME
 70
     0
  9
$SPLINETYPE
 70
     6
  9
$SPLINESEGS
 70
     8
  9
$ATTDIA
 70
     0
  9
$ATTREQ
 70
     1
  9
$HANDLING
 70
     1
  9
$HANDSEED
  5
BF4
  9
$SURFTAB1
 70
     6
  9
$SURFTAB2
 70
     6
  9
$SURFTYPE
 70
     6
  9
$SURFU
 70
     6
  9
$SURFV
 70
     6
  9
$UCSNAME
  2

  9
$UCSORG
 10
0.0
 20
0.0
 30
0.0
  9
$UCSXDIR
 10
1.0
 20
0.0
 30
0.0
  9
$UCSYDIR
 10
0.0
 20
1.0
 30
0.0
  9
$PUCSNAME
  2

  9
$PUCSORG
 10
0.0
 20
0.0
 30
0.0
  9
$PUCSXDIR
 10
1.0
 20
0.0
 30
0.0
  9
$PUCSYDIR
 10
0.0
 20
1.0
 30
0.0
  9
$USERI1
 70
     0
  9
$USERI2
 70
     1
  9
$USERI3
 70
     1
  9
$USERI4
 70
     0
  9
$USERI5
 70
     0
  9
$USERR1
 40
0.0
  9
$USERR2
 40
0.0
  9
$USERR3
 40
0.0
  9
$USERR4
 40
0.0
  9
$USERR5
 40
0.0
  9
$WORLDVIEW
 70
     1
  9
$SHADEDGE
 70
     3
  9
$SHADEDIF
 70
    70
  9
$TILEMODE
 70
     1
  9
$MAXACTVP
 70
    16
  9
$PLIMCHECK
 70
     0
  9
$PEXTMIN
 10
1.0000000000000000E+020
 20
1.0000000000000000E+020
 30
1.0000000000000000E+020
  9
$PEXTMAX
 10
-1.0000000000000000E+020
 20
-1.0000000000000000E+020
 30
-1.0000000000000000E+020
  9
$PLIMMIN
 10
0.0
 20
0.0
  9
$PLIMMAX
 10
12.0
 20
9.0
  9
$UNITMODE
 70
     0
  9
$VISRETAIN
 70
     0
  9
$PLINEGEN
 70
     0
  9
$PSLTSCALE
 70
     0
  0
ENDSEC
  0
SECTION
  2
TABLES
  0
TABLE
  2
VPORT
 70
     1
  0
VPORT
  2
*ACTIVE
 70
     0
 10
0.0
 20
0.0
 11
1.0
 21
1.0
 12
93.74713919532617
 22
86.941769983850563
 13
0.0
 23
0.0
 14
5.0
 24
5.0
 15
5.0
 25
5.0
 16
0.0
 26
0.0
 36
1.0
 17
0.0
 27
0.0
 37
0.0
 40
181.41026326986619
 41
1.7807262569832401
 42
50.0
 43
0.0
 44
0.0
 50
0.0
 51
0.0
 71
     0
 72
   500
 73
     1
 74
     0
 75
     0
 76
     0
 77
     0
 78
     2
  0
ENDTAB
  0
TABLE
  2
LTYPE
 70
     3
  0
LTYPE
  2
CONTINUOUS
 70
     0
  3
Solid Line
 72
    65
 73
     0
 40
0.0
  0
LTYPE
  2
CENTER
 70
     0
  3
____ _ ____ _ ____ _ ____ _ ____ _ ____ _ ____
 72
    65
 73
     4
 40
2.0
 49
1.25
 49
-0.25
 49
0.25
 49
-0.25
  0
LTYPE
  2
PHANTOM2
 70
     0
  3
___ _ _ ___ _ _ ___ _ _ ___ _ _
 72
    65
 73
     6
 40
1.25
 49
0.625
 49
-0.125
 49
0.125
 49
-0.125
 49
0.125
 49
-0.125
  0
ENDTAB
  0
TABLE
  2
LAYER
 70
     3
  0
LAYER
  2
0
 70
     0
 62
     7
  6
CONTINUOUS
  0
LAYER
  2
1
 70
     0
 62
     1
  6
CENTER
  0
LAYER
  2
3
 70
     0
 62
     3
  6
CONTINUOUS
  0
ENDTAB
  0
TABLE
  2
STYLE
 70
     2
  0
STYLE
  2
STANDARD
 70
     0
 40
0.0
 41
1.0
 50
0.0
 71
     0
 42
4.000000000000048
  3
TXT
  4
BIGFONT
  0
STYLE
  2
STANDARD1
 70
     0
 40
0.0
 41
1.0
 50
0.0
 71
     0
 42
3.0
  3
txt
  4

  0
ENDTAB
  0
TABLE
  2
VIEW
 70
     1
  0
VIEW
  2
ALL
 70
     0
 40
135.0
 10
110.4957983193277
 20
67.5
 41
0.0
 11
0.0
 21
0.0
 31
1.0
 12
0.0
 22
0.0
 32
0.0
 42
0.0
 43
0.0
 44
0.0
 50
0.0
 71
     0
  0
ENDTAB
  0
TABLE
  2
UCS
 70
     0
  0
ENDTAB
  0
TABLE
  2
APPID
 70
     3
  0
APPID
  2
ACAD
 70
     0
  0
APPID
  2
ACAD_MLEADERVER
 70
     0
  0
APPID
  2
ACAD_NAV_VCDISPLAY
 70
     0
  0
ENDTAB
  0
TABLE
  2
DIMSTYLE
 70
     1
  0
DIMSTYLE
  2
STANDARD
 70
     0
  3

  4

  5

  6

  7

 40
1.0
 41
0.18
 42
0.0625
 43
0.38
 44
0.18
 45
0.0
 46
0.0
 47
0.0
 48
0.0
140
0.18
141
0.09
142
0.0
143
25.399999999999999
144
1.0
145
0.0
146
1.0
147
0.09
 71
     0
 72
     0
 73
     1
 74
     1
 75
     0
 76
     0
 77
     0
 78
     0
170
     0
171
     2
172
     0
173
     0
174
     0
175
     0
176
     0
177
     0
178
     0
  0
ENDTAB
  0
ENDSEC
  0
SECTION
  2
BLOCKS
  0
BLOCK
  8
0
  2
$MODEL_SPACE
 70
     0
 10
0.0
 20
0.0
 30
0.0
  3
$MODEL_SPACE
  1

  0
ENDBLK
  5
A81
  8
0
  0
BLOCK
 67
     1
  8
0
  2
$PAPER_SPACE
 70
     0
 10
0.0
 20
0.0
 30
0.0
  3
$PAPER_SPACE
  1

  0
ENDBLK
  5
A7F
 67
     1
  8
0
  0
BLOCK
  8
0
  2
STDGX5
 70
     0
 10
0.0
 20
0.0
 30
0.0
  3
STDGX5
  1

  0
ENDBLK
  5
3DA
  8
0
  0
ENDSEC
  0
SECTION
  2
ENTITIES
  0
INSERT
  5
404
  8
0
  2
STDGX5
 10
0.0
 20
0.0
 30
0.0
 41
0.125
 42
0.125
 43
0.125
  0
INSERT
  5
405
  8
0
  2
STDGX5
 10
0.0
 20
0.0
 30
0.0
 41
0.125
 42
0.125
 43
0.125
  0
INSERT
  5
406
  8
0
  2
STDGX5
 10
34.375
 20
0.0
 30
0.0
 41
0.125
 42
0.125
 43
0.125
  0
INSERT
  5
407
  8
0
  2
STDGX5
 10
34.375
 20
0.0
 30
0.0
 41
0.125
 42
0.125
 43
0.125
  0
INSERT
  5
408
  8
0
  2
STDGX5
 10
0.0
 20
0.0
 30
0.0
 41
0.25
 42
0.25
 43
0.25
  0
INSERT
  5
409
  8
0
  2
STDGX5
 10
0.0
 20
0.0
 30
0.0
 41
0.25
 42
0.25
 43
0.25
  0
INSERT
  5
40A
  8
0
  2
STDGX5
 10
68.75
 20
0.0
 30
0.0
 41
0.25
 42
0.25
 43
0.25
  0
INSERT
  5
40B
  8
0
  2
STDGX5
 10
68.75
 20
0.0
 30
0.0
 41
0.25
 42
0.25
 43
0.25
  0
INSERT
  5
40D
  8
0
  2
STDGX5
 10
-17.5
 20
-50.0
 30
0.0
 41
0.1666666666666666
 42
0.1666666666666666
 43
0.1666666666666666
  0
INSERT
  5
40E
  8
0
  2
STDGX5
 10
-17.5
 20
-50.0
 30
0.0
 41
0.1666666666666666
 42
0.1666666666666666
 43
0.1666666666666666
  0
INSERT
  5
40F
  8
0
  2
STDGX5
 10
28.333333333333321
 20
-50.0
 30
0.0
 41
0.1666666666666666
 42
0.1666666666666666
 43
0.1666666666666666
  0
INSERT
  5
410
  8
0
  2
STDGX5
 10
28.333333333333321
 20
-50.0
 30
0.0
 41
0.1666666666666666
 42
0.1666666666666666
 43
0.1666666666666666
  0
INSERT
  5
412
  8
0
  2
STDGX5
 10
-17.5
 20
-50.0
 30
0.0
 41
0.1666666666666666
 42
0.1666666666666666
 43
0.1666666666666666
  0
INSERT
  5
413
  8
0
  2
STDGX5
 10
-17.5
 20
-50.0
 30
0.0
 41
0.1666666666666666
 42
0.1666666666666666
 43
0.1666666666666666
  0
INSERT
  5
414
  8
0
  2
STDGX5
 10
28.333333333333329
 20
-50.0
 30
0.0
 41
0.1666666666666666
 42
0.1666666666666666
 43
0.1666666666666666
  0
INSERT
  5
415
  8
0
  2
STDGX5
 10
28.333333333333329
 20
-50.0
 30
0.0
 41
0.1666666666666666
 42
0.1666666666666666
 43
0.1666666666666666
  0
INSERT
  5
416
  8
0
  2
STDGX5
 10
0.0
 20
0.0
 30
0.0
 41
0.5
 42
0.5
 43
0.5
  0
INSERT
  5
417
  8
0
  2
STDGX5
 10
0.0
 20
0.0
 30
0.0
 41
0.5
 42
0.5
 43
0.5
  0
INSERT
  5
418
  8
0
  2
STDGX5
 10
137.5
 20
0.0
 30
0.0
 41
0.5
 42
0.5
 43
0.5
  0
INSERT
  5
419
  8
0
  2
STDGX5
 10
137.5
 20
0.0
 30
0.0
 41
0.5
 42
0.5
 43
0.5
  0
ARC
  5
A04
  8
0
 10
143.0715214139172
 20
83.992974431165365
 30
0.0
 40
49.216435786894458
 50
170.1951675759876
 51
187.59622906631219
  0
ARC
  5
A05
  8
0
 10
122.27835369443849
 20
63.058206624063601
 30
0.0
 40
30.536835864007461
 50
198.4801113583469
 51
206.398488421308
1001
ACAD
1000
ASC_BOUNDS
1002
{
1070
    19
1002
}
  0
ARC
  5
A06
  8
0
 10
183.49947711735521
 20
69.987945386145668
 30
0.0
 40
91.699999999999989
 50
164.9958636299753
 51
169.56470295968219
1001
ACAD
1000
ASC_BOUNDS
1002
{
1070
    19
1002
}
  0
LINE
  5
A07
  8
1
 10
91.316188199729169
 20
69.987945386145654
 30
0.0
 11
166.31950919972931
 21
69.98794538614564
 31
0.0
  0
ARC
  5
A0A
  8
0
 10
15.22141850316085
 20
59.234802869438909
 30
0.0
 40
15.259999999999989
 50
352.75174968626322
 51
43.248250313736719
  0
LINE
  5
A0B
  8
1
 10
48.31618819972919
 20
96.987945386145825
 30
0.0
 11
48.316188199729162
 21
42.987945386145817
 31
0.0
  0
ARC
  5
A0C
  8
0
 10
81.410957896297575
 20
59.234802869438781
 30
0.0
 40
15.259999999999989
 50
136.7517496862632
 51
187.24825031373669
  0
CIRCLE
  5
A0D
  8
0
 10
48.316188199729169
 20
69.987945386145825
 30
0.0
 40
16.609999999999971
  0
LINE
  5
A0E
  8
0
 10
93.316188199729226
 20
76.33791484825376
 30
0.0
 11
93.316188199729226
 21
65.264969680750596
 31
0.0
  0
LINE
  5
A0F
  8
0
 10
93.316188199729226
 20
86.597111530175496
 30
0.0
 11
93.316188199729112
 21
53.378779242116423
 31
0.0
1001
ACAD
1000
ASC_BOUNDS
1002
{
1070
    19
1002
}
  0
ARC
  5
A11
  8
0
 10
38.364983878417583
 20
56.291287671377972
 30
0.0
 40
8.0699999999999985
 50
172.75174968626311
 51
295.24825031373263
  0
ARC
  5
A12
  8
0
 10
58.267392521040762
 20
56.291287671377958
 30
0.0
 40
8.0699999999999985
 50
244.7517496862672
 51
7.2482503137367971
  0
ARC
  5
A13
  8
0
 10
48.316188199729162
 20
35.190045230338882
 30
0.0
 40
15.259999999999989
 50
64.751749686267132
 51
115.2482503137328
  0
ARC
  5
A14
  8
0
 10
27.86249567739997
 20
98.140037980756333
 30
0.0
 40
15.259999999999989
 50
280.75174968626311
 51
331.24825031373678
  0
LINE
  5
A15
  8
1
 10
21.316188199729179
 20
69.987945386145825
 30
0.0
 11
75.316188199729169
 21
69.987945386145768
 31
0.0
  0
ARC
  5
A16
  8
0
 10
32.2148013788523
 20
75.219603100913645
 30
0.0
 40
8.0699999999999985
 50
100.7517496862631
 51
223.24825031373669
  0
ARC
  5
A17
  8
0
 10
68.769880722058502
 20
98.140037980756205
 30
0.0
 40
15.259999999999989
 50
208.75174968626311
 51
259.24825031373672
  0
ARC
  5
A18
  8
0
 10
48.316188199729183
 20
86.917945386145774
 30
0.0
 40
8.0699999999999985
 50
28.751749686263189
 51
151.24825031373649
  0
ARC
  5
A19
  8
0
 10
64.417575020606051
 20
75.219603100913645
 30
0.0
 40
8.0699999999999985
 50
316.75174968626328
 51
79.248250313736676
  0
LINE
  5
A1A
  8
0
 10
161.72143298837599
 20
64.987945386145654
 30
0.0
 11
161.72143298837599
 21
69.987945386145654
 31
0.0
  0
LINE
  5
A1B
  8
0
 10
124.3195091997293
 20
69.987945386145654
 30
0.0
 11
124.3195091997293
 21
63.987945386145647
 31
0.0
  0
LINE
  5
A1C
  8
0
 10
126.3195091997293
 20
69.987945386145654
 30
0.0
 11
126.3195091997293
 21
64.987945386145654
 31
0.0
  0
LINE
  5
A1D
  8
0
 10
164.3195091997294
 20
66.487945386145711
 30
0.0
 11
164.31950919972931
 21
69.987945386145654
 31
0.0
  0
LINE
  5
A1E
  8
0
 10
105.6192198128101
 20
49.583644772798721
 30
0.0
 11
105.6192198128101
 21
94.262592473731033
 31
0.0
  0
ARC
  5
A1F
  8
0
 10
67.029696780795263
 20
71.306615200450892
 30
0.0
 40
27.949195729766299
 50
349.09578106302428
 51
12.77536194360674
  0
LINE
  5
A20
  8
0
 10
123.1861761997291
 20
78.987941886145663
 30
0.0
 11
123.1861761997291
 21
60.987948886145702
 31
0.0
  0
LINE
  5
A21
  8
0
 10
107.31951619972919
 20
52.0712858861462
 30
0.0
 11
107.31951619972899
 21
69.987945386145654
 31
0.0
1001
ACAD
1000
ASC_BOUNDS
1002
{
1070
    19
1002
}
  0
LINE
  5
A22
  8
0
 10
124.0195091997293
 20
69.987945386145654
 30
0.0
 11
124.0195091997292
 21
61.82128188614562
 31
0.0
1001
ACAD
1000
ASC_BOUNDS
1002
{
1070
    19
1002
}
  0
LINE
  5
A24
  8
3
 10
126.3195091997293
 20
66.122482784077746
 30
0.0
 11
163.68650940468129
 21
66.122482784077746
 31
0.0
  0
LINE
  5
A25
  8
0
 10
124.3195091997293
 20
64.987945386145654
 30
0.0
 11
161.72143298837599
 21
64.987945386145654
 31
0.0
  0
LINE
  5
A30
  8
0
 10
107.31951619972909
 20
60.987948886145666
 30
0.0
 11
123.1861761997291
 21
60.987948886145702
 31
0.0
1001
ACAD
1000
ASC_BOUNDS
1002
{
1070
    19
1002
}
  0
ARC
  5
A31
  8
0
 10
122.3416782430694
 20
60.832804587265016
 30
0.0
 40
28.345985524317509
 50
169.456665119436
 51
191.8896448791825
  0
LINE
  5
A32
  8
0
 10
95.857840482831904
 20
53.839794972755627
 30
0.0
 11
104.99963182898949
 21
53.839794972755627
 31
0.0
  0
LINE
  5
A33
  8
0
 10
96.567834627408558
 20
48.22128767137778
 30
0.0
 11
105.6528501997292
 21
48.22128767137778
 31
0.0
  0
ARC
  5
A34
  8
0
 10
86.689420622722537
 20
50.605438046051873
 30
0.0
 40
9.0491052802505667
 50
350.16338682968779
 51
29.00165494956288
  0
ARC
  5
A35
  8
0
 10
96.567834627408558
 20
49.921287671377819
 30
0.0
 40
1.6999999999999991
 50
195.0041363700245
 51
270.0
1001
ACAD
1000
ASC_BOUNDS
1002
{
1070
    19
1002
}
  0
LINE
  5
A36
  8
0
 10
107.31951619972919
 20
52.0712858861462
 30
0.0
 11
107.31951619972909
 21
49.887953671377858
 31
0.0
1001
ACAD
1000
ASC_BOUNDS
1002
{
1070
    19
1002
}
  0
ARC
  5
A37
  8
0
 10
105.6528501997292
 20
49.887953671377858
 30
0.0
 40
1.6666659999999991
 50
270.0
 51
359.9999999999996
  0
LINE
  5
A38
  8
0
 10
95.792798173097225
 20
67.585572818953352
 30
0.0
 11
104.99963182898961
 21
67.585572818953352
 31
0.0
  0
LINE
  5
A39
  8
0
 10
124.0195091997292
 20
61.821281886145677
 30
0.0
 11
123.1861761997291
 21
60.987948886145638
 31
0.0
1001
ACAD
1000
ASC_BOUNDS
1002
{
1070
    19
1002
}
  0
LINE
  5
A3A
  8
0
 10
124.3195091997293
 20
63.987945386145647
 30
0.0
 11
124.0195091997294
 21
63.987945386145647
 31
0.0
  0
LINE
  5
A3B
  8
3
 10
126.3195091997293
 20
66.122482784077675
 30
0.0
 11
125.1849718017972
 21
64.987945386145597
 31
0.0
  0
LINE
  5
A3D
  8
0
 10
164.3195091997294
 20
66.487945386145711
 30
0.0
 11
161.72143298837599
 21
64.987945386145654
 31
0.0
  0
LINE
  5
A3E
  8
0
 10
124.3195091997293
 20
74.987945386145711
 30
0.0
 11
161.72143298837591
 21
74.987945386145697
 31
0.0
  0
LINE
  5
A3F
  8
3
 10
126.3195091997293
 20
73.853407988213618
 30
0.0
 11
163.6865094046812
 21
73.853407988213618
 31
0.0
  0
LINE
  5
A40
  8
0
 10
107.31951619972919
 20
78.987941886145634
 30
0.0
 11
123.1861761997291
 21
78.987941886145663
 31
0.0
1001
ACAD
1000
ASC_BOUNDS
1002
{
1070
    19
1002
}
  0
LINE
  5
A41
  8
0
 10
107.31951619972909
 20
89.810887053648784
 30
0.0
 11
107.31951619972909
 21
93.321269386145659
 31
0.0
1001
ACAD
1000
ASC_BOUNDS
1002
{
1070
    19
1002
}
  0
LINE
  5
A42
  8
0
 10
107.31951619972909
 20
89.810887053648784
 30
0.0
 11
107.31951619972931
 21
69.987945386145654
 31
0.0
1001
ACAD
1000
ASC_BOUNDS
1002
{
1070
    19
1002
}
  0
LINE
  5
A43
  8
0
 10
95.737185148807114
 20
77.679846270723189
 30
0.0
 11
105.141167278154
 21
77.679846270723189
 31
0.0
  0
LINE
  5
A44
  8
0
 10
95.782136704273498
 20
85.815512340885164
 30
0.0
 11
104.99963182898961
 21
85.815512340885164
 31
0.0
  0
LINE
  5
A45
  8
0
 10
96.567834627408544
 20
94.987935386145679
 30
0.0
 11
105.6528501997291
 21
94.987935386145608
 31
0.0
1001
ACAD
1000
ASC_BOUNDS
1002
{
1070
    19
1002
}
  0
ARC
  5
A46
  8
0
 10
96.567834627408544
 20
93.287935386145676
 30
0.0
 40
1.6999999999999991
 50
90.0
 51
164.99586362997539
1001
ACAD
1000
ASC_BOUNDS
1002
{
1070
    19
1002
}
  0
ARC
  5
A47
  8
0
 10
105.6528501997291
 20
93.321269386145659
 30
0.0
 40
1.6666659999999991
 50
0.0000000000001908
 51
90.0
1001
ACAD
1000
ASC_BOUNDS
1002
{
1070
    19
1002
}
  0
LINE
  5
A48
  8
3
 10
126.3195091997293
 20
73.853407988213618
 30
0.0
 11
125.1849718017972
 21
74.987945386145711
 31
0.0
  0
LINE
  5
A49
  8
0
 10
124.3195091997293
 20
69.987945386145654
 30
0.0
 11
124.3195091997293
 21
75.987945386145654
 31
0.0
  0
LINE
  5
A4A
  8
0
 10
126.3195091997293
 20
69.987945386145711
 30
0.0
 11
126.3195091997293
 21
74.987945386145711
 31
0.0
  0
LINE
  5
A4B
  8
0
 10
124.0195091997293
 20
69.987945386145654
 30
0.0
 11
124.0195091997292
 21
78.154608886145681
 31
0.0
1001
ACAD
1000
ASC_BOUNDS
1002
{
1070
    19
1002
}
  0
LINE
  5
A4C
  8
0
 10
124.3195091997293
 20
75.987945386145654
 30
0.0
 11
124.0195091997292
 21
75.987945386145654
 31
0.0
  0
LINE
  5
A4D
  8
0
 10
124.0195091997292
 20
78.154608886145624
 30
0.0
 11
123.1861761997291
 21
78.987941886145663
 31
0.0
1001
ACAD
1000
ASC_BOUNDS
1002
{
1070
    19
1002
}
  0
LINE
  5
A4E
  8
0
 10
124.0195091997292
 20
77.904608886145681
 30
0.0
 11
124.0195091997292
 21
77.904608886145681
 31
0.0
  0
LINE
  5
A4F
  8
0
 10
164.3195091997294
 20
73.487945386145583
 30
0.0
 11
161.72143298837599
 21
74.987945386145654
 31
0.0
  0
LINE
  5
A50
  8
0
 10
161.72143298837599
 20
74.987945386145654
 30
0.0
 11
161.72143298837599
 21
69.987945386145654
 31
0.0
  0
LINE
  5
A51
  8
0
 10
164.3195091997294
 20
73.487945386145654
 30
0.0
 11
164.31950919972931
 21
69.987945386145654
 31
0.0
  0
TEXT
  5
B5D
  8
0
 62
     3
 10
0.0
 20
0.0
 30
0.0
 40
10.0
  1
SFK50BX40
  7
STANDARD1
  0
ENDSEC
  0
EOF
