  0
SECTION
  2
HEADER
  9
$ACADVER
  1
AC1009
  9
$INSBASE
 10
0.0
 20
0.0
 30
0.0
  9
$EXTMIN
 10
-0.0005
 20
-2.960436562073669
 30
0.0
  9
$EXTMAX
 10
216.38611802341379
 20
139.1290448710331
 30
0.0
  9
$LIMMIN
 10
0.0
 20
0.0
  9
$LIMMAX
 10
187.5
 20
135.0
  9
$ORTHOMODE
 70
     0
  9
$REGENMODE
 70
     1
  9
$FILLMODE
 70
     1
  9
$QTEXTMODE
 70
     0
  9
$MIRRTEXT
 70
     0
  9
$DRAGMODE
 70
     2
  9
$LTSCALE
 40
5.0
  9
$OSMODE
 70
    55
  9
$ATTMODE
 70
     1
  9
$TEXTSIZE
 40
4.000000000000048
  9
$TRACEWID
 40
0.05
  9
$TEXTSTYLE
  7
STANDARD
  9
$CLAYER
  8
0
  9
$CELTYPE
  6
BYLAYER
  9
$CECOLOR
 62
   256
  9
$DIMSCALE
 40
0.5
  9
$DIMASZ
 40
3.0
  9
$DIMEXO
 40
2.0
  9
$DIMDLI
 40
0.38
  9
$DIMRND
 40
0.0
  9
$DIMDLE
 40
0.0
  9
$DIMEXE
 40
2.0
  9
$DIMTP
 40
0.0
  9
$DIMTM
 40
0.0
  9
$DIMTXT
 40
3.0
  9
$DIMCEN
 40
0.09
  9
$DIMTSZ
 40
0.0
  9
$DIMTOL
 70
     0
  9
$DIMLIM
 70
     0
  9
$DIMTIH
 70
     0
  9
$DIMTOH
 70
     0
  9
$DIMSE1
 70
     0
  9
$DIMSE2
 70
     0
  9
$DIMTAD
 70
     1
  9
$DIMZIN
 70
     0
  9
$DIMBLK
  1

  9
$DIMASO
 70
     1
  9
$DIMSHO
 70
     0
  9
$DIMPOST
  1

  9
$DIMAPOST
  1

  9
$DIMALT
 70
     0
  9
$DIMALTD
 70
     2
  9
$DIMALTF
 40
25.399999999999999
  9
$DIMLFAC
 40
1.0
  9
$DIMTOFL
 70
     0
  9
$DIMTVP
 40
1.6000000000000001
  9
$DIMTIX
 70
     1
  9
$DIMSOXD
 70
     0
  9
$DIMSAH
 70
     0
  9
$DIMBLK1
  1

  9
$DIMBLK2
  1

  9
$DIMSTYLE
  2
STANDARD
  9
$DIMCLRD
 70
     0
  9
$DIMCLRE
 70
     0
  9
$DIMCLRT
 70
     0
  9
$DIMTFAC
 40
1.0
  9
$DIMGAP
 40
0.09
  9
$LUNITS
 70
     2
  9
$LUPREC
 70
     4
  9
$SKETCHINC
 40
0.1
  9
$FILLETRAD
 40
1.8999999999999999
  9
$AUNITS
 70
     0
  9
$AUPREC
 70
     0
  9
$MENU
  1
E:\r13\win\SUPPORT\ACAD
  9
$ELEVATION
 40
0.0
  9
$PELEVATION
 40
0.0
  9
$THICKNESS
 40
0.0
  9
$LIMCHECK
 70
     0
  9
$BLIPMODE
 70
     0
  9
$CHAMFERA
 40
0.0
  9
$CHAMFERB
 40
0.0
  9
$SKPOLY
 70
     0
  9
$TDCREATE
 40
2451582.6903199079
  9
$TDUPDATE
 40
2456598.4968922222
  9
$TDINDWG
 40
0.0060127199
  9
$TDUSRTIMER
 40
0.0060127199
  9
$USRTIMER
 70
     1
  9
$ANGBASE
 50
0.0
  9
$ANGDIR
 70
     0
  9
$PDMODE
 70
     0
  9
$PDSIZE
 40
0.0
  9
$PLINEWID
 40
0.0
  9
$COORDS
 70
     1
  9
$SPLFRAME
 70
     0
  9
$SPLINETYPE
 70
     6
  9
$SPLINESEGS
 70
     8
  9
$ATTDIA
 70
     0
  9
$ATTREQ
 70
     1
  9
$HANDLING
 70
     1
  9
$HANDSEED
  5
C65
  9
$SURFTAB1
 70
     6
  9
$SURFTAB2
 70
     6
  9
$SURFTYPE
 70
     6
  9
$SURFU
 70
     6
  9
$SURFV
 70
     6
  9
$UCSNAME
  2

  9
$UCSORG
 10
0.0
 20
0.0
 30
0.0
  9
$UCSXDIR
 10
1.0
 20
0.0
 30
0.0
  9
$UCSYDIR
 10
0.0
 20
1.0
 30
0.0
  9
$PUCSNAME
  2

  9
$PUCSORG
 10
0.0
 20
0.0
 30
0.0
  9
$PUCSXDIR
 10
1.0
 20
0.0
 30
0.0
  9
$PUCSYDIR
 10
0.0
 20
1.0
 30
0.0
  9
$USERI1
 70
     0
  9
$USERI2
 70
     1
  9
$USERI3
 70
     1
  9
$USERI4
 70
     0
  9
$USERI5
 70
     0
  9
$USERR1
 40
0.0
  9
$USERR2
 40
0.0
  9
$USERR3
 40
0.0
  9
$USERR4
 40
0.0
  9
$USERR5
 40
0.0
  9
$WORLDVIEW
 70
     1
  9
$SHADEDGE
 70
     3
  9
$SHADEDIF
 70
    70
  9
$TILEMODE
 70
     1
  9
$MAXACTVP
 70
    16
  9
$PLIMCHECK
 70
     0
  9
$PEXTMIN
 10
1.0000000000000000E+020
 20
1.0000000000000000E+020
 30
1.0000000000000000E+020
  9
$PEXTMAX
 10
-1.0000000000000000E+020
 20
-1.0000000000000000E+020
 30
-1.0000000000000000E+020
  9
$PLIMMIN
 10
0.0
 20
0.0
  9
$PLIMMAX
 10
12.0
 20
9.0
  9
$UNITMODE
 70
     0
  9
$VISRETAIN
 70
     0
  9
$PLINEGEN
 70
     0
  9
$PSLTSCALE
 70
     0
  0
ENDSEC
  0
SECTION
  2
TABLES
  0
TABLE
  2
VPORT
 70
     1
  0
VPORT
  2
*ACTIVE
 70
     0
 10
0.0
 20
0.0
 11
1.0
 21
1.0
 12
108.1928095155212
 22
89.636794387538757
 13
0.0
 23
0.0
 14
5.0
 24
5.0
 15
5.0
 25
5.0
 16
0.0
 26
0.0
 36
1.0
 17
0.0
 27
0.0
 37
0.0
 40
186.83943405793181
 41
1.7807262569832401
 42
50.0
 43
0.0
 44
0.0
 50
0.0
 51
0.0
 71
     0
 72
   500
 73
     1
 74
     0
 75
     0
 76
     0
 77
     0
 78
     2
  0
ENDTAB
  0
TABLE
  2
LTYPE
 70
     3
  0
LTYPE
  2
CONTINUOUS
 70
     0
  3
Solid Line
 72
    65
 73
     0
 40
0.0
  0
LTYPE
  2
CENTER
 70
     0
  3
____ _ ____ _ ____ _ ____ _ ____ _ ____ _ ____
 72
    65
 73
     4
 40
2.0
 49
1.25
 49
-0.25
 49
0.25
 49
-0.25
  0
LTYPE
  2
PHANTOM2
 70
     0
  3
___ _ _ ___ _ _ ___ _ _ ___ _ _
 72
    65
 73
     6
 40
1.25
 49
0.625
 49
-0.125
 49
0.125
 49
-0.125
 49
0.125
 49
-0.125
  0
ENDTAB
  0
TABLE
  2
LAYER
 70
     4
  0
LAYER
  2
0
 70
     0
 62
     7
  6
CONTINUOUS
  0
LAYER
  2
1
 70
     0
 62
     1
  6
CENTER
  0
LAYER
  2
3
 70
     0
 62
     3
  6
CONTINUOUS
  0
LAYER
  2
ITTEN
 70
     0
 62
     1
  6
CENTER
  0
ENDTAB
  0
TABLE
  2
STYLE
 70
     2
  0
STYLE
  2
STANDARD
 70
     0
 40
0.0
 41
1.0
 50
0.0
 71
     0
 42
4.000000000000048
  3
TXT
  4
BIGFONT
  0
STYLE
  2
STANDARD1
 70
     0
 40
0.0
 41
1.0
 50
0.0
 71
     0
 42
3.0
  3
txt
  4

  0
ENDTAB
  0
TABLE
  2
VIEW
 70
     1
  0
VIEW
  2
ALL
 70
     0
 40
135.0
 10
110.4957983193277
 20
67.5
 41
0.0
 11
0.0
 21
0.0
 31
1.0
 12
0.0
 22
0.0
 32
0.0
 42
0.0
 43
0.0
 44
0.0
 50
0.0
 71
     0
  0
ENDTAB
  0
TABLE
  2
UCS
 70
     0
  0
ENDTAB
  0
TABLE
  2
APPID
 70
     7
  0
APPID
  2
ACAD
 70
     0
  0
APPID
  2
GENIUS_GENFIL_13
 70
     0
  0
APPID
  2
GENIUS_GENODEF_13
 70
     0
  0
APPID
  2
GENIUS_GENOBJ-N-CHA_13
 70
     0
  0
APPID
  2
GENIUS_GENOREF_13
 70
     0
  0
APPID
  2
ACAD_MLEADERVER
 70
     0
  0
APPID
  2
ACAD_NAV_VCDISPLAY
 70
     0
  0
ENDTAB
  0
TABLE
  2
DIMSTYLE
 70
     1
  0
DIMSTYLE
  2
STANDARD
 70
     0
  3

  4

  5

  6

  7

 40
1.0
 41
0.18
 42
0.0625
 43
0.38
 44
0.18
 45
0.0
 46
0.0
 47
0.0
 48
0.0
140
0.18
141
0.09
142
0.0
143
25.399999999999999
144
1.0
145
0.0
146
1.0
147
0.09
 71
     0
 72
     0
 73
     1
 74
     1
 75
     0
 76
     0
 77
     0
 78
     0
170
     0
171
     2
172
     0
173
     0
174
     0
175
     0
176
     0
177
     0
178
     0
  0
ENDTAB
  0
ENDSEC
  0
SECTION
  2
BLOCKS
  0
BLOCK
  8
0
  2
$MODEL_SPACE
 70
     0
 10
0.0
 20
0.0
 30
0.0
  3
$MODEL_SPACE
  1

  0
ENDBLK
  5
AB5
  8
0
  0
BLOCK
 67
     1
  8
0
  2
$PAPER_SPACE
 70
     0
 10
0.0
 20
0.0
 30
0.0
  3
$PAPER_SPACE
  1

  0
ENDBLK
  5
AB3
 67
     1
  8
0
  0
BLOCK
  8
0
  2
STDGX5
 70
     0
 10
0.0
 20
0.0
 30
0.0
  3
STDGX5
  1

  0
ENDBLK
  5
3DA
  8
0
  0
BLOCK
  8
0
  2
BATU
 70
     0
 10
0.0
 20
0.0
 30
0.0
  3
BATU
  1

  0
LINE
  5
AC0
  8
ITTEN
 10
0.5
 20
0.0
 30
0.0
 11
-0.5
 21
0.0
 31
0.0
  0
LINE
  5
AC1
  8
ITTEN
 10
0.0
 20
0.5
 30
0.0
 11
0.0
 21
-0.5
 31
0.0
  0
ENDBLK
  5
AC3
  8
0
  0
ENDSEC
  0
SECTION
  2
ENTITIES
  0
INSERT
  5
404
  8
0
  2
STDGX5
 10
0.0
 20
0.0
 30
0.0
 41
0.125
 42
0.125
 43
0.125
  0
INSERT
  5
405
  8
0
  2
STDGX5
 10
0.0
 20
0.0
 30
0.0
 41
0.125
 42
0.125
 43
0.125
  0
INSERT
  5
406
  8
0
  2
STDGX5
 10
34.375
 20
0.0
 30
0.0
 41
0.125
 42
0.125
 43
0.125
  0
INSERT
  5
407
  8
0
  2
STDGX5
 10
34.375
 20
0.0
 30
0.0
 41
0.125
 42
0.125
 43
0.125
  0
INSERT
  5
408
  8
0
  2
STDGX5
 10
0.0
 20
0.0
 30
0.0
 41
0.25
 42
0.25
 43
0.25
  0
INSERT
  5
409
  8
0
  2
STDGX5
 10
0.0
 20
0.0
 30
0.0
 41
0.25
 42
0.25
 43
0.25
  0
INSERT
  5
40A
  8
0
  2
STDGX5
 10
68.75
 20
0.0
 30
0.0
 41
0.25
 42
0.25
 43
0.25
  0
INSERT
  5
40B
  8
0
  2
STDGX5
 10
68.75
 20
0.0
 30
0.0
 41
0.25
 42
0.25
 43
0.25
  0
INSERT
  5
40D
  8
0
  2
STDGX5
 10
-17.5
 20
-50.0
 30
0.0
 41
0.1666666666666666
 42
0.1666666666666666
 43
0.1666666666666666
  0
INSERT
  5
40E
  8
0
  2
STDGX5
 10
-17.5
 20
-50.0
 30
0.0
 41
0.1666666666666666
 42
0.1666666666666666
 43
0.1666666666666666
  0
INSERT
  5
40F
  8
0
  2
STDGX5
 10
28.333333333333321
 20
-50.0
 30
0.0
 41
0.1666666666666666
 42
0.1666666666666666
 43
0.1666666666666666
  0
INSERT
  5
410
  8
0
  2
STDGX5
 10
28.333333333333321
 20
-50.0
 30
0.0
 41
0.1666666666666666
 42
0.1666666666666666
 43
0.1666666666666666
  0
INSERT
  5
412
  8
0
  2
STDGX5
 10
-17.5
 20
-50.0
 30
0.0
 41
0.1666666666666666
 42
0.1666666666666666
 43
0.1666666666666666
  0
INSERT
  5
413
  8
0
  2
STDGX5
 10
-17.5
 20
-50.0
 30
0.0
 41
0.1666666666666666
 42
0.1666666666666666
 43
0.1666666666666666
  0
INSERT
  5
414
  8
0
  2
STDGX5
 10
28.333333333333329
 20
-50.0
 30
0.0
 41
0.1666666666666666
 42
0.1666666666666666
 43
0.1666666666666666
  0
INSERT
  5
415
  8
0
  2
STDGX5
 10
28.333333333333329
 20
-50.0
 30
0.0
 41
0.1666666666666666
 42
0.1666666666666666
 43
0.1666666666666666
  0
INSERT
  5
416
  8
0
  2
STDGX5
 10
0.0
 20
0.0
 30
0.0
 41
0.5
 42
0.5
 43
0.5
  0
INSERT
  5
417
  8
0
  2
STDGX5
 10
0.0
 20
0.0
 30
0.0
 41
0.5
 42
0.5
 43
0.5
  0
INSERT
  5
418
  8
0
  2
STDGX5
 10
137.5
 20
0.0
 30
0.0
 41
0.5
 42
0.5
 43
0.5
  0
INSERT
  5
419
  8
0
  2
STDGX5
 10
137.5
 20
0.0
 30
0.0
 41
0.5
 42
0.5
 43
0.5
  0
LINE
  5
A3A
  8
1
 10
71.530000344905261
 20
139.1290448710331
 30
0.0
 11
71.530000344905261
 21
69.129044871033017
 31
0.0
  0
ARC
  5
A3B
  8
0
 10
253.1020795245648
 20
104.1290448710331
 30
0.0
 40
110.04000000000001
 50
164.99586362997539
 51
169.56470295968219
1001
ACAD
1000
ASC_BOUNDS
1002
{
1070
    19
1002
}
  0
LINE
  5
A3C
  8
0
 10
160.38612642341349
 20
127.9165748720368
 30
0.0
 11
160.38612642341349
 21
132.129033671033
 31
0.0
1001
ACAD
1000
ASC_BOUNDS
1002
{
1070
    19
1002
}
  0
LINE
  5
A3D
  8
0
 10
158.34577075911071
 20
79.643884135016719
 30
0.0
 11
158.34577075911071
 21
133.25862137613549
 31
0.0
  0
ARC
  5
A3E
  8
0
 10
71.530000344905261
 20
124.44504487103301
 30
0.0
 40
9.6839999999999993
 50
28.751749686263341
 51
151.2482503137368
  0
CIRCLE
  5
A3F
  8
0
 10
71.530000344905261
 20
104.129044871033
 30
0.0
 40
20.0
  0
ARC
  5
A40
  8
0
 10
59.588555159331349
 20
87.693055613311685
 30
0.0
 40
9.6839999999999993
 50
172.75174968626311
 51
295.2482503137328
  0
ARC
  5
A41
  8
0
 10
83.471445530479158
 20
87.693055613311685
 30
0.0
 40
9.6839999999999993
 50
244.7517496862674
 51
7.2482503137368548
  0
ARC
  5
A42
  8
0
 10
71.530000344905261
 20
62.371564684064758
 30
0.0
 40
18.312000000000001
 50
64.751749686267232
 51
115.2482503137328
  0
LINE
  5
A43
  8
1
 10
106.5300003449053
 20
104.1290448710331
 30
0.0
 11
36.530000344905233
 21
104.129044871033
 31
0.0
  0
ARC
  5
A44
  8
0
 10
52.208336159853047
 20
110.4070341287545
 30
0.0
 40
9.6839999999999993
 50
100.7517496862633
 51
223.24825031373669
  0
ARC
  5
A45
  8
0
 10
31.81627670902321
 20
91.225273850984635
 30
0.0
 40
18.312000000000001
 50
352.75174968626328
 51
43.24825031373674
  0
ARC
  5
A46
  8
0
 10
46.985569318110088
 20
137.91155598456561
 30
0.0
 40
18.312000000000001
 50
280.75174968626328
 51
331.24825031373678
  0
ARC
  5
A47
  8
0
 10
90.851664529957588
 20
110.4070341287545
 30
0.0
 40
9.6839999999999993
 50
316.75174968626328
 51
79.248250313736776
  0
ARC
  5
A48
  8
0
 10
111.24372398078729
 20
91.22527385098482
 30
0.0
 40
18.312000000000001
 50
136.7517496862632
 51
187.24825031373669
  0
ARC
  5
A49
  8
0
 10
96.074431371700371
 20
137.91155598456569
 30
0.0
 40
18.312000000000001
 50
208.7517496862632
 51
259.24825031373678
  0
LINE
  5
A4A
  8
0
 10
160.3861264234136
 20
82.629053471033686
 30
0.0
 11
160.38612642341349
 21
104.129044871033
 31
0.0
1001
ACAD
1000
ASC_BOUNDS
1002
{
1070
    19
1002
}
  0
ARC
  5
A4B
  8
0
 10
179.71272087542189
 20
93.142875912376326
 30
0.0
 40
34.01518262918102
 50
169.45666511943611
 51
191.8896448791825
  0
LINE
  5
A4C
  8
0
 10
144.8821328234136
 20
124.0600442438689
 30
0.0
 11
144.88213282341351
 21
84.198045498197914
 31
0.0
1001
ACAD
1000
ASC_BOUNDS
1002
{
1070
    19
1002
}
  0
ARC
  5
A4D
  8
0
 10
158.3861272234135
 20
80.009054813311707
 30
0.0
 40
1.9999991999999991
 50
270.0
 51
359.99999999999972
  0
ARC
  5
A4E
  8
0
 10
148.78410853662891
 20
80.049055613311694
 30
0.0
 40
2.04
 50
195.00413637002461
 51
270.0
1001
ACAD
1000
ASC_BOUNDS
1002
{
1070
    19
1002
}
  0
LINE
  5
A4F
  8
0
 10
147.9321155631369
 20
84.751264374964975
 30
0.0
 11
157.1316191431554
 21
84.751264374964975
 31
0.0
  0
ARC
  5
A50
  8
0
 10
136.93001173100561
 20
80.870036062920462
 30
0.0
 40
10.85892633630068
 50
350.16338682968791
 51
29.001654949562798
  0
ARC
  5
A51
  8
0
 10
179.63673141706491
 20
95.813358356534536
 30
0.0
 40
36.64420303680896
 50
198.4801113583469
 51
206.398488421308
1001
ACAD
1000
ASC_BOUNDS
1002
{
1070
    19
1002
}
  0
LINE
  5
A52
  8
0
 10
148.78410853662891
 20
78.009055613311602
 30
0.0
 11
158.3861272234135
 21
78.009055613311602
 31
0.0
  0
LINE
  5
A53
  8
0
 10
160.3861264234136
 20
82.629053471033686
 30
0.0
 11
160.3861264234136
 21
80.009054813311707
 31
0.0
1001
ACAD
1000
ASC_BOUNDS
1002
{
1070
    19
1002
}
  0
LINE
  5
A54
  8
3
 10
183.38611802341379
 20
99.202544871033055
 30
0.0
 11
182.31261802341359
 21
98.129044871033045
 31
0.0
  0
LINE
  5
A55
  8
3
 10
183.38611802341379
 20
109.05554487103301
 30
0.0
 11
182.31261802341359
 21
110.129044871033
 31
0.0
  0
LINE
  5
A56
  8
1
 10
139.88213282341351
 20
104.129044871033
 30
0.0
 11
216.38611802341379
 21
104.129044871033
 31
0.0
  0
LINE
  5
A57
  8
0
 10
181.38611802341379
 20
98.129044871033045
 30
0.0
 11
209.63611802341379
 21
98.129044871033045
 31
0.0
1001
GENIUS_GENOREF_13
1005
0
1005
0
  0
LINE
  5
A58
  8
0
 10
181.38611802341379
 20
110.129044871033
 30
0.0
 11
209.63611802341379
 21
110.129044871033
 31
0.0
1001
GENIUS_GENOREF_13
1005
0
1005
0
  0
LINE
  5
A59
  8
0
 10
181.38611802341379
 20
104.129044871033
 30
0.0
 11
181.38611802341379
 21
111.129044871033
 31
0.0
1001
GENIUS_GENOREF_13
1005
0
  0
LINE
  5
A5A
  8
0
 10
181.08611802341369
 20
104.129044871033
 30
0.0
 11
181.0861180234136
 21
113.629041071033
 31
0.0
1001
ACAD
1000
ASC_BOUNDS
1002
{
1070
    19
1002
}
  0
LINE
  5
A5B
  8
0
 10
180.0861184234135
 20
114.6290406710331
 30
0.0
 11
180.0861184234135
 21
93.629049071033137
 31
0.0
  0
LINE
  5
A5C
  8
0
 10
160.38612642341349
 20
127.9165748720368
 30
0.0
 11
160.3861264234138
 21
104.129044871033
 31
0.0
1001
ACAD
1000
ASC_BOUNDS
1002
{
1070
    19
1002
}
  0
ARC
  5
A5D
  8
0
 10
113.3383431206929
 20
105.71144864819929
 30
0.0
 40
33.539034875719572
 50
349.09578106302439
 51
12.775361943606731
  0
LINE
  5
A5E
  8
0
 10
144.8821328234136
 20
111.7490082255627
 30
0.0
 11
144.8821328234136
 21
98.461474024558981
 31
0.0
  0
LINE
  5
A5F
  8
0
 10
147.85406479145519
 20
101.24619779040221
 30
0.0
 11
156.94336068226539
 21
101.24619779040221
 31
0.0
  0
LINE
  5
A60
  8
0
 10
181.38611802341379
 20
104.129044871033
 30
0.0
 11
181.38611802341379
 21
97.129044871033045
 31
0.0
1001
GENIUS_GENOREF_13
1005
0
  0
LINE
  5
A61
  8
0
 10
181.08611802341369
 20
104.129044871033
 30
0.0
 11
181.0861180234136
 21
94.629048671033047
 31
0.0
1001
ACAD
1000
ASC_BOUNDS
1002
{
1070
    19
1002
}
  0
LINE
  5
A62
  8
0
 10
160.38612642341349
 20
93.629049071032966
 30
0.0
 11
180.0861184234135
 21
93.629049071033137
 31
0.0
1001
ACAD
1000
ASC_BOUNDS
1002
{
1070
    19
1002
}
  0
LINE
  5
A63
  8
0
 10
181.38611802341379
 20
97.129044871033045
 30
0.0
 11
181.0861180234136
 21
97.129044871033045
 31
0.0
  0
LINE
  5
A64
  8
0
 10
181.0861180234136
 20
94.629048671033104
 30
0.0
 11
180.0861184234135
 21
93.629049071033023
 31
0.0
1001
ACAD
1000
ASC_BOUNDS
1002
{
1070
    19
1002
}
  0
LINE
  5
A65
  8
0
 10
181.0861180234136
 20
94.929048671033001
 30
0.0
 11
181.0861180234136
 21
94.929048671033001
 31
0.0
  0
ARC
  5
A66
  8
0
 10
204.5885326804393
 20
120.9350797250567
 30
0.0
 40
59.059722944273361
 50
170.1951675759876
 51
187.59622906631219
  0
LINE
  5
A67
  8
0
 10
147.40088925335331
 20
113.3593259325261
 30
0.0
 11
157.22469770951619
 21
113.3593259325261
 31
0.0
  0
LINE
  5
A68
  8
0
 10
147.8412710288668
 20
123.12212521672041
 30
0.0
 11
157.60226517852601
 21
123.12212521672041
 31
0.0
  0
LINE
  5
A69
  8
0
 10
160.3861264234136
 20
114.6290406710331
 30
0.0
 11
180.0861184234135
 21
114.6290406710331
 31
0.0
1001
ACAD
1000
ASC_BOUNDS
1002
{
1070
    19
1002
}
  0
LINE
  5
A6A
  8
0
 10
181.38611802341379
 20
111.129044871033
 30
0.0
 11
181.0861180234136
 21
111.129044871033
 31
0.0
  0
LINE
  5
A6B
  8
0
 10
181.0861180234136
 20
113.629041071033
 30
0.0
 11
180.0861184234135
 21
114.6290406710331
 31
0.0
1001
ACAD
1000
ASC_BOUNDS
1002
{
1070
    19
1002
}
  0
LINE
  5
A6C
  8
0
 10
181.0861180234136
 20
113.3290410710331
 30
0.0
 11
181.0861180234136
 21
113.3290410710331
 31
0.0
  0
LINE
  5
A6D
  8
0
 10
209.63611802341379
 20
110.129044871033
 30
0.0
 11
211.38611802341379
 21
108.379044871033
 31
0.0
  0
LINE
  5
A6E
  8
0
 10
209.63611802341379
 20
98.129044871033045
 30
0.0
 11
209.63611802341379
 21
110.129044871033
 31
0.0
  0
LINE
  5
A6F
  8
0
 10
183.38611802341379
 20
104.129044871033
 30
0.0
 11
183.38611802341379
 21
110.129044871033
 31
0.0
1001
GENIUS_GENOREF_13
1005
0
  0
LINE
  5
A70
  8
3
 10
210.70961802341381
 20
99.202544871033055
 30
0.0
 11
183.3861180234137
 21
99.202544871033012
 31
0.0
1001
GENIUS_GENOREF_13
1005
0
1005
0
  0
LINE
  5
A71
  8
3
 10
210.70961802341381
 20
109.05554487103311
 30
0.0
 11
183.3861180234137
 21
109.05554487103289
 31
0.0
1001
GENIUS_GENOREF_13
1005
0
1005
0
  0
LINE
  5
A72
  8
0
 10
183.38611802341379
 20
104.129044871033
 30
0.0
 11
183.38611802341379
 21
98.129044871033102
 31
0.0
1001
GENIUS_GENOREF_13
1005
0
  0
LINE
  5
A73
  8
0
 10
209.63611802341379
 20
98.129044871033045
 30
0.0
 11
211.38611802341379
 21
99.879044871033045
 31
0.0
  0
LINE
  5
A74
  8
0
 10
211.38611802341379
 20
99.879044871033045
 30
0.0
 11
211.38611802341379
 21
108.379044871033
 31
0.0
1001
GENIUS_GENOREF_13
1005
0
1005
0
  0
ARC
  5
A75
  8
0
 10
158.3861272234135
 20
132.129033671033
 30
0.0
 40
1.9999991999999991
 50
0.0000000000002544
 51
90.0
1001
ACAD
1000
ASC_BOUNDS
1002
{
1070
    19
1002
}
  0
ARC
  5
A76
  8
0
 10
148.78410853662871
 20
132.08903287103311
 30
0.0
 40
2.04
 50
90.0
 51
164.99586362997539
1001
ACAD
1000
ASC_BOUNDS
1002
{
1070
    19
1002
}
  0
LINE
  5
A77
  8
0
 10
148.78410853662871
 20
134.1290328710331
 30
0.0
 11
158.3861272234135
 21
134.12903287103299
 31
0.0
1001
ACAD
1000
ASC_BOUNDS
1002
{
1070
    19
1002
}
  0
INSERT
  5
AC4
  8
0
  2
BATU
 10
0.0
 20
0.0
 30
0.0
 41
0.001
 42
0.001
 43
0.001
  0
TEXT
  5
BCE
  8
0
 62
     3
 10
0.0
 20
0.0
 30
0.0
 40
10.0
  1
SFK60BX30-SUS
  7
STANDARD1
  0
ENDSEC
  0
EOF
