  0
SECTION
  2
HEADER
  9
$ACADVER
  1
AC1009
  9
$INSBASE
 10
0.0
 20
0.0
 30
0.0
  9
$EXTMIN
 10
-0.0005
 20
-2.960436562073669
 30
0.0
  9
$EXTMAX
 10
231.13604342414649
 20
149.83666845728331
 30
0.0
  9
$LIMMIN
 10
0.0
 20
0.0
  9
$LIMMAX
 10
187.5
 20
135.0
  9
$ORTHOMODE
 70
     0
  9
$REGENMODE
 70
     1
  9
$FILLMODE
 70
     1
  9
$QTEXTMODE
 70
     0
  9
$MIRRTEXT
 70
     0
  9
$DRAGMODE
 70
     2
  9
$LTSCALE
 40
5.0
  9
$OSMODE
 70
    55
  9
$ATTMODE
 70
     1
  9
$TEXTSIZE
 40
4.000000000000048
  9
$TRACEWID
 40
0.05
  9
$TEXTSTYLE
  7
STANDARD
  9
$CLAYER
  8
0
  9
$CELTYPE
  6
BYLAYER
  9
$CECOLOR
 62
   256
  9
$DIMSCALE
 40
0.5
  9
$DIMASZ
 40
3.0
  9
$DIMEXO
 40
2.0
  9
$DIMDLI
 40
0.38
  9
$DIMRND
 40
0.0
  9
$DIMDLE
 40
0.0
  9
$DIMEXE
 40
2.0
  9
$DIMTP
 40
0.0
  9
$DIMTM
 40
0.0
  9
$DIMTXT
 40
3.0
  9
$DIMCEN
 40
0.09
  9
$DIMTSZ
 40
0.0
  9
$DIMTOL
 70
     0
  9
$DIMLIM
 70
     0
  9
$DIMTIH
 70
     0
  9
$DIMTOH
 70
     0
  9
$DIMSE1
 70
     0
  9
$DIMSE2
 70
     0
  9
$DIMTAD
 70
     1
  9
$DIMZIN
 70
     0
  9
$DIMBLK
  1

  9
$DIMASO
 70
     1
  9
$DIMSHO
 70
     0
  9
$DIMPOST
  1

  9
$DIMAPOST
  1

  9
$DIMALT
 70
     0
  9
$DIMALTD
 70
     2
  9
$DIMALTF
 40
25.399999999999999
  9
$DIMLFAC
 40
1.0
  9
$DIMTOFL
 70
     0
  9
$DIMTVP
 40
1.6000000000000001
  9
$DIMTIX
 70
     1
  9
$DIMSOXD
 70
     0
  9
$DIMSAH
 70
     0
  9
$DIMBLK1
  1

  9
$DIMBLK2
  1

  9
$DIMSTYLE
  2
STANDARD
  9
$DIMCLRD
 70
     0
  9
$DIMCLRE
 70
     0
  9
$DIMCLRT
 70
     0
  9
$DIMTFAC
 40
1.0
  9
$DIMGAP
 40
0.09
  9
$LUNITS
 70
     2
  9
$LUPREC
 70
     4
  9
$SKETCHINC
 40
0.1
  9
$FILLETRAD
 40
1.8999999999999999
  9
$AUNITS
 70
     0
  9
$AUPREC
 70
     0
  9
$MENU
  1
E:\r13\win\SUPPORT\ACAD
  9
$ELEVATION
 40
0.0
  9
$PELEVATION
 40
0.0
  9
$THICKNESS
 40
0.0
  9
$LIMCHECK
 70
     0
  9
$BLIPMODE
 70
     0
  9
$CHAMFERA
 40
0.0
  9
$CHAMFERB
 40
0.0
  9
$SKPOLY
 70
     0
  9
$TDCREATE
 40
2451582.6903199079
  9
$TDUPDATE
 40
2456598.4969631829
  9
$TDINDWG
 40
0.007346794
  9
$TDUSRTIMER
 40
0.007346794
  9
$USRTIMER
 70
     1
  9
$ANGBASE
 50
0.0
  9
$ANGDIR
 70
     0
  9
$PDMODE
 70
     0
  9
$PDSIZE
 40
0.0
  9
$PLINEWID
 40
0.0
  9
$COORDS
 70
     1
  9
$SPLFRAME
 70
     0
  9
$SPLINETYPE
 70
     6
  9
$SPLINESEGS
 70
     8
  9
$ATTDIA
 70
     0
  9
$ATTREQ
 70
     1
  9
$HANDLING
 70
     1
  9
$HANDSEED
  5
C68
  9
$SURFTAB1
 70
     6
  9
$SURFTAB2
 70
     6
  9
$SURFTYPE
 70
     6
  9
$SURFU
 70
     6
  9
$SURFV
 70
     6
  9
$UCSNAME
  2

  9
$UCSORG
 10
0.0
 20
0.0
 30
0.0
  9
$UCSXDIR
 10
1.0
 20
0.0
 30
0.0
  9
$UCSYDIR
 10
0.0
 20
1.0
 30
0.0
  9
$PUCSNAME
  2

  9
$PUCSORG
 10
0.0
 20
0.0
 30
0.0
  9
$PUCSXDIR
 10
1.0
 20
0.0
 30
0.0
  9
$PUCSYDIR
 10
0.0
 20
1.0
 30
0.0
  9
$USERI1
 70
     0
  9
$USERI2
 70
     1
  9
$USERI3
 70
     1
  9
$USERI4
 70
     0
  9
$USERI5
 70
     0
  9
$USERR1
 40
0.0
  9
$USERR2
 40
0.0
  9
$USERR3
 40
0.0
  9
$USERR4
 40
0.0
  9
$USERR5
 40
0.0
  9
$WORLDVIEW
 70
     1
  9
$SHADEDGE
 70
     3
  9
$SHADEDIF
 70
    70
  9
$TILEMODE
 70
     1
  9
$MAXACTVP
 70
    16
  9
$PLIMCHECK
 70
     0
  9
$PEXTMIN
 10
1.0000000000000000E+020
 20
1.0000000000000000E+020
 30
1.0000000000000000E+020
  9
$PEXTMAX
 10
-1.0000000000000000E+020
 20
-1.0000000000000000E+020
 30
-1.0000000000000000E+020
  9
$PLIMMIN
 10
0.0
 20
0.0
  9
$PLIMMAX
 10
12.0
 20
9.0
  9
$UNITMODE
 70
     0
  9
$VISRETAIN
 70
     0
  9
$PLINEGEN
 70
     0
  9
$PSLTSCALE
 70
     0
  0
ENDSEC
  0
SECTION
  2
TABLES
  0
TABLE
  2
VPORT
 70
     1
  0
VPORT
  2
*ACTIVE
 70
     0
 10
0.0
 20
0.0
 11
1.0
 21
1.0
 12
115.56777225023001
 22
96.615056508460839
 13
0.0
 23
0.0
 14
5.0
 24
5.0
 15
5.0
 25
5.0
 16
0.0
 26
0.0
 36
1.0
 17
0.0
 27
0.0
 37
0.0
 40
200.9182656985252
 41
1.7807262569832401
 42
50.0
 43
0.0
 44
0.0
 50
0.0
 51
0.0
 71
     0
 72
   500
 73
     1
 74
     0
 75
     0
 76
     0
 77
     0
 78
     2
  0
ENDTAB
  0
TABLE
  2
LTYPE
 70
     3
  0
LTYPE
  2
CONTINUOUS
 70
     0
  3
Solid Line
 72
    65
 73
     0
 40
0.0
  0
LTYPE
  2
CENTER
 70
     0
  3
____ _ ____ _ ____ _ ____ _ ____ _ ____ _ ____
 72
    65
 73
     4
 40
2.0
 49
1.25
 49
-0.25
 49
0.25
 49
-0.25
  0
LTYPE
  2
PHANTOM2
 70
     0
  3
___ _ _ ___ _ _ ___ _ _ ___ _ _
 72
    65
 73
     6
 40
1.25
 49
0.625
 49
-0.125
 49
0.125
 49
-0.125
 49
0.125
 49
-0.125
  0
ENDTAB
  0
TABLE
  2
LAYER
 70
     4
  0
LAYER
  2
0
 70
     0
 62
     7
  6
CONTINUOUS
  0
LAYER
  2
1
 70
     0
 62
     1
  6
CENTER
  0
LAYER
  2
3
 70
     0
 62
     3
  6
CONTINUOUS
  0
LAYER
  2
ITTEN
 70
     0
 62
     1
  6
CENTER
  0
ENDTAB
  0
TABLE
  2
STYLE
 70
     2
  0
STYLE
  2
STANDARD
 70
     0
 40
0.0
 41
1.0
 50
0.0
 71
     0
 42
4.000000000000048
  3
TXT
  4
BIGFONT
  0
STYLE
  2
STANDARD1
 70
     0
 40
0.0
 41
1.0
 50
0.0
 71
     0
 42
3.0
  3
txt
  4

  0
ENDTAB
  0
TABLE
  2
VIEW
 70
     1
  0
VIEW
  2
ALL
 70
     0
 40
135.0
 10
110.4957983193277
 20
67.5
 41
0.0
 11
0.0
 21
0.0
 31
1.0
 12
0.0
 22
0.0
 32
0.0
 42
0.0
 43
0.0
 44
0.0
 50
0.0
 71
     0
  0
ENDTAB
  0
TABLE
  2
UCS
 70
     0
  0
ENDTAB
  0
TABLE
  2
APPID
 70
     7
  0
APPID
  2
ACAD
 70
     0
  0
APPID
  2
GENIUS_GENFIL_13
 70
     0
  0
APPID
  2
GENIUS_GENODEF_13
 70
     0
  0
APPID
  2
GENIUS_GENOBJ-N-CHA_13
 70
     0
  0
APPID
  2
GENIUS_GENOREF_13
 70
     0
  0
APPID
  2
ACAD_MLEADERVER
 70
     0
  0
APPID
  2
ACAD_NAV_VCDISPLAY
 70
     0
  0
ENDTAB
  0
TABLE
  2
DIMSTYLE
 70
     1
  0
DIMSTYLE
  2
STANDARD
 70
     0
  3

  4

  5

  6

  7

 40
1.0
 41
0.18
 42
0.0625
 43
0.38
 44
0.18
 45
0.0
 46
0.0
 47
0.0
 48
0.0
140
0.18
141
0.09
142
0.0
143
25.399999999999999
144
1.0
145
0.0
146
1.0
147
0.09
 71
     0
 72
     0
 73
     1
 74
     1
 75
     0
 76
     0
 77
     0
 78
     0
170
     0
171
     2
172
     0
173
     0
174
     0
175
     0
176
     0
177
     0
178
     0
  0
ENDTAB
  0
ENDSEC
  0
SECTION
  2
BLOCKS
  0
BLOCK
  8
0
  2
$MODEL_SPACE
 70
     0
 10
0.0
 20
0.0
 30
0.0
  3
$MODEL_SPACE
  1

  0
ENDBLK
  5
AB8
  8
0
  0
BLOCK
 67
     1
  8
0
  2
$PAPER_SPACE
 70
     0
 10
0.0
 20
0.0
 30
0.0
  3
$PAPER_SPACE
  1

  0
ENDBLK
  5
AB6
 67
     1
  8
0
  0
BLOCK
  8
0
  2
STDGX5
 70
     0
 10
0.0
 20
0.0
 30
0.0
  3
STDGX5
  1

  0
ENDBLK
  5
3DA
  8
0
  0
BLOCK
  8
0
  2
BATU
 70
     0
 10
0.0
 20
0.0
 30
0.0
  3
BATU
  1

  0
LINE
  5
AC3
  8
ITTEN
 10
0.5
 20
0.0
 30
0.0
 11
-0.5
 21
0.0
 31
0.0
  0
LINE
  5
AC4
  8
ITTEN
 10
0.0
 20
0.5
 30
0.0
 11
0.0
 21
-0.5
 31
0.0
  0
ENDBLK
  5
AC6
  8
0
  0
ENDSEC
  0
SECTION
  2
ENTITIES
  0
INSERT
  5
404
  8
0
  2
STDGX5
 10
0.0
 20
0.0
 30
0.0
 41
0.125
 42
0.125
 43
0.125
  0
INSERT
  5
405
  8
0
  2
STDGX5
 10
0.0
 20
0.0
 30
0.0
 41
0.125
 42
0.125
 43
0.125
  0
INSERT
  5
406
  8
0
  2
STDGX5
 10
34.375
 20
0.0
 30
0.0
 41
0.125
 42
0.125
 43
0.125
  0
INSERT
  5
407
  8
0
  2
STDGX5
 10
34.375
 20
0.0
 30
0.0
 41
0.125
 42
0.125
 43
0.125
  0
INSERT
  5
408
  8
0
  2
STDGX5
 10
0.0
 20
0.0
 30
0.0
 41
0.25
 42
0.25
 43
0.25
  0
INSERT
  5
409
  8
0
  2
STDGX5
 10
0.0
 20
0.0
 30
0.0
 41
0.25
 42
0.25
 43
0.25
  0
INSERT
  5
40A
  8
0
  2
STDGX5
 10
68.75
 20
0.0
 30
0.0
 41
0.25
 42
0.25
 43
0.25
  0
INSERT
  5
40B
  8
0
  2
STDGX5
 10
68.75
 20
0.0
 30
0.0
 41
0.25
 42
0.25
 43
0.25
  0
INSERT
  5
40D
  8
0
  2
STDGX5
 10
-17.5
 20
-50.0
 30
0.0
 41
0.1666666666666666
 42
0.1666666666666666
 43
0.1666666666666666
  0
INSERT
  5
40E
  8
0
  2
STDGX5
 10
-17.5
 20
-50.0
 30
0.0
 41
0.1666666666666666
 42
0.1666666666666666
 43
0.1666666666666666
  0
INSERT
  5
40F
  8
0
  2
STDGX5
 10
28.333333333333321
 20
-50.0
 30
0.0
 41
0.1666666666666666
 42
0.1666666666666666
 43
0.1666666666666666
  0
INSERT
  5
410
  8
0
  2
STDGX5
 10
28.333333333333321
 20
-50.0
 30
0.0
 41
0.1666666666666666
 42
0.1666666666666666
 43
0.1666666666666666
  0
INSERT
  5
412
  8
0
  2
STDGX5
 10
-17.5
 20
-50.0
 30
0.0
 41
0.1666666666666666
 42
0.1666666666666666
 43
0.1666666666666666
  0
INSERT
  5
413
  8
0
  2
STDGX5
 10
-17.5
 20
-50.0
 30
0.0
 41
0.1666666666666666
 42
0.1666666666666666
 43
0.1666666666666666
  0
INSERT
  5
414
  8
0
  2
STDGX5
 10
28.333333333333329
 20
-50.0
 30
0.0
 41
0.1666666666666666
 42
0.1666666666666666
 43
0.1666666666666666
  0
INSERT
  5
415
  8
0
  2
STDGX5
 10
28.333333333333329
 20
-50.0
 30
0.0
 41
0.1666666666666666
 42
0.1666666666666666
 43
0.1666666666666666
  0
INSERT
  5
416
  8
0
  2
STDGX5
 10
0.0
 20
0.0
 30
0.0
 41
0.5
 42
0.5
 43
0.5
  0
INSERT
  5
417
  8
0
  2
STDGX5
 10
0.0
 20
0.0
 30
0.0
 41
0.5
 42
0.5
 43
0.5
  0
INSERT
  5
418
  8
0
  2
STDGX5
 10
137.5
 20
0.0
 30
0.0
 41
0.5
 42
0.5
 43
0.5
  0
INSERT
  5
419
  8
0
  2
STDGX5
 10
137.5
 20
0.0
 30
0.0
 41
0.5
 42
0.5
 43
0.5
  0
LINE
  5
A3A
  8
1
 10
76.279925745637911
 20
149.83666845728331
 30
0.0
 11
76.279925745637911
 21
79.836668457283253
 31
0.0
  0
ARC
  5
A3B
  8
0
 10
257.85200492529748
 20
114.8366684572833
 30
0.0
 40
110.04000000000001
 50
164.99586362997539
 51
169.56470295968219
1001
ACAD
1000
ASC_BOUNDS
1002
{
1070
    19
1002
}
  0
LINE
  5
A3C
  8
0
 10
165.13605182414611
 20
138.624198458287
 30
0.0
 11
165.13605182414611
 21
142.83665725728321
 31
0.0
1001
ACAD
1000
ASC_BOUNDS
1002
{
1070
    19
1002
}
  0
LINE
  5
A3D
  8
0
 10
163.09569615984341
 20
90.351507721266955
 30
0.0
 11
163.09569615984341
 21
143.9662449623857
 31
0.0
  0
ARC
  5
A3E
  8
0
 10
76.279925745637911
 20
135.15266845728331
 30
0.0
 40
9.6839999999999993
 50
28.751749686263341
 51
151.2482503137368
  0
CIRCLE
  5
A3F
  8
0
 10
76.279925745637911
 20
114.8366684572833
 30
0.0
 40
20.0
  0
ARC
  5
A40
  8
0
 10
64.338480560063999
 20
98.400679199561921
 30
0.0
 40
9.6839999999999993
 50
172.75174968626311
 51
295.2482503137328
  0
ARC
  5
A41
  8
0
 10
88.221370931211837
 20
98.400679199561921
 30
0.0
 40
9.6839999999999993
 50
244.7517496862674
 51
7.2482503137368548
  0
ARC
  5
A42
  8
0
 10
76.279925745637911
 20
73.079188270315001
 30
0.0
 40
18.312000000000001
 50
64.751749686267232
 51
115.2482503137328
  0
LINE
  5
A43
  8
1
 10
111.2799257456379
 20
114.8366684572833
 30
0.0
 11
41.279925745637883
 21
114.8366684572832
 31
0.0
  0
ARC
  5
A44
  8
0
 10
56.95826156058569
 20
121.1146577150047
 30
0.0
 40
9.6839999999999993
 50
100.7517496862633
 51
223.24825031373669
  0
ARC
  5
A45
  8
0
 10
36.566202109755856
 20
101.9328974372349
 30
0.0
 40
18.312000000000001
 50
352.75174968626328
 51
43.24825031373674
  0
ARC
  5
A46
  8
0
 10
51.735494718842752
 20
148.61917957081579
 30
0.0
 40
18.312000000000001
 50
280.75174968626328
 51
331.24825031373678
  0
ARC
  5
A47
  8
0
 10
95.601589930690224
 20
121.1146577150047
 30
0.0
 40
9.6839999999999993
 50
316.75174968626328
 51
79.248250313736776
  0
ARC
  5
A48
  8
0
 10
115.9936493815199
 20
101.932897437235
 30
0.0
 40
18.312000000000001
 50
136.7517496862632
 51
187.24825031373669
  0
ARC
  5
A49
  8
0
 10
100.82435677243301
 20
148.6191795708159
 30
0.0
 40
18.312000000000001
 50
208.7517496862632
 51
259.24825031373678
  0
LINE
  5
A4A
  8
0
 10
165.13605182414619
 20
93.336677057283907
 30
0.0
 11
165.13605182414611
 21
114.8366684572833
 31
0.0
1001
ACAD
1000
ASC_BOUNDS
1002
{
1070
    19
1002
}
  0
ARC
  5
A4B
  8
0
 10
184.4626462761546
 20
103.8504994986265
 30
0.0
 40
34.01518262918102
 50
169.45666511943611
 51
191.8896448791825
  0
LINE
  5
A4C
  8
0
 10
149.63205822414619
 20
134.76766783011911
 30
0.0
 11
149.63205822414611
 21
94.905669084448164
 31
0.0
1001
ACAD
1000
ASC_BOUNDS
1002
{
1070
    19
1002
}
  0
ARC
  5
A4D
  8
0
 10
163.1360526241462
 20
90.716678399561943
 30
0.0
 40
1.9999991999999991
 50
270.0
 51
359.99999999999972
  0
ARC
  5
A4E
  8
0
 10
153.5340339373615
 20
90.756679199561916
 30
0.0
 40
2.04
 50
195.00413637002461
 51
270.0
1001
ACAD
1000
ASC_BOUNDS
1002
{
1070
    19
1002
}
  0
LINE
  5
A4F
  8
0
 10
152.6820409638695
 20
95.458887961215225
 30
0.0
 11
161.881544543888
 21
95.458887961215225
 31
0.0
  0
ARC
  5
A50
  8
0
 10
141.6799371317382
 20
91.577659649170698
 30
0.0
 40
10.85892633630068
 50
350.16338682968791
 51
29.001654949562798
  0
ARC
  5
A51
  8
0
 10
184.3866568177975
 20
106.5209819427847
 30
0.0
 40
36.64420303680896
 50
198.4801113583469
 51
206.398488421308
1001
ACAD
1000
ASC_BOUNDS
1002
{
1070
    19
1002
}
  0
LINE
  5
A52
  8
0
 10
153.5340339373615
 20
88.716679199561838
 30
0.0
 11
163.1360526241462
 21
88.716679199561838
 31
0.0
  0
LINE
  5
A53
  8
0
 10
165.13605182414619
 20
93.336677057283907
 30
0.0
 11
165.13605182414619
 21
90.716678399561943
 31
0.0
1001
ACAD
1000
ASC_BOUNDS
1002
{
1070
    19
1002
}
  0
LINE
  5
A54
  8
3
 10
188.13604342414641
 20
109.91016845728331
 30
0.0
 11
187.06254342414621
 21
108.8366684572833
 31
0.0
  0
LINE
  5
A55
  8
3
 10
188.13604342414641
 20
119.7631684572832
 30
0.0
 11
187.06254342414621
 21
120.8366684572833
 31
0.0
  0
LINE
  5
A56
  8
1
 10
144.63205822414619
 20
114.8366684572833
 30
0.0
 11
231.13604342414649
 21
114.8366684572833
 31
0.0
  0
LINE
  5
A57
  8
0
 10
186.13604342414649
 20
108.8366684572833
 30
0.0
 11
224.38604342414649
 21
108.8366684572833
 31
0.0
1001
GENIUS_GENOREF_13
1005
0
1005
0
  0
LINE
  5
A58
  8
0
 10
186.13604342414649
 20
120.8366684572833
 30
0.0
 11
224.38604342414649
 21
120.8366684572833
 31
0.0
1001
GENIUS_GENOREF_13
1005
0
1005
0
  0
LINE
  5
A59
  8
0
 10
186.13604342414649
 20
114.8366684572833
 30
0.0
 11
186.13604342414649
 21
121.8366684572833
 31
0.0
1001
GENIUS_GENOREF_13
1005
0
  0
LINE
  5
A5A
  8
0
 10
185.8360434241464
 20
114.8366684572833
 30
0.0
 11
185.83604342414631
 21
124.33666465728329
 31
0.0
1001
ACAD
1000
ASC_BOUNDS
1002
{
1070
    19
1002
}
  0
LINE
  5
A5B
  8
0
 10
184.83604382414609
 20
125.3366642572833
 30
0.0
 11
184.83604382414609
 21
104.3366726572833
 31
0.0
  0
LINE
  5
A5C
  8
0
 10
165.13605182414611
 20
138.624198458287
 30
0.0
 11
165.13605182414651
 21
114.8366684572833
 31
0.0
1001
ACAD
1000
ASC_BOUNDS
1002
{
1070
    19
1002
}
  0
ARC
  5
A5D
  8
0
 10
118.0882685214255
 20
116.4190722344496
 30
0.0
 40
33.539034875719572
 50
349.09578106302439
 51
12.775361943606731
  0
LINE
  5
A5E
  8
0
 10
149.63205822414619
 20
122.456631811813
 30
0.0
 11
149.63205822414619
 21
109.1690976108092
 31
0.0
  0
LINE
  5
A5F
  8
0
 10
152.60399019218789
 20
111.9538213766525
 30
0.0
 11
161.6932860829981
 21
111.9538213766525
 31
0.0
  0
LINE
  5
A60
  8
0
 10
186.13604342414649
 20
114.8366684572833
 30
0.0
 11
186.13604342414649
 21
107.8366684572833
 31
0.0
1001
GENIUS_GENOREF_13
1005
0
  0
LINE
  5
A61
  8
0
 10
185.8360434241464
 20
114.8366684572833
 30
0.0
 11
185.83604342414631
 21
105.3366722572833
 31
0.0
1001
ACAD
1000
ASC_BOUNDS
1002
{
1070
    19
1002
}
  0
LINE
  5
A62
  8
0
 10
165.13605182414619
 20
104.3366726572832
 30
0.0
 11
184.83604382414609
 21
104.3366726572833
 31
0.0
1001
ACAD
1000
ASC_BOUNDS
1002
{
1070
    19
1002
}
  0
LINE
  5
A63
  8
0
 10
186.13604342414649
 20
107.8366684572833
 30
0.0
 11
185.83604342414631
 21
107.8366684572833
 31
0.0
  0
LINE
  5
A64
  8
0
 10
185.83604342414631
 20
105.3366722572833
 30
0.0
 11
184.83604382414609
 21
104.3366726572832
 31
0.0
1001
ACAD
1000
ASC_BOUNDS
1002
{
1070
    19
1002
}
  0
LINE
  5
A65
  8
0
 10
185.83604342414631
 20
105.63667225728319
 30
0.0
 11
185.83604342414631
 21
105.63667225728319
 31
0.0
  0
ARC
  5
A66
  8
0
 10
209.33845808117189
 20
131.64270331130689
 30
0.0
 40
59.059722944273361
 50
170.1951675759876
 51
187.59622906631219
  0
LINE
  5
A67
  8
0
 10
152.15081465408591
 20
124.0669495187763
 30
0.0
 11
161.97462311024881
 21
124.0669495187763
 31
0.0
  0
LINE
  5
A68
  8
0
 10
152.59119642959939
 20
133.8297488029707
 30
0.0
 11
162.3521905792586
 21
133.8297488029707
 31
0.0
  0
LINE
  5
A69
  8
0
 10
165.13605182414631
 20
125.3366642572833
 30
0.0
 11
184.83604382414609
 21
125.3366642572833
 31
0.0
1001
ACAD
1000
ASC_BOUNDS
1002
{
1070
    19
1002
}
  0
LINE
  5
A6A
  8
0
 10
186.13604342414649
 20
121.8366684572833
 30
0.0
 11
185.83604342414631
 21
121.8366684572833
 31
0.0
  0
LINE
  5
A6B
  8
0
 10
185.83604342414631
 20
124.33666465728319
 30
0.0
 11
184.83604382414609
 21
125.3366642572833
 31
0.0
1001
ACAD
1000
ASC_BOUNDS
1002
{
1070
    19
1002
}
  0
LINE
  5
A6C
  8
0
 10
185.83604342414631
 20
124.0366646572833
 30
0.0
 11
185.83604342414631
 21
124.0366646572833
 31
0.0
  0
LINE
  5
A6D
  8
0
 10
224.38604342414649
 20
120.8366684572833
 30
0.0
 11
226.13604342414649
 21
119.0866684572833
 31
0.0
  0
LINE
  5
A6E
  8
0
 10
224.38604342414649
 20
108.8366684572833
 30
0.0
 11
224.38604342414649
 21
120.8366684572833
 31
0.0
  0
LINE
  5
A6F
  8
0
 10
188.13604342414641
 20
114.8366684572833
 30
0.0
 11
188.13604342414641
 21
120.8366684572832
 31
0.0
1001
GENIUS_GENOREF_13
1005
0
  0
LINE
  5
A70
  8
3
 10
225.45954342414649
 20
109.91016845728331
 30
0.0
 11
188.13604342414629
 21
109.91016845728321
 31
0.0
1001
GENIUS_GENOREF_13
1005
0
1005
0
  0
LINE
  5
A71
  8
3
 10
225.4595434241464
 20
119.7631684572833
 30
0.0
 11
188.13604342414629
 21
119.7631684572832
 31
0.0
1001
GENIUS_GENOREF_13
1005
0
1005
0
  0
LINE
  5
A72
  8
0
 10
188.13604342414641
 20
114.8366684572833
 30
0.0
 11
188.13604342414641
 21
108.8366684572833
 31
0.0
1001
GENIUS_GENOREF_13
1005
0
  0
LINE
  5
A73
  8
0
 10
224.38604342414649
 20
108.8366684572833
 30
0.0
 11
226.13604342414649
 21
110.5866684572833
 31
0.0
  0
LINE
  5
A74
  8
0
 10
226.13604342414649
 20
110.5866684572833
 30
0.0
 11
226.13604342414649
 21
119.0866684572833
 31
0.0
1001
GENIUS_GENOREF_13
1005
0
1005
0
  0
ARC
  5
A75
  8
0
 10
163.1360526241462
 20
142.83665725728321
 30
0.0
 40
1.9999991999999991
 50
0.0000000000002544
 51
90.0
1001
ACAD
1000
ASC_BOUNDS
1002
{
1070
    19
1002
}
  0
ARC
  5
A76
  8
0
 10
153.53403393736139
 20
142.79665645728329
 30
0.0
 40
2.04
 50
90.0
 51
164.99586362997539
1001
ACAD
1000
ASC_BOUNDS
1002
{
1070
    19
1002
}
  0
LINE
  5
A77
  8
0
 10
153.53403393736139
 20
144.83665645728331
 30
0.0
 11
163.1360526241462
 21
144.8366564572832
 31
0.0
1001
ACAD
1000
ASC_BOUNDS
1002
{
1070
    19
1002
}
  0
INSERT
  5
AC7
  8
0
  2
BATU
 10
0.0
 20
0.0
 30
0.0
 41
0.001
 42
0.001
 43
0.001
  0
TEXT
  5
BD1
  8
0
 62
     3
 10
0.0
 20
0.0
 30
0.0
 40
10.0
  1
SFK60BX40-SUS
  7
STANDARD1
  0
ENDSEC
  0
EOF
