  0
SECTION
  2
HEADER
  9
$ACADVER
  1
AC1009
  9
$INSBASE
 10
0.0
 20
0.0
 30
0.0
  9
$EXTMIN
 10
0.0
 20
-2.960436562073669
 30
0.0
  9
$EXTMAX
 10
297.165625928086
 20
235.919987507988
 30
0.0
  9
$LIMMIN
 10
0.0
 20
0.0
  9
$LIMMAX
 10
375.0
 20
270.0
  9
$ORTHOMODE
 70
     1
  9
$REGENMODE
 70
     1
  9
$FILLMODE
 70
     1
  9
$QTEXTMODE
 70
     0
  9
$MIRRTEXT
 70
     0
  9
$DRAGMODE
 70
     2
  9
$LTSCALE
 40
10.0
  9
$OSMODE
 70
    55
  9
$ATTMODE
 70
     1
  9
$TEXTSIZE
 40
0.2
  9
$TRACEWID
 40
0.05
  9
$TEXTSTYLE
  7
STANDARD
  9
$CLAYER
  8
0
  9
$CELTYPE
  6
BYLAYER
  9
$CECOLOR
 62
   256
  9
$DIMSCALE
 40
1.0
  9
$DIMASZ
 40
3.0
  9
$DIMEXO
 40
2.0
  9
$DIMDLI
 40
0.38
  9
$DIMRND
 40
0.0
  9
$DIMDLE
 40
0.0
  9
$DIMEXE
 40
2.0
  9
$DIMTP
 40
0.0
  9
$DIMTM
 40
0.0
  9
$DIMTXT
 40
3.2000000000000002
  9
$DIMCEN
 40
0.0
  9
$DIMTSZ
 40
0.0
  9
$DIMTOL
 70
     0
  9
$DIMLIM
 70
     0
  9
$DIMTIH
 70
     0
  9
$DIMTOH
 70
     0
  9
$DIMSE1
 70
     0
  9
$DIMSE2
 70
     0
  9
$DIMTAD
 70
     1
  9
$DIMZIN
 70
     0
  9
$DIMBLK
  1

  9
$DIMASO
 70
     1
  9
$DIMSHO
 70
     0
  9
$DIMPOST
  1

  9
$DIMAPOST
  1

  9
$DIMALT
 70
     0
  9
$DIMALTD
 70
     2
  9
$DIMALTF
 40
25.399999999999999
  9
$DIMLFAC
 40
1.0
  9
$DIMTOFL
 70
     1
  9
$DIMTVP
 40
1.6000000000000001
  9
$DIMTIX
 70
     1
  9
$DIMSOXD
 70
     0
  9
$DIMSAH
 70
     0
  9
$DIMBLK1
  1

  9
$DIMBLK2
  1

  9
$DIMSTYLE
  2
STANDARD
  9
$DIMCLRD
 70
     0
  9
$DIMCLRE
 70
     0
  9
$DIMCLRT
 70
     0
  9
$DIMTFAC
 40
1.0
  9
$DIMGAP
 40
0.09
  9
$LUNITS
 70
     2
  9
$LUPREC
 70
     4
  9
$SKETCHINC
 40
0.1
  9
$FILLETRAD
 40
0.0
  9
$AUNITS
 70
     0
  9
$AUPREC
 70
     4
  9
$MENU
  1
E:\r13\win\SUPPORT\ACAD
  9
$ELEVATION
 40
0.0
  9
$PELEVATION
 40
0.0
  9
$THICKNESS
 40
0.0
  9
$LIMCHECK
 70
     0
  9
$BLIPMODE
 70
     0
  9
$CHAMFERA
 40
0.0
  9
$CHAMFERB
 40
0.0
  9
$SKPOLY
 70
     0
  9
$TDCREATE
 40
2449839.7956597218
  9
$TDUPDATE
 40
2456598.4974026619
  9
$TDINDWG
 40
0.0001688773
  9
$TDUSRTIMER
 40
0.0001688773
  9
$USRTIMER
 70
     1
  9
$ANGBASE
 50
0.0
  9
$ANGDIR
 70
     0
  9
$PDMODE
 70
     0
  9
$PDSIZE
 40
0.0
  9
$PLINEWID
 40
0.0
  9
$COORDS
 70
     1
  9
$SPLFRAME
 70
     0
  9
$SPLINETYPE
 70
     6
  9
$SPLINESEGS
 70
     8
  9
$ATTDIA
 70
     0
  9
$ATTREQ
 70
     1
  9
$HANDLING
 70
     1
  9
$HANDSEED
  5
27E
  9
$SURFTAB1
 70
     6
  9
$SURFTAB2
 70
     6
  9
$SURFTYPE
 70
     6
  9
$SURFU
 70
     6
  9
$SURFV
 70
     6
  9
$UCSNAME
  2

  9
$UCSORG
 10
0.0
 20
0.0
 30
0.0
  9
$UCSXDIR
 10
1.0
 20
0.0
 30
0.0
  9
$UCSYDIR
 10
0.0
 20
1.0
 30
0.0
  9
$PUCSNAME
  2

  9
$PUCSORG
 10
0.0
 20
0.0
 30
0.0
  9
$PUCSXDIR
 10
1.0
 20
0.0
 30
0.0
  9
$PUCSYDIR
 10
0.0
 20
1.0
 30
0.0
  9
$USERI1
 70
     0
  9
$USERI2
 70
     1
  9
$USERI3
 70
     1
  9
$USERI4
 70
     0
  9
$USERI5
 70
     0
  9
$USERR1
 40
0.0
  9
$USERR2
 40
0.0
  9
$USERR3
 40
0.0
  9
$USERR4
 40
0.0
  9
$USERR5
 40
0.0
  9
$WORLDVIEW
 70
     1
  9
$SHADEDGE
 70
     3
  9
$SHADEDIF
 70
    70
  9
$TILEMODE
 70
     1
  9
$MAXACTVP
 70
    16
  9
$PLIMCHECK
 70
     0
  9
$PEXTMIN
 10
1.0000000000000000E+020
 20
1.0000000000000000E+020
 30
1.0000000000000000E+020
  9
$PEXTMAX
 10
-1.0000000000000000E+020
 20
-1.0000000000000000E+020
 30
-1.0000000000000000E+020
  9
$PLIMMIN
 10
0.0
 20
0.0
  9
$PLIMMAX
 10
12.0
 20
9.0
  9
$UNITMODE
 70
     0
  9
$VISRETAIN
 70
     0
  9
$PLINEGEN
 70
     0
  9
$PSLTSCALE
 70
     0
  0
ENDSEC
  0
SECTION
  2
TABLES
  0
TABLE
  2
VPORT
 70
     1
  0
VPORT
  2
*ACTIVE
 70
     0
 10
0.0
 20
0.0
 11
1.0
 21
1.0
 12
187.49427839065231
 22
174.91677254346851
 13
0.0
 23
0.0
 14
10.0
 24
10.0
 15
10.0
 25
10.0
 16
0.0
 26
0.0
 36
1.0
 17
0.0
 27
0.0
 37
0.0
 40
358.92027899574339
 41
1.7807262569832401
 42
50.0
 43
0.0
 44
0.0
 50
0.0
 51
0.0
 71
     0
 72
   500
 73
     1
 74
     0
 75
     0
 76
     0
 77
     0
 78
     2
  0
ENDTAB
  0
TABLE
  2
LTYPE
 70
     4
  0
LTYPE
  2
CONTINUOUS
 70
     0
  3
Solid Line
 72
    65
 73
     0
 40
0.0
  0
LTYPE
  2
CENTER
 70
     0
  3
____ _ ____ _ ____ _ ____ _ ____ _ ____ _ ____
 72
    65
 73
     4
 40
2.0
 49
1.25
 49
-0.25
 49
0.25
 49
-0.25
  0
LTYPE
  2
HIDDEN
 70
     0
  3
_ _ _ _ _ _ _ _ _ _ _ _ _ _ _ _ _ _ _ _ _ _ _
 72
    65
 73
     2
 40
0.375
 49
0.25
 49
-0.125
  0
LTYPE
  2
PHANTOM2
 70
     0
  3
___ _ _ ___ _ _ ___ _ _ ___ _ _
 72
    65
 73
     6
 40
1.25
 49
0.625
 49
-0.125
 49
0.125
 49
-0.125
 49
0.125
 49
-0.125
  0
ENDTAB
  0
TABLE
  2
LAYER
 70
     3
  0
LAYER
  2
0
 70
     0
 62
     7
  6
CONTINUOUS
  0
LAYER
  2
1
 70
     0
 62
     1
  6
CENTER
  0
LAYER
  2
2
 70
     0
 62
     2
  6
HIDDEN
  0
ENDTAB
  0
TABLE
  2
STYLE
 70
     2
  0
STYLE
  2
STANDARD
 70
     0
 40
0.0
 41
1.0
 50
0.0
 71
     0
 42
0.2
  3
TXT
  4
BIGFONT
  0
STYLE
  2
STANDARD1
 70
     0
 40
0.0
 41
1.0
 50
0.0
 71
     0
 42
3.0
  3
txt
  4

  0
ENDTAB
  0
TABLE
  2
VIEW
 70
     1
  0
VIEW
  2
ALL
 70
     0
 40
270.0
 10
220.99159663865549
 20
135.0
 41
0.0
 11
0.0
 21
0.0
 31
1.0
 12
0.0
 22
0.0
 32
0.0
 42
0.0
 43
0.0
 44
0.0
 50
0.0
 71
     0
  0
ENDTAB
  0
TABLE
  2
UCS
 70
     0
  0
ENDTAB
  0
TABLE
  2
APPID
 70
     3
  0
APPID
  2
ACAD
 70
     0
  0
APPID
  2
ACAD_MLEADERVER
 70
     0
  0
APPID
  2
ACAD_NAV_VCDISPLAY
 70
     0
  0
ENDTAB
  0
TABLE
  2
DIMSTYLE
 70
     1
  0
DIMSTYLE
  2
STANDARD
 70
     0
  3

  4

  5

  6

  7

 40
1.0
 41
0.18
 42
0.0625
 43
0.38
 44
0.18
 45
0.0
 46
0.0
 47
0.0
 48
0.0
140
0.18
141
0.09
142
0.0
143
25.399999999999999
144
1.0
145
0.0
146
1.0
147
0.09
 71
     0
 72
     0
 73
     1
 74
     1
 75
     0
 76
     0
 77
     0
 78
     0
170
     0
171
     2
172
     0
173
     0
174
     0
175
     0
176
     0
177
     0
178
     0
  0
ENDTAB
  0
ENDSEC
  0
SECTION
  2
BLOCKS
  0
BLOCK
  8
0
  2
$MODEL_SPACE
 70
     0
 10
0.0
 20
0.0
 30
0.0
  3
$MODEL_SPACE
  1

  0
ENDBLK
  5
FF
  8
0
  0
BLOCK
 67
     1
  8
0
  2
$PAPER_SPACE
 70
     0
 10
0.0
 20
0.0
 30
0.0
  3
$PAPER_SPACE
  1

  0
ENDBLK
  5
FD
 67
     1
  8
0
  0
ENDSEC
  0
SECTION
  2
ENTITIES
  0
LINE
  5
35
  8
1
 10
80.907883094640624
 20
146.4448962892433
 30
0.0
 11
80.907883094640624
 21
120.0448962892436
 31
0.0
  0
LINE
  5
36
  8
1
 10
287.665625928086
 20
146.4448962892433
 30
0.0
 11
287.665625928086
 21
120.0448962892436
 31
0.0
  0
LINE
  5
37
  8
1
 10
197.70178761854501
 20
144.04489628924361
 30
0.0
 11
197.70178761854501
 21
120.0448962892436
 31
0.0
  0
LINE
  5
38
  8
0
 10
87.241216427973995
 20
130.04489628924361
 30
0.0
 11
74.574549761307253
 21
130.04489628924361
 31
0.0
  0
LINE
  5
39
  8
0
 10
71.407883094640624
 20
133.04489628924361
 30
0.0
 11
80.907883094640624
 21
136.04489628924361
 31
0.0
  0
LINE
  5
3A
  8
0
 10
90.407883094640624
 20
133.04489628924361
 30
0.0
 11
80.907883094640624
 21
136.04489628924361
 31
0.0
  0
LINE
  5
3B
  8
0
 10
78.107883094641238
 20
136.04489628924361
 30
0.0
 11
78.107883094641238
 21
136.4448962892433
 31
0.0
  0
LINE
  5
3C
  8
0
 10
78.107883094641238
 20
136.4448962892433
 30
0.0
 11
83.707883094640025
 21
136.4448962892433
 31
0.0
  0
LINE
  5
3D
  8
0
 10
83.707883094640025
 20
136.4448962892433
 30
0.0
 11
83.707883094640025
 21
136.04489628924361
 31
0.0
  0
LINE
  5
3E
  8
0
 10
71.407883094640624
 20
129.04489628924361
 30
0.0
 11
71.407883094640624
 21
136.04489628924361
 31
0.0
  0
LINE
  5
3F
  8
0
 10
90.407883094640624
 20
129.04489628924361
 30
0.0
 11
90.407883094640624
 21
136.04489628924361
 31
0.0
  0
LINE
  5
40
  8
0
 10
90.407883094640624
 20
136.04489628924361
 30
0.0
 11
71.407883094640624
 21
136.04489628924361
 31
0.0
  0
LINE
  5
41
  8
0
 10
71.407883094640624
 20
129.04489628924361
 30
0.0
 11
80.907883094640624
 21
132.04489628924361
 31
0.0
  0
LINE
  5
42
  8
0
 10
90.407883094640624
 20
129.04489628924361
 30
0.0
 11
80.907883094640624
 21
132.04489628924361
 31
0.0
  0
LINE
  5
43
  8
0
 10
280.665625928086
 20
134.04489628924361
 30
0.0
 11
278.165625928086
 21
136.04489628924361
 31
0.0
  0
LINE
  5
44
  8
0
 10
294.665625928086
 20
134.04489628924361
 30
0.0
 11
297.165625928086
 21
136.04489628924361
 31
0.0
  0
LINE
  5
45
  8
0
 10
278.165625928086
 20
129.04489628924361
 30
0.0
 11
281.33229259475257
 21
130.04489628924361
 31
0.0
  0
LINE
  5
46
  8
0
 10
297.165625928086
 20
129.04489628924361
 30
0.0
 11
293.99895926141937
 21
130.04489628924361
 31
0.0
  0
LINE
  5
47
  8
0
 10
290.46562592808539
 20
136.04489628924361
 30
0.0
 11
297.165625928086
 21
136.04489628924361
 31
0.0
  0
LINE
  5
48
  8
0
 10
278.165625928086
 20
136.04489628924361
 30
0.0
 11
284.86562592808662
 21
136.04489628924361
 31
0.0
  0
LINE
  5
49
  8
0
 10
278.165625928086
 20
129.04489628924361
 30
0.0
 11
278.165625928086
 21
136.04489628924361
 31
0.0
  0
LINE
  5
4A
  8
0
 10
297.165625928086
 20
129.04489628924361
 30
0.0
 11
297.165625928086
 21
136.04489628924361
 31
0.0
  0
LINE
  5
4B
  8
0
 10
296.165625928086
 20
134.04489628924361
 30
0.0
 11
279.165625928086
 21
134.04489628924361
 31
0.0
  0
LINE
  5
4C
  8
0
 10
296.165625928086
 20
130.04489628924361
 30
0.0
 11
279.165625928086
 21
130.04489628924361
 31
0.0
  0
LINE
  5
4D
  8
0
 10
279.165625928086
 20
130.04489628924361
 30
0.0
 11
279.165625928086
 21
134.04489628924361
 31
0.0
  0
LINE
  5
4E
  8
0
 10
187.20178761854501
 20
134.44489628924319
 30
0.0
 11
187.20178761854501
 21
134.04489628924361
 31
0.0
  0
LINE
  5
4F
  8
0
 10
188.70178761854501
 20
134.04489628924361
 30
0.0
 11
188.70178761854501
 21
130.04489628924361
 31
0.0
  0
ARC
  5
50
  8
0
 10
177.5182841994727
 20
131.04489628924361
 30
0.0
 40
1.0
 50
69.203428339329903
 51
90.0
  0
ARC
  5
51
  8
0
 10
183.88529103761729
 20
135.04489628924361
 30
0.0
 40
1.0
 50
249.2034283393298
 51
269.99999999999989
  0
ARC
  5
52
  8
0
 10
183.70178761854501
 20
134.04489628924361
 30
0.0
 40
4.0
 50
249.2034283393298
 51
269.99999999999989
  0
ARC
  5
53
  8
0
 10
177.70178761854501
 20
132.04489628924361
 30
0.0
 40
4.0
 50
69.203428339329804
 51
89.999999999999986
  0
LINE
  5
54
  8
0
 10
183.5302400118957
 20
134.1100493664087
 30
0.0
 11
179.1219917214317
 21
135.7842839805835
 31
0.0
  0
LINE
  5
55
  8
0
 10
177.87333522519441
 20
131.97974321207849
 30
0.0
 11
182.2815835156583
 21
130.3055085979037
 31
0.0
  0
LINE
  5
56
  8
0
 10
284.86562592808662
 20
136.4448962892433
 30
0.0
 11
284.86562592808662
 21
134.04489628924361
 31
0.0
  0
LINE
  5
57
  8
0
 10
290.46562592808539
 20
136.4448962892433
 30
0.0
 11
284.86562592808662
 21
136.4448962892433
 31
0.0
  0
LINE
  5
58
  8
0
 10
290.46562592808539
 20
134.04489628924361
 30
0.0
 11
290.46562592808539
 21
136.4448962892433
 31
0.0
  0
LINE
  5
59
  8
0
 10
296.165625928086
 20
130.04489628924361
 30
0.0
 11
296.165625928086
 21
134.04489628924361
 31
0.0
  0
LINE
  5
5A
  8
2
 10
175.70178761854501
 20
132.04489628924361
 30
0.0
 11
152.70178761854501
 21
132.04489628924361
 31
0.0
  0
LINE
  5
5B
  8
0
 10
152.70178761854501
 20
133.04489628924361
 30
0.0
 11
175.70178761854501
 21
136.04489628924361
 31
0.0
  0
LINE
  5
5C
  8
0
 10
152.70178761854501
 20
129.04489628924361
 30
0.0
 11
175.70178761854501
 21
132.04489628924361
 31
0.0
  0
LINE
  5
5D
  8
0
 10
175.70178761854501
 20
136.04489628924361
 30
0.0
 11
175.70178761854501
 21
132.04489628924361
 31
0.0
  0
LINE
  5
5E
  8
0
 10
152.70178761854501
 20
136.04489628924361
 30
0.0
 11
177.70178761854501
 21
136.04489628924361
 31
0.0
  0
LINE
  5
5F
  8
0
 10
152.70178761854501
 20
129.04489628924361
 30
0.0
 11
152.70178761854501
 21
136.04489628924361
 31
0.0
  0
LINE
  5
60
  8
0
 10
189.20178761854501
 20
136.4448962892433
 30
0.0
 11
187.20178761854501
 21
134.44489628924319
 31
0.0
  0
LINE
  5
61
  8
0
 10
191.20178761854501
 20
136.4448962892433
 30
0.0
 11
189.20178761854501
 21
136.4448962892433
 31
0.0
  0
LINE
  5
62
  8
0
 10
191.20178761854501
 20
134.04489628924361
 30
0.0
 11
191.20178761854501
 21
136.4448962892433
 31
0.0
  0
LINE
  5
63
  8
0
 10
206.20178761854501
 20
134.04489628924361
 30
0.0
 11
183.88529103761729
 21
134.04489628924361
 31
0.0
  0
LINE
  5
64
  8
0
 10
177.5182841994727
 20
132.04489628924361
 30
0.0
 11
175.70178761854501
 21
132.04489628924361
 31
0.0
  0
LINE
  5
65
  8
0
 10
206.20178761854501
 20
130.04489628924361
 30
0.0
 11
183.70178761854501
 21
130.04489628924361
 31
0.0
  0
LINE
  5
66
  8
0
 10
206.20178761854501
 20
134.04489628924361
 30
0.0
 11
206.20178761854501
 21
130.04489628924361
 31
0.0
  0
LINE
  5
67
  8
0
 10
177.70178761854501
 20
211.91998750798811
 30
0.0
 11
177.70178761854501
 21
222.919987507988
 31
0.0
  0
LINE
  5
68
  8
0
 10
183.70178761854501
 20
211.91998750798811
 30
0.0
 11
183.70178761854501
 21
222.919987507988
 31
0.0
  0
LINE
  5
69
  8
1
 10
197.70178761854501
 20
235.919987507988
 30
0.0
 11
197.70178761854501
 21
198.919987507988
 31
0.0
  0
LINE
  5
6A
  8
1
 10
142.70178761854501
 20
217.41998750798811
 30
0.0
 11
216.20178761854501
 21
217.41998750798811
 31
0.0
  0
LINE
  5
6B
  8
0
 10
189.20178761854501
 20
220.2199875079875
 30
0.0
 11
189.20178761854501
 21
214.61998750798861
 31
0.0
  0
LINE
  5
6C
  8
0
 10
191.20178761854501
 20
214.61998750798861
 30
0.0
 11
191.20178761854501
 21
220.2199875079875
 31
0.0
  0
LINE
  5
6D
  8
0
 10
187.20178761854501
 20
214.61998750798861
 30
0.0
 11
191.20178761854501
 21
214.61998750798861
 31
0.0
  0
LINE
  5
6E
  8
0
 10
187.20178761854501
 20
220.2199875079875
 30
0.0
 11
187.20178761854501
 21
214.61998750798861
 31
0.0
  0
LINE
  5
6F
  8
0
 10
191.20178761854501
 20
220.2199875079875
 30
0.0
 11
187.20178761854501
 21
220.2199875079875
 31
0.0
  0
LINE
  5
70
  8
0
 10
152.70178761854501
 20
217.41998750798811
 30
0.0
 11
172.70178761854501
 21
207.91998750798811
 31
0.0
  0
LINE
  5
71
  8
0
 10
172.70178761854501
 20
226.919987507988
 30
0.0
 11
152.70178761854501
 21
217.41998750798811
 31
0.0
  0
ARC
  5
72
  8
0
 10
156.70178761854501
 20
211.91998750798811
 30
0.0
 40
4.0
 50
180.0
 51
269.99999999999989
  0
ARC
  5
73
  8
0
 10
156.70178761854501
 20
222.919987507988
 30
0.0
 40
4.0
 50
90.0
 51
179.99999999999989
  0
LINE
  5
74
  8
0
 10
175.70178761854501
 20
226.919987507988
 30
0.0
 11
188.70178761854501
 21
224.41998750798811
 31
0.0
  0
LINE
  5
75
  8
0
 10
156.70178761854501
 20
226.919987507988
 30
0.0
 11
175.70178761854501
 21
226.919987507988
 31
0.0
  0
LINE
  5
76
  8
0
 10
152.70178761854501
 20
211.91998750798811
 30
0.0
 11
152.70178761854501
 21
222.919987507988
 31
0.0
  0
LINE
  5
77
  8
0
 10
175.70178761854501
 20
207.91998750798811
 30
0.0
 11
156.70178761854501
 21
207.91998750798811
 31
0.0
  0
LINE
  5
78
  8
0
 10
188.70178761854501
 20
210.419987507988
 30
0.0
 11
175.70178761854501
 21
207.91998750798811
 31
0.0
  0
ARC
  5
79
  8
0
 10
197.70178761854501
 20
217.41998750798811
 30
0.0
 40
8.5
 50
259.67297928325621
 51
100.3270207167438
  0
LINE
  5
7A
  8
0
 10
188.70178761854501
 20
210.419987507988
 30
0.0
 11
196.17802495368909
 21
209.05768236280281
 31
0.0
  0
LINE
  5
7B
  8
0
 10
188.70178761854501
 20
224.41998750798811
 30
0.0
 11
196.17802495368909
 21
225.7822926531733
 31
0.0
  0
LINE
  5
7C
  8
0
 10
193.65178761854551
 20
213.3699875079885
 30
0.0
 11
201.75178761854451
 21
213.3699875079885
 31
0.0
  0
LINE
  5
7D
  8
0
 10
193.65178761854551
 20
221.46998750798761
 30
0.0
 11
193.65178761854551
 21
213.3699875079885
 31
0.0
  0
LINE
  5
7E
  8
0
 10
201.75178761854471
 20
221.46998750798761
 30
0.0
 11
193.65178761854551
 21
221.46998750798761
 31
0.0
  0
LINE
  5
7F
  8
0
 10
201.75178761854451
 20
213.3699875079885
 30
0.0
 11
201.75178761854451
 21
221.46998750798761
 31
0.0
  0
LINE
  5
80
  8
0
 10
201.75178761854451
 20
50.735553620280413
 30
0.0
 11
201.75178761854451
 21
58.835553620279512
 31
0.0
  0
LINE
  5
81
  8
0
 10
201.75178761854471
 20
58.835553620279512
 30
0.0
 11
193.65178761854551
 21
58.835553620279512
 31
0.0
  0
LINE
  5
82
  8
0
 10
193.65178761854551
 20
58.835553620279512
 30
0.0
 11
193.65178761854551
 21
50.73555362028052
 31
0.0
  0
LINE
  5
83
  8
0
 10
193.65178761854551
 20
50.735553620280413
 30
0.0
 11
201.75178761854451
 21
50.735553620280413
 31
0.0
  0
LINE
  5
84
  8
0
 10
188.70178761854501
 20
61.78555362028002
 30
0.0
 11
196.17802495368909
 21
63.147858765465259
 31
0.0
  0
LINE
  5
85
  8
0
 10
188.70178761854501
 20
47.78555362028002
 30
0.0
 11
196.17802495368909
 21
46.423248475094773
 31
0.0
  0
ARC
  5
86
  8
0
 10
197.70178761854501
 20
54.78555362028002
 30
0.0
 40
8.5
 50
259.67297928325621
 51
100.3270207167438
  0
LINE
  5
87
  8
0
 10
188.70178761854501
 20
47.78555362028002
 30
0.0
 11
175.70178761854501
 21
45.28555362028002
 31
0.0
  0
LINE
  5
88
  8
0
 10
175.70178761854501
 20
45.28555362028002
 30
0.0
 11
156.70178761854501
 21
45.28555362028002
 31
0.0
  0
LINE
  5
89
  8
0
 10
152.70178761854501
 20
49.28555362028002
 30
0.0
 11
152.70178761854501
 21
60.28555362028002
 31
0.0
  0
LINE
  5
8A
  8
0
 10
156.70178761854501
 20
64.285553620280012
 30
0.0
 11
175.70178761854501
 21
64.285553620280012
 31
0.0
  0
LINE
  5
8B
  8
0
 10
175.70178761854501
 20
64.285553620280012
 30
0.0
 11
188.70178761854501
 21
61.78555362028002
 31
0.0
  0
ARC
  5
8C
  8
0
 10
156.70178761854501
 20
60.28555362028002
 30
0.0
 40
4.0
 50
90.0
 51
179.99999999999989
  0
ARC
  5
8D
  8
0
 10
156.70178761854501
 20
49.28555362028002
 30
0.0
 40
4.0
 50
180.0
 51
269.99999999999989
  0
LINE
  5
8E
  8
0
 10
172.70178761854501
 20
64.285553620280012
 30
0.0
 11
152.70178761854501
 21
54.78555362028002
 31
0.0
  0
LINE
  5
8F
  8
0
 10
152.70178761854501
 20
54.78555362028002
 30
0.0
 11
172.70178761854501
 21
45.28555362028002
 31
0.0
  0
LINE
  5
90
  8
0
 10
191.20178761854501
 20
57.585553620279413
 30
0.0
 11
187.20178761854501
 21
57.585553620279413
 31
0.0
  0
LINE
  5
91
  8
0
 10
187.20178761854501
 20
57.585553620279413
 30
0.0
 11
187.20178761854501
 21
51.985553620280633
 31
0.0
  0
LINE
  5
92
  8
0
 10
187.20178761854501
 20
51.985553620280633
 30
0.0
 11
191.20178761854501
 21
51.985553620280633
 31
0.0
  0
LINE
  5
93
  8
0
 10
191.20178761854501
 20
51.985553620280633
 30
0.0
 11
191.20178761854501
 21
57.585553620279413
 31
0.0
  0
LINE
  5
94
  8
1
 10
142.70178761854501
 20
54.78555362028002
 30
0.0
 11
216.20178761854501
 21
54.78555362028002
 31
0.0
  0
LINE
  5
95
  8
1
 10
197.70178761854501
 20
73.285553620280012
 30
0.0
 11
197.70178761854501
 21
36.28555362028002
 31
0.0
  0
LINE
  5
96
  8
0
 10
183.70178761854501
 20
49.28555362028002
 30
0.0
 11
183.70178761854501
 21
60.28555362028002
 31
0.0
  0
LINE
  5
97
  8
0
 10
177.70178761854501
 20
49.28555362028002
 30
0.0
 11
177.70178761854501
 21
60.28555362028002
 31
0.0
  0
TEXT
  5
1E9
  8
0
 62
     3
 10
0.0
 20
0.0
 30
0.0
 40
10.0
  1
SGC4516
  7
STANDARD1
  0
ENDSEC
  0
EOF
